  0
SECTION
  2
HEADER
  9
$ACADVER
  1
AC1012
  9
$DWGCODEPAGE
  3
dos932
  9
$INSBASE
 10
0.0
 20
0.0
 30
0.0
  9
$EXTMIN
 10
3304.8642345384997
 20
-1219.6822629637338
 30
0.0
  9
$EXTMAX
 10
7204.8642345384997
 20
1530.3177370362662
 30
0.0
  9
$LIMMIN
 10
0.0
 20
0.0
  9
$LIMMAX
 10
0.0
 20
0.0
  9
$ORTHOMODE
 70
               0
  9
$REGENMODE
 70
               1
  9
$FILLMODE
 70
               1
  9
$QTEXTMODE
 70
               0
  9
$MIRRTEXT
 70
               1
  9
$DRAGMODE
 70
               2
  9
$LTSCALE
 40
50.799999999999997
  9
$OSMODE
 70
               0
  9
$ATTMODE
 70
               1
  9
$TEXTSIZE
 40
0.2
  9
$TRACEWID
 40
1.0
  9
$TEXTSTYLE
  7
STANDARD
  9
$CLAYER
  8
IMPORTED
  9
$CELTYPE
  6
CONTINUOUS
  9
$CECOLOR
 62
             256
  9
$CELTSCALE
 40
1.0
  9
$DELOBJ
 70
               1
  9
$DISPSILH
 70
               0
  9
$DIMSCALE
 40
1.0
  9
$DIMASZ
 40
0.18
  9
$DIMEXO
 40
0.0625
  9
$DIMDLI
 40
0.38
  9
$DIMRND
 40
0.0
  9
$DIMDLE
 40
0.0
  9
$DIMEXE
 40
0.18
  9
$DIMTP
 40
0.0
  9
$DIMTM
 40
0.0
  9
$DIMTXT
 40
0.18
  9
$DIMCEN
 40
0.09
  9
$DIMTSZ
 40
0.0
  9
$DIMTOL
 70
               0
  9
$DIMLIM
 70
               0
  9
$DIMTIH
 70
               1
  9
$DIMTOH
 70
               1
  9
$DIMSE1
 70
               0
  9
$DIMSE2
 70
               0
  9
$DIMTAD
 70
               0
  9
$DIMZIN
 70
               0
  9
$DIMBLK
  1

  9
$DIMASO
 70
               1
  9
$DIMSHO
 70
               1
  9
$DIMPOST
  1

  9
$DIMAPOST
  1

  9
$DIMALT
 70
               0
  9
$DIMALTD
 70
               2
  9
$DIMALTF
 40
25.399999999999999
  9
$DIMLFAC
 40
1.0
  9
$DIMTOFL
 70
               0
  9
$DIMTVP
 40
0.0
  9
$DIMTIX
 70
               0
  9
$DIMSOXD
 70
               0
  9
$DIMSAH
 70
               0
  9
$DIMBLK1
  1

  9
$DIMBLK2
  1

  9
$DIMSTYLE
  2
STANDARD
  9
$DIMCLRD
 70
               0
  9
$DIMCLRE
 70
               0
  9
$DIMCLRT
 70
               0
  9
$DIMTFAC
 40
1.0
  9
$DIMGAP
 40
0.09
  9
$DIMJUST
 70
               0
  9
$DIMSD1
 70
               0
  9
$DIMSD2
 70
               0
  9
$DIMTOLJ
 70
               1
  9
$DIMTZIN
 70
               0
  9
$DIMALTZ
 70
               0
  9
$DIMALTTZ
 70
               0
  9
$DIMFIT
 70
               3
  9
$DIMUPT
 70
               0
  9
$DIMUNIT
 70
               2
  9
$DIMDEC
 70
               4
  9
$DIMTDEC
 70
               4
  9
$DIMALTU
 70
               2
  9
$DIMALTTD
 70
               2
  9
$DIMTXSTY
  7
STANDARD
  9
$DIMAUNIT
 70
               0
  9
$LUNITS
 70
               2
  9
$LUPREC
 70
               4
  9
$SKETCHINC
 40
0.1
  9
$FILLETRAD
 40
0.0
  9
$AUNITS
 70
               0
  9
$AUPREC
 70
               0
  9
$MENU
  1
acad
  9
$ELEVATION
 40
0.0
  9
$PELEVATION
 40
0.0
  9
$THICKNESS
 40
0.0
  9
$LIMCHECK
 70
               0
  9
$BLIPMODE
 70
               0
  9
$CHAMFERA
 40
0.0
  9
$CHAMFERB
 40
0.0
  9
$CHAMFERC
 40
0.0
  9
$CHAMFERD
 40
0.0
  9
$SKPOLY
 70
               0
  9
$TDCREATE
 40
2459227.595335648
  9
$TDUPDATE
 40
2459227.595335648
  9
$TDINDWG
 40
0.0000000000
  9
$TDUSRTIMER
 40
0.0000000000
  9
$USRTIMER
 70
               1
  9
$ANGBASE
 50
0.0
  9
$ANGDIR
 70
               0
  9
$PDMODE
 70
               1
  9
$PDSIZE
 40
-2.0
  9
$PLINEWID
 40
0.0
  9
$COORDS
 70
               0
  9
$SPLFRAME
 70
               0
  9
$SPLINETYPE
 70
               6
  9
$SPLINESEGS
 70
               8
  9
$ATTDIA
 70
               0
  9
$ATTREQ
 70
               1
  9
$HANDLING
 70
               1
  9
$HANDSEED
  5
701
  9
$SURFTAB1
 70
               6
  9
$SURFTAB2
 70
               6
  9
$SURFTYPE
 70
               6
  9
$SURFU
 70
               6
  9
$SURFV
 70
               6
  9
$UCSNAME
  2

  9
$UCSORG
 10
0.0
 20
0.0
 30
0.0
  9
$UCSXDIR
 10
1.0
 20
0.0
 30
0.0
  9
$UCSYDIR
 10
0.0
 20
1.0
 30
0.0
  9
$PUCSNAME
  2

  9
$PUCSORG
 10
0.0
 20
0.0
 30
0.0
  9
$PUCSXDIR
 10
1.0
 20
0.0
 30
0.0
  9
$PUCSYDIR
 10
0.0
 20
1.0
 30
0.0
  9
$USERI1
 70
               0
  9
$USERI2
 70
               0
  9
$USERI3
 70
               0
  9
$USERI4
 70
               0
  9
$USERI5
 70
               0
  9
$USERR1
 40
0.0
  9
$USERR2
 40
0.0
  9
$USERR3
 40
0.0
  9
$USERR4
 40
0.0
  9
$USERR5
 40
0.0
  9
$WORLDVIEW
 70
               1
  9
$SHADEDGE
 70
               3
  9
$SHADEDIF
 70
              70
  9
$TILEMODE
 70
               1
  9
$MAXACTVP
 70
              64
  9
$PINSBASE
 10
0.0
 20
0.0
 30
0.0
  9
$PLIMCHECK
 70
               0
  9
$PEXTMIN
 10
1.0000000000000000E+20
 20
1.0000000000000000E+20
 30
1.0000000000000000E+20
  9
$PEXTMAX
 10
-1.0000000000000000E+20
 20
-1.0000000000000000E+20
 30
-1.0000000000000000E+20
  9
$PLIMMIN
 10
0.0
 20
0.0
  9
$PLIMMAX
 10
12.0
 20
9.0
  9
$UNITMODE
 70
               0
  9
$VISRETAIN
 70
               0
  9
$PLINEGEN
 70
               1
  9
$PSLTSCALE
 70
               0
  9
$TREEDEPTH
 70
            3020
  9
$PICKSTYLE
 70
               1
  9
$CMLSTYLE
  2
STANDARD
  9
$CMLJUST
 70
               0
  9
$CMLSCALE
 40
1.0
  9
$SAVEIMAGES
 70
               0
  0
ENDSEC
  0
SECTION
  2
CLASSES
  0
CLASS
  1
LWPOLYLINE
  2
AcDbPolyline
  3
"AutoCAD"
 90
    32768
280
               0
281
               1
  0
CLASS
  1
IMAGE
  2
AcDbRasterImage
  3
ISM
 90
    32895
280
               0
281
               1
  0
CLASS
  1
OLE2FRAME
  2
AcDbOle2Frame
  3
""
 90
    32768
280
               0
281
               1
  0
CLASS
  1
HATCH
  2
AcDbHatch
  3
"ACAD_SEDONA"
 90
    32768
280
               0
281
               1
  0
CLASS
  1
DICTIONARYVAR
  2
AcDbDictionaryVar
  3
"AutoCAD"
 90
    32768
280
               0
281
               0
  0
CLASS
  1
RASTERVARIABLES
  2
AcDbRasterVariables
  3
ISM
 90
    32768
280
               0
281
               0
  0
CLASS
  1
IMAGEDEF
  2
AcDbRasterImageDef
  3
ISM
 90
    32768
280
               0
281
               0
  0
CLASS
  1
IMAGEDEF_REACTOR
  2
AcDbRasterImageDefReactor
  3
ISM
 90
    32769
280
               0
281
               0
  0
CLASS
  1
IDBUFFER
  2
AcDbIdBuffer
  3
"Acad"
 90
    32768
280
               0
281
               0
  0
CLASS
  1
SPATIAL_FILTER
  2
AcDbSpatialFilter
  3
"Acad"
 90
    32768
280
               0
281
               0
  0
CLASS
  1
XRECORD
  2
AcDbXrecord
  3
"<Built In>"
 90
    32768
280
               0
281
               0
  0
CLASS
  1
SORTENTSTABLE
  2
AcDbSortentsTable
  3
"AutoCAD"
 90
    32768
280
               0
281
               0
  0
CLASS
  1
LAYER_INDEX
  2
AcDbLayerIndex
  3
"Acad"
 90
    32768
280
               0
281
               0
  0
CLASS
  1
SPATIAL_INDEX
  2
AcDbSpatialIndex
  3
"Acad"
 90
    32768
280
               0
281
               0
  0
CLASS
  1
OBJECT_PTR
  2
CAseDLPNTableRecord
  3
"ASE-LPNTableRecord"
 90
    32769
280
               0
281
               0
  0
CLASS
  1
LAYOUT
  2
AcDbLayout
  3
"AutoCAD 2000"
 90
    32768
280
               0
281
               0
  0
CLASS
  1
PLOTSETTINGS
  2
AcDbPlotSettings
  3
"AutoCAD 2000"
 90
    32768
280
               0
281
               0
  0
CLASS
  1
ACDBDICTIONARYWDFLT
  2
AcDbDictionaryWithDefault
  3
"AutoCAD 2000"
 90
    32768
280
               0
281
               0
  0
CLASS
  1
ACDBPLACEHOLDER
  2
AcDbPlaceHolder
  3
"AutoCAD 2000"
 90
    32768
280
               0
281
               0
  0
ENDSEC
  0
SECTION
  2
TABLES
  0
TABLE
  2
VPORT
  5
7
100
AcDbSymbolTable
 70
               1
  0
VPORT
  5
15
100
AcDbSymbolTableRecord
100
AcDbViewportTableRecord
  2
*ACTIVE
 70
               0
 10
0.0
 20
0.0
 11
1.0
 21
1.0
 12
5254.8642345384997
 22
155.31773703626618
 13
0.0
 23
0.0
 14
1.0
 24
1.0
 15
0.0
 25
0.0
 16
0.0
 26
0.0
 36
1.0
 17
0.0
 27
0.0
 37
0.0
 40
2750.0
 41
0.688564
 42
50.0
 43
0.0
 44
0.0
 50
0.0
 51
0.0
 71
               0
 72
            2000
 73
               1
 74
               1
 75
               0
 76
               0
 77
               0
 78
               0
  0
ENDTAB
  0
TABLE
  2
LTYPE
  5
4
100
AcDbSymbolTable
 70
              15
  0
LTYPE
  5
11
100
AcDbSymbolTableRecord
100
AcDbLinetypeTableRecord
  2
BYBLOCK
 70
              64
  3

 72
              65
 73
               0
 40
0.0
  0
LTYPE
  5
12
100
AcDbSymbolTableRecord
100
AcDbLinetypeTableRecord
  2
BYLAYER
 70
              64
  3

 72
              65
 73
               0
 40
0.0
  0
LTYPE
  5
13
100
AcDbSymbolTableRecord
100
AcDbLinetypeTableRecord
  2
CONTINUOUS
 70
              64
  3
Solid line
 72
              65
 73
               0
 40
0.0
  0
LTYPE
  5
1E
100
AcDbSymbolTableRecord
100
AcDbLinetypeTableRecord
  2
STYLE_01
 70
               0
  3

 72
              65
 73
               2
 40
0.4166412353515625
 49
0.208282470703125
 74
               0
 49
-0.2083587646484375
 74
               0
  0
LTYPE
  5
1F
100
AcDbSymbolTableRecord
100
AcDbLinetypeTableRecord
  2
STYLE_02
 70
               0
  3

 72
              65
 73
               2
 40
0.694427490234375
 49
0.4860687255859375
 74
               0
 49
-0.2083587646484375
 74
               0
  0
LTYPE
  5
20
100
AcDbSymbolTableRecord
100
AcDbLinetypeTableRecord
  2
STYLE_03
 70
               0
  3

 72
              65
 73
               2
 40
1.25
 49
1.0416412353515625
 74
               0
 49
-0.2083587646484375
 74
               0
  0
LTYPE
  5
21
100
AcDbSymbolTableRecord
100
AcDbLinetypeTableRecord
  2
STYLE_04
 70
               0
  3

 72
              65
 73
               2
 40
1.5277099609375
 49
1.319427490234375
 74
               0
 49
-0.208282470703125
 74
               0
  0
LTYPE
  5
22
100
AcDbSymbolTableRecord
100
AcDbLinetypeTableRecord
  2
STYLE_05
 70
               0
  3

 72
              65
 73
               2
 40
0.208282470703125
 49
0.069427490234375
 74
               0
 49
-0.13885498046875
 74
               0
  0
LTYPE
  5
23
100
AcDbSymbolTableRecord
100
AcDbLinetypeTableRecord
  2
STYLE_06
 70
               0
  3

 72
              65
 73
               4
 40
1.0416412353515625
 49
0.625
 74
               0
 49
-0.208282470703125
 74
               0
 49
0.069427490234375
 74
               0
 49
-0.1389312744140625
 74
               0
  0
LTYPE
  5
24
100
AcDbSymbolTableRecord
100
AcDbLinetypeTableRecord
  2
STYLE_07
 70
               0
  3

 72
              65
 73
               6
 40
1.875
 49
0.625
 74
               0
 49
-0.208282470703125
 74
               0
 49
0.625
 74
               0
 49
-0.2083587646484375
 74
               0
 49
0.069427490234375
 74
               0
 49
-0.1389312744140625
 74
               0
  0
LTYPE
  5
25
100
AcDbSymbolTableRecord
100
AcDbLinetypeTableRecord
  2
STYLE_08
 70
               0
  3

 72
              65
 73
               6
 40
1.25
 49
0.625
 74
               0
 49
-0.208282470703125
 74
               0
 49
0.069427490234375
 74
               0
 49
-0.1389312744140625
 74
               0
 49
0.069427490234375
 74
               0
 49
-0.1389312744140625
 74
               0
  0
LTYPE
  5
26
100
AcDbSymbolTableRecord
100
AcDbLinetypeTableRecord
  2
STYLE_09
 70
               0
  3

 72
              65
 73
               2
 40
0.1476287841796875
 49
0.098419189453125
 74
               0
 49
-0.0492095947265625
 74
               0
  0
LTYPE
  5
27
100
AcDbSymbolTableRecord
100
AcDbLinetypeTableRecord
  2
STYLE_10
 70
               0
  3

 72
              65
 73
               4
 40
0.3936767578125
 49
0.2460479736328125
 74
               0
 49
-0.0492095947265625
 74
               0
 49
0.0492095947265625
 74
               0
 49
-0.0492095947265625
 74
               0
  0
LTYPE
  5
28
100
AcDbSymbolTableRecord
100
AcDbLinetypeTableRecord
  2
STYLE_11
 70
               0
  3

 72
              65
 73
               2
 40
0.694427490234375
 49
0.4860687255859375
 74
               0
 49
-0.2083587646484375
 74
               0
  0
LTYPE
  5
29
100
AcDbSymbolTableRecord
100
AcDbLinetypeTableRecord
  2
STYLE_12
 70
               0
  3

 72
              65
 73
               2
 40
0.208282470703125
 49
0.069427490234375
 74
               0
 49
-0.13885498046875
 74
               0
  0
ENDTAB
  0
TABLE
  2
LAYER
  5
2
100
AcDbSymbolTable
 70
               2
  0
LAYER
  5
14
100
AcDbSymbolTableRecord
100
AcDbLayerTableRecord
  2
0
 70
               0
 62
               7
  6
CONTINUOUS
  0
LAYER
  5
2A
100
AcDbSymbolTableRecord
100
AcDbLayerTableRecord
  2
IMPORTED
 70
               0
 62
               7
  6
CONTINUOUS
  0
ENDTAB
  0
TABLE
  2
STYLE
  5
3
100
AcDbSymbolTable
 70
               2
  0
STYLE
  5
17
100
AcDbSymbolTableRecord
100
AcDbTextStyleTableRecord
  2
STANDARD
 70
               0
 40
0.0
 41
1.0
 50
0.0
 71
               0
 42
0.0
  3
txt
  4
BIGFONT.SHX
  0
STYLE
  5
1D
100
AcDbSymbolTableRecord
100
AcDbTextStyleTableRecord
  2
_______
 70
               0
 40
0.0
 41
1.0
 50
0.0
 71
               0
 42
0.0
  3

  4
ＭＳ ゴシック
1001
ACAD
1000
ＭＳ ゴシック
1071
        0
  0
ENDTAB
  0
TABLE
  2
VIEW
  5
5
100
AcDbSymbolTable
 70
               0
  0
ENDTAB
  0
TABLE
  2
UCS
  5
6
100
AcDbSymbolTable
 70
               0
  0
ENDTAB
  0
TABLE
  2
APPID
  5
8
100
AcDbSymbolTable
 70
               1
  0
APPID
  5
16
100
AcDbSymbolTableRecord
100
AcDbRegAppTableRecord
  2
ACAD
 70
               0
  0
ENDTAB
  0
TABLE
  2
DIMSTYLE
  5
9
100
AcDbSymbolTable
 70
               1
  0
DIMSTYLE
105
18
100
AcDbSymbolTableRecord
100
AcDbDimStyleTableRecord
  2
STANDARD
 70
               0
  3

  4

  5

  6

  7

 40
1.0
 41
0.18
 42
0.0625
 43
0.38
 44
0.18
 45
0.0
 46
0.0
 47
0.0
 48
0.0
 71
               0
 72
               0
 73
               1
 74
               1
 75
               0
 76
               0
 77
               0
 78
               0
140
0.18
141
0.09
142
0.0
143
25.399999999999999
144
1.0
145
0.0
146
1.0
147
0.09
170
               0
171
               2
172
               0
173
               0
174
               0
175
               0
176
               0
177
               0
178
               0
270
               2
271
               4
272
               4
273
               2
274
               2
275
               0
280
               0
281
               0
282
               0
283
               1
284
               0
285
               0
286
               0
287
               3
288
               0
340
17
  0
ENDTAB
  0
TABLE
  2
BLOCK_RECORD
  5
1
100
AcDbSymbolTable
 70
               0
  0
BLOCK_RECORD
  5
A
100
AcDbSymbolTableRecord
100
AcDbBlockTableRecord
  2
*MODEL_SPACE
  0
BLOCK_RECORD
  5
B
100
AcDbSymbolTableRecord
100
AcDbBlockTableRecord
  2
*PAPER_SPACE
  0
ENDTAB
  0
ENDSEC
  0
SECTION
  2
BLOCKS
  0
BLOCK
  5
D
100
AcDbEntity
  8
0
100
AcDbBlockBegin
  2
*MODEL_SPACE
 70
               0
 10
0.0
 20
0.0
 30
0.0
  3
*MODEL_SPACE
  1

  0
ENDBLK
  5
E
100
AcDbEntity
  8
0
100
AcDbBlockEnd
  0
BLOCK
  5
F
100
AcDbEntity
 67
               1
  8
0
100
AcDbBlockBegin
  2
*PAPER_SPACE
 70
               0
 10
0.0
 20
0.0
 30
0.0
  3
*PAPER_SPACE
  1

  0
ENDBLK
  5
10
100
AcDbEntity
 67
               1
  8
0
100
AcDbBlockEnd
  0
ENDSEC
  0
SECTION
  2
ENTITIES
  0
POLYLINE
  5
2B
100
AcDbEntity
  8
IMPORTED
  6
CONTINUOUS
 62
              30
100
AcDb2dPolyline
 66
               1
 10
0.0
 20
0.0
 30
0.0
 70
               1
 75
               5
  0
VERTEX
  5
2C
100
AcDbEntity
  8
IMPORTED
  6
CONTINUOUS
 62
              30
100
AcDbVertex
100
AcDb2dVertex
 10
6358.8795821575477
 20
337.88984785741707
 30
0.0
  0
VERTEX
  5
2D
100
AcDbEntity
  8
IMPORTED
  6
CONTINUOUS
 62
              30
100
AcDbVertex
100
AcDb2dVertex
 10
6354.0701421575477
 20
337.88984785741707
 30
0.0
  0
VERTEX
  5
2E
100
AcDbEntity
  8
IMPORTED
  6
CONTINUOUS
 62
              30
100
AcDbVertex
100
AcDb2dVertex
 10
6353.4895821575474
 20
338.89539785741692
 30
0.0
  0
VERTEX
  5
2F
100
AcDbEntity
  8
IMPORTED
  6
CONTINUOUS
 62
              30
100
AcDbVertex
100
AcDb2dVertex
 10
6353.4895821575474
 20
351.89539785741692
 30
0.0
  0
VERTEX
  5
30
100
AcDbEntity
  8
IMPORTED
  6
CONTINUOUS
 62
              30
100
AcDbVertex
100
AcDb2dVertex
 10
6354.0701421575477
 20
352.90094785741701
 30
0.0
  0
VERTEX
  5
31
100
AcDbEntity
  8
IMPORTED
  6
CONTINUOUS
 62
              30
100
AcDbVertex
100
AcDb2dVertex
 10
6358.8795821575477
 20
352.90094785741701
 30
0.0
  0
SEQEND
  5
32
100
AcDbEntity
  8
IMPORTED
  6
CONTINUOUS
 62
              30
  0
SPLINE
  5
34
100
AcDbEntity
  8
IMPORTED
  6
CONTINUOUS
 62
              30
100
AcDbSpline
210
0.0
220
0.0
230
1.0
 70
               8
 71
               2
 72
              10
 73
               7
 74
               0
 42
0.000001
 43
0.000001
 40
0.0
 40
0.0
 40
0.0
 40
1.0
 40
1.0
 40
2.0
 40
2.0
 40
3.0
 40
3.0
 40
3.0
 10
6354.0701421575477
 20
337.88984785741707
 30
0.0
 10
6352.9114112933503
 20
339.76623785741685
 30
0.0
 10
6354.0701421575477
 20
341.6426278574171
 30
0.0
 10
6352.9114112933503
 20
345.39540785741724
 30
0.0
 10
6354.0701421575477
 20
349.14818785741693
 30
0.0
 10
6352.9114112933503
 20
351.02457785741717
 30
0.0
 10
6354.0701421575477
 20
352.90096785741696
 30
0.0
  0
LINE
  5
35
100
AcDbEntity
  8
IMPORTED
  6
CONTINUOUS
 62
              30
100
AcDbLine
 10
6358.8795821575477
 20
349.14817785741695
 30
0.0
 11
6354.0701421575477
 21
349.14817785741695
 31
0.0
  0
LINE
  5
36
100
AcDbEntity
  8
IMPORTED
  6
CONTINUOUS
 62
              30
100
AcDbLine
 10
6354.0701421575477
 20
341.6426278574171
 30
0.0
 11
6358.8795821575477
 21
341.6426278574171
 31
0.0
  0
POLYLINE
  5
37
100
AcDbEntity
  8
IMPORTED
  6
STYLE_05
 62
              30
100
AcDb2dPolyline
 66
               1
 10
0.0
 20
0.0
 30
0.0
 70
               1
 75
               5
  0
VERTEX
  5
38
100
AcDbEntity
  8
IMPORTED
  6
STYLE_05
 62
              30
100
AcDbVertex
100
AcDb2dVertex
 10
6358.8795821575477
 20
341.39539785741692
 30
0.0
  0
VERTEX
  5
39
100
AcDbEntity
  8
IMPORTED
  6
STYLE_05
 62
              30
100
AcDbVertex
100
AcDb2dVertex
 10
6382.7970421575474
 20
341.39539785741692
 30
0.0
  0
VERTEX
  5
3A
100
AcDbEntity
  8
IMPORTED
  6
STYLE_05
 62
              30
100
AcDbVertex
100
AcDb2dVertex
 10
6383.8795821575477
 20
342.47793785741703
 30
0.0
  0
VERTEX
  5
3B
100
AcDbEntity
  8
IMPORTED
  6
STYLE_05
 62
              30
100
AcDbVertex
100
AcDb2dVertex
 10
6383.8795821575477
 20
348.31286785741702
 30
0.0
  0
VERTEX
  5
3C
100
AcDbEntity
  8
IMPORTED
  6
STYLE_05
 62
              30
100
AcDbVertex
100
AcDb2dVertex
 10
6382.7970421575474
 20
349.39540785741713
 30
0.0
  0
VERTEX
  5
3D
100
AcDbEntity
  8
IMPORTED
  6
STYLE_05
 62
              30
100
AcDbVertex
100
AcDb2dVertex
 10
6358.8795821575477
 20
349.39540785741713
 30
0.0
  0
SEQEND
  5
3E
100
AcDbEntity
  8
IMPORTED
  6
STYLE_05
 62
              30
  0
LINE
  5
40
100
AcDbEntity
  8
IMPORTED
  6
CONTINUOUS
 62
              30
100
AcDbLine
 10
6382.7970421575474
 20
341.39539785741692
 30
0.0
 11
6382.7970421575474
 21
349.39539785741692
 31
0.0
  0
LINE
  5
41
100
AcDbEntity
  8
IMPORTED
  6
CONTINUOUS
 62
              30
100
AcDbLine
 10
6361.3795821575477
 20
341.39539785741692
 30
0.0
 11
6361.3795821575477
 21
349.39539785741692
 31
0.0
  0
LINE
  5
42
100
AcDbEntity
  8
IMPORTED
  6
STYLE_05
 62
               1
100
AcDbLine
 10
6361.3795821575477
 20
348.31285785741704
 30
0.0
 11
6383.8795821575477
 21
348.31285785741704
 31
0.0
  0
LINE
  5
43
100
AcDbEntity
  8
IMPORTED
  6
STYLE_05
 62
               1
100
AcDbLine
 10
6361.3795821575477
 20
342.47792785741706
 30
0.0
 11
6383.8795821575477
 21
342.47792785741706
 31
0.0
  0
POLYLINE
  5
44
100
AcDbEntity
  8
IMPORTED
  6
CONTINUOUS
 62
              30
100
AcDb2dPolyline
 66
               1
 10
0.0
 20
0.0
 30
0.0
 70
               1
 75
               5
  0
VERTEX
  5
45
100
AcDbEntity
  8
IMPORTED
  6
CONTINUOUS
 62
              30
100
AcDbVertex
100
AcDb2dVertex
 10
6372.5601421575475
 20
337.88983785741709
 30
0.0
  0
VERTEX
  5
46
100
AcDbEntity
  8
IMPORTED
  6
CONTINUOUS
 62
              30
100
AcDbVertex
100
AcDb2dVertex
 10
6371.9795821575481
 20
338.89538785741695
 30
0.0
  0
VERTEX
  5
47
100
AcDbEntity
  8
IMPORTED
  6
CONTINUOUS
 62
              30
100
AcDbVertex
100
AcDb2dVertex
 10
6371.9795821575481
 20
351.89538785741718
 30
0.0
  0
VERTEX
  5
48
100
AcDbEntity
  8
IMPORTED
  6
CONTINUOUS
 62
              30
100
AcDbVertex
100
AcDb2dVertex
 10
6372.5601421575475
 20
352.90093785741703
 30
0.0
  0
VERTEX
  5
49
100
AcDbEntity
  8
IMPORTED
  6
CONTINUOUS
 62
              30
100
AcDbVertex
100
AcDb2dVertex
 10
6378.1990321575477
 20
352.90093785741703
 30
0.0
  0
VERTEX
  5
4A
100
AcDbEntity
  8
IMPORTED
  6
CONTINUOUS
 62
              30
100
AcDbVertex
100
AcDb2dVertex
 10
6378.779592157548
 20
351.89538785741718
 30
0.0
  0
VERTEX
  5
4B
100
AcDbEntity
  8
IMPORTED
  6
CONTINUOUS
 62
              30
100
AcDbVertex
100
AcDb2dVertex
 10
6378.779592157548
 20
338.89538785741695
 30
0.0
  0
VERTEX
  5
4C
100
AcDbEntity
  8
IMPORTED
  6
CONTINUOUS
 62
              30
100
AcDbVertex
100
AcDb2dVertex
 10
6378.1990321575477
 20
337.88983785741709
 30
0.0
  0
SEQEND
  5
4D
100
AcDbEntity
  8
IMPORTED
  6
CONTINUOUS
 62
              30
  0
SPLINE
  5
4F
100
AcDbEntity
  8
IMPORTED
  6
CONTINUOUS
 62
              30
100
AcDbSpline
210
0.0
220
0.0
230
1.0
 70
               8
 71
               2
 72
              10
 73
               7
 74
               0
 42
0.000001
 43
0.000001
 40
0.0
 40
0.0
 40
0.0
 40
1.0
 40
1.0
 40
2.0
 40
2.0
 40
3.0
 40
3.0
 40
3.0
 10
6372.5601421575475
 20
337.88983785741709
 30
0.0
 10
6371.401411293351
 20
339.76622785741688
 30
0.0
 10
6372.5601421575475
 20
341.64261785741712
 30
0.0
 10
6371.401411293351
 20
345.3953978574167
 30
0.0
 10
6372.5601421575475
 20
349.14817785741718
 30
0.0
 10
6371.401411293351
 20
351.02456785741708
 30
0.0
 10
6372.5601421575475
 20
352.90095785741698
 30
0.0
  0
SPLINE
  5
50
100
AcDbEntity
  8
IMPORTED
  6
CONTINUOUS
 62
              30
100
AcDbSpline
210
0.0
220
0.0
230
1.0
 70
               8
 71
               2
 72
              10
 73
               7
 74
               0
 42
0.000001
 43
0.000001
 40
0.0
 40
0.0
 40
0.0
 40
1.0
 40
1.0
 40
2.0
 40
2.0
 40
3.0
 40
3.0
 40
3.0
 10
6378.1990321575477
 20
337.88984785741707
 30
0.0
 10
6379.3577630217451
 20
339.76623785741685
 30
0.0
 10
6378.1990321575477
 20
341.6426278574171
 30
0.0
 10
6379.3577630217451
 20
345.39540785741724
 30
0.0
 10
6378.1990321575477
 20
349.14818785741693
 30
0.0
 10
6379.3577630217451
 20
351.02457785741717
 30
0.0
 10
6378.1990321575477
 20
352.90096785741696
 30
0.0
  0
LINE
  5
51
100
AcDbEntity
  8
IMPORTED
  6
CONTINUOUS
 62
              30
100
AcDbLine
 10
6372.5601421575475
 20
341.64260785741715
 30
0.0
 11
6378.1990321575477
 21
341.64260785741715
 31
0.0
  0
LINE
  5
52
100
AcDbEntity
  8
IMPORTED
  6
CONTINUOUS
 62
              30
100
AcDbLine
 10
6378.1990321575477
 20
349.148157857417
 30
0.0
 11
6372.5601421575475
 21
349.148157857417
 31
0.0
  0
POLYLINE
  5
53
100
AcDbEntity
  8
IMPORTED
  6
CONTINUOUS
 62
               3
100
AcDb2dPolyline
 66
               1
 10
0.0
 20
0.0
 30
0.0
 70
               1
 75
               5
  0
VERTEX
  5
54
100
AcDbEntity
  8
IMPORTED
  6
CONTINUOUS
 62
               3
100
AcDbVertex
100
AcDb2dVertex
 10
6358.8795821575477
 20
356.39539785741692
 30
0.0
  0
VERTEX
  5
55
100
AcDbEntity
  8
IMPORTED
  6
CONTINUOUS
 62
               3
100
AcDbVertex
100
AcDb2dVertex
 10
6360.4795821575481
 20
356.39539785741692
 30
0.0
  0
VERTEX
  5
56
100
AcDbEntity
  8
IMPORTED
  6
CONTINUOUS
 62
               3
100
AcDbVertex
100
AcDb2dVertex
 10
6360.4795821575481
 20
334.39539785741692
 30
0.0
  0
VERTEX
  5
57
100
AcDbEntity
  8
IMPORTED
  6
CONTINUOUS
 62
               3
100
AcDbVertex
100
AcDb2dVertex
 10
6358.8795821575477
 20
334.39539785741692
 30
0.0
  0
SEQEND
  5
58
100
AcDbEntity
  8
IMPORTED
  6
CONTINUOUS
 62
               3
  0
POLYLINE
  5
5A
100
AcDbEntity
  8
IMPORTED
  6
STYLE_05
 62
              30
100
AcDb2dPolyline
 66
               1
 10
0.0
 20
0.0
 30
0.0
 70
               1
 75
               5
  0
VERTEX
  5
5B
100
AcDbEntity
  8
IMPORTED
  6
STYLE_05
 62
              30
100
AcDbVertex
100
AcDb2dVertex
 10
6360.4795821575481
 20
351.39539785741692
 30
0.0
  0
VERTEX
  5
5C
100
AcDbEntity
  8
IMPORTED
  6
STYLE_05
 62
              30
100
AcDbVertex
100
AcDb2dVertex
 10
6364.9795821575481
 20
351.39539785741692
 30
0.0
  0
VERTEX
  5
5D
100
AcDbEntity
  8
IMPORTED
  6
STYLE_05
 62
              30
100
AcDbVertex
100
AcDb2dVertex
 10
6364.9795821575481
 20
339.39539785741692
 30
0.0
  0
VERTEX
  5
5E
100
AcDbEntity
  8
IMPORTED
  6
STYLE_05
 62
              30
100
AcDbVertex
100
AcDb2dVertex
 10
6360.4795821575481
 20
339.39539785741692
 30
0.0
  0
SEQEND
  5
5F
100
AcDbEntity
  8
IMPORTED
  6
STYLE_05
 62
              30
  0
POLYLINE
  5
61
100
AcDbEntity
  8
IMPORTED
  6
STYLE_05
 62
              30
100
AcDb2dPolyline
 66
               1
 10
0.0
 20
0.0
 30
0.0
 70
               1
 75
               5
  0
VERTEX
  5
62
100
AcDbEntity
  8
IMPORTED
  6
STYLE_05
 62
              30
100
AcDbVertex
100
AcDb2dVertex
 10
6367.4795821575481
 20
350.39539785741692
 30
0.0
  0
VERTEX
  5
63
100
AcDbEntity
  8
IMPORTED
  6
STYLE_05
 62
              30
100
AcDbVertex
100
AcDb2dVertex
 10
6371.9795821575481
 20
350.39539785741692
 30
0.0
  0
VERTEX
  5
64
100
AcDbEntity
  8
IMPORTED
  6
STYLE_05
 62
              30
100
AcDbVertex
100
AcDb2dVertex
 10
6371.9795821575481
 20
340.39539785741692
 30
0.0
  0
VERTEX
  5
65
100
AcDbEntity
  8
IMPORTED
  6
STYLE_05
 62
              30
100
AcDbVertex
100
AcDb2dVertex
 10
6367.4795821575481
 20
340.39539785741692
 30
0.0
  0
SEQEND
  5
66
100
AcDbEntity
  8
IMPORTED
  6
STYLE_05
 62
              30
  0
LINE
  5
68
100
AcDbEntity
  8
IMPORTED
  6
CONTINUOUS
 62
              30
100
AcDbLine
 10
6378.779592157548
 20
341.39539785741692
 30
0.0
 11
6382.7970421575474
 21
341.39539785741692
 31
0.0
  0
LINE
  5
69
100
AcDbEntity
  8
IMPORTED
  6
CONTINUOUS
 62
              30
100
AcDbLine
 10
6382.7970421575474
 20
341.39539785741692
 30
0.0
 11
6383.8795821575477
 21
342.47792785741706
 31
0.0
  0
LINE
  5
6A
100
AcDbEntity
  8
IMPORTED
  6
CONTINUOUS
 62
              30
100
AcDbLine
 10
6383.8795821575477
 20
342.47792785741706
 30
0.0
 11
6383.8795821575477
 21
348.31285785741704
 31
0.0
  0
LINE
  5
6B
100
AcDbEntity
  8
IMPORTED
  6
CONTINUOUS
 62
              30
100
AcDbLine
 10
6383.8795821575477
 20
348.31285785741704
 30
0.0
 11
6382.7970421575474
 21
349.39540785741713
 31
0.0
  0
LINE
  5
6C
100
AcDbEntity
  8
IMPORTED
  6
CONTINUOUS
 62
              30
100
AcDbLine
 10
6382.7970421575474
 20
349.39540785741713
 30
0.0
 11
6378.779592157548
 21
349.39540785741713
 31
0.0
  0
LINE
  5
6D
100
AcDbEntity
  8
IMPORTED
  6
CONTINUOUS
 62
              30
100
AcDbLine
 10
6383.8795821575477
 20
348.31285785741704
 30
0.0
 11
6378.779592157548
 21
348.31285785741704
 31
0.0
  0
LINE
  5
6E
100
AcDbEntity
  8
IMPORTED
  6
CONTINUOUS
 62
              30
100
AcDbLine
 10
6383.8795821575477
 20
342.47793785741703
 30
0.0
 11
6378.779592157548
 21
342.47792785741706
 31
0.0
  0
LINE
  5
6F
100
AcDbEntity
  8
IMPORTED
  6
CONTINUOUS
 62
              30
100
AcDbLine
 10
6382.7970421575474
 20
341.39539785741692
 30
0.0
 11
6382.7970421575474
 21
349.39540785741713
 31
0.0
  0
POLYLINE
  5
70
100
AcDbEntity
  8
IMPORTED
  6
STYLE_05
 62
              30
100
AcDb2dPolyline
 66
               1
 10
0.0
 20
0.0
 30
0.0
 70
               1
 75
               5
  0
VERTEX
  5
71
100
AcDbEntity
  8
IMPORTED
  6
STYLE_05
 62
              30
100
AcDbVertex
100
AcDb2dVertex
 10
6379.4795821575481
 20
380.39539785741692
 30
0.0
  0
VERTEX
  5
72
100
AcDbEntity
  8
IMPORTED
  6
STYLE_05
 62
              30
100
AcDbVertex
100
AcDb2dVertex
 10
6391.4795821575481
 20
380.39539785741692
 30
0.0
  0
VERTEX
  5
73
100
AcDbEntity
  8
IMPORTED
  6
STYLE_05
 62
              30
100
AcDbVertex
100
AcDb2dVertex
 10
6391.4795821575481
 20
375.89539785741692
 30
0.0
  0
VERTEX
  5
74
100
AcDbEntity
  8
IMPORTED
  6
STYLE_05
 62
              30
100
AcDbVertex
100
AcDb2dVertex
 10
6379.4795821575481
 20
375.89539785741692
 30
0.0
  0
SEQEND
  5
75
100
AcDbEntity
  8
IMPORTED
  6
STYLE_05
 62
              30
  0
POLYLINE
  5
77
100
AcDbEntity
  8
IMPORTED
  6
STYLE_05
 62
              30
100
AcDb2dPolyline
 66
               1
 10
0.0
 20
0.0
 30
0.0
 70
               1
 75
               5
  0
VERTEX
  5
78
100
AcDbEntity
  8
IMPORTED
  6
STYLE_05
 62
              30
100
AcDbVertex
100
AcDb2dVertex
 10
6388.9795821575481
 20
380.39539785741692
 30
0.0
  0
VERTEX
  5
79
100
AcDbEntity
  8
IMPORTED
  6
STYLE_05
 62
              30
100
AcDbVertex
100
AcDb2dVertex
 10
6381.9795821575481
 20
380.39539785741692
 30
0.0
  0
VERTEX
  5
7A
100
AcDbEntity
  8
IMPORTED
  6
STYLE_05
 62
              30
100
AcDbVertex
100
AcDb2dVertex
 10
6381.9795821575481
 20
401.89539785741692
 30
0.0
  0
VERTEX
  5
7B
100
AcDbEntity
  8
IMPORTED
  6
STYLE_05
 62
              30
100
AcDbVertex
100
AcDb2dVertex
 10
6378.4795821575481
 20
405.39539785741692
 30
0.0
  0
VERTEX
  5
7C
100
AcDbEntity
  8
IMPORTED
  6
STYLE_05
 62
              30
100
AcDbVertex
100
AcDb2dVertex
 10
6392.4795821575481
 20
405.39539785741692
 30
0.0
  0
VERTEX
  5
7D
100
AcDbEntity
  8
IMPORTED
  6
STYLE_05
 62
              30
100
AcDbVertex
100
AcDb2dVertex
 10
6388.9795821575481
 20
401.89539785741692
 30
0.0
  0
SEQEND
  5
7E
100
AcDbEntity
  8
IMPORTED
  6
STYLE_05
 62
              30
  0
POLYLINE
  5
80
100
AcDbEntity
  8
IMPORTED
  6
CONTINUOUS
 62
              30
100
AcDb2dPolyline
 66
               1
 10
0.0
 20
0.0
 30
0.0
 70
               1
 75
               5
  0
VERTEX
  5
81
100
AcDbEntity
  8
IMPORTED
  6
CONTINUOUS
 62
              30
100
AcDbVertex
100
AcDb2dVertex
 10
6392.4795821575481
 20
375.89539785741692
 30
0.0
  0
VERTEX
  5
82
100
AcDbEntity
  8
IMPORTED
  6
CONTINUOUS
 62
              30
100
AcDbVertex
100
AcDb2dVertex
 10
6378.4795821575481
 20
375.89539785741692
 30
0.0
  0
VERTEX
  5
83
100
AcDbEntity
  8
IMPORTED
  6
CONTINUOUS
 62
              30
100
AcDbVertex
100
AcDb2dVertex
 10
6378.4795821575481
 20
375.04539785741702
 30
0.0
  0
VERTEX
  5
84
100
AcDbEntity
  8
IMPORTED
  6
CONTINUOUS
 62
              30
100
AcDbVertex
100
AcDb2dVertex
 10
6379.3295821575475
 20
374.19539785741711
 30
0.0
  0
VERTEX
  5
85
100
AcDbEntity
  8
IMPORTED
  6
CONTINUOUS
 62
              30
100
AcDbVertex
100
AcDb2dVertex
 10
6391.6295821575477
 20
374.19539785741711
 30
0.0
  0
VERTEX
  5
86
100
AcDbEntity
  8
IMPORTED
  6
CONTINUOUS
 62
              30
100
AcDbVertex
100
AcDb2dVertex
 10
6392.4795821575481
 20
375.04539785741702
 30
0.0
  0
SEQEND
  5
87
100
AcDbEntity
  8
IMPORTED
  6
CONTINUOUS
 62
              30
  0
POLYLINE
  5
89
100
AcDbEntity
  8
IMPORTED
  6
STYLE_05
 62
              30
100
AcDb2dPolyline
 66
               1
 10
0.0
 20
0.0
 30
0.0
 70
               1
 75
               5
  0
VERTEX
  5
8A
100
AcDbEntity
  8
IMPORTED
  6
STYLE_05
 62
              30
100
AcDbVertex
100
AcDb2dVertex
 10
6388.4795821575481
 20
366.19539785741711
 30
0.0
  0
VERTEX
  5
8B
100
AcDbEntity
  8
IMPORTED
  6
STYLE_05
 62
              30
100
AcDbVertex
100
AcDb2dVertex
 10
6388.4795821575481
 20
402.09539785741697
 30
0.0
  0
VERTEX
  5
8C
100
AcDbEntity
  8
IMPORTED
  6
STYLE_05
 62
              30
100
AcDbVertex
100
AcDb2dVertex
 10
6382.4795821575481
 20
402.09539785741697
 30
0.0
  0
VERTEX
  5
8D
100
AcDbEntity
  8
IMPORTED
  6
STYLE_05
 62
              30
100
AcDbVertex
100
AcDb2dVertex
 10
6382.4795821575481
 20
366.19539785741711
 30
0.0
  0
VERTEX
  5
8E
100
AcDbEntity
  8
IMPORTED
  6
STYLE_05
 62
              30
100
AcDbVertex
100
AcDb2dVertex
 10
6383.2795821575473
 20
365.39539785741692
 30
0.0
  0
VERTEX
  5
8F
100
AcDbEntity
  8
IMPORTED
  6
STYLE_05
 62
              30
100
AcDbVertex
100
AcDb2dVertex
 10
6387.6795821575479
 20
365.39539785741692
 30
0.0
  0
SEQEND
  5
90
100
AcDbEntity
  8
IMPORTED
  6
STYLE_05
 62
              30
  0
POLYLINE
  5
92
100
AcDbEntity
  8
IMPORTED
  6
STYLE_05
 62
              30
100
AcDb2dPolyline
 66
               1
 10
0.0
 20
0.0
 30
0.0
 70
               1
 75
               5
  0
VERTEX
  5
93
100
AcDbEntity
  8
IMPORTED
  6
STYLE_05
 62
              30
100
AcDbVertex
100
AcDb2dVertex
 10
6382.4795821575481
 20
402.09539785741697
 30
0.0
  0
VERTEX
  5
94
100
AcDbEntity
  8
IMPORTED
  6
STYLE_05
 62
              30
100
AcDbVertex
100
AcDb2dVertex
 10
6379.1795821575479
 20
405.39539785741692
 30
0.0
  0
VERTEX
  5
95
100
AcDbEntity
  8
IMPORTED
  6
STYLE_05
 62
              30
100
AcDbVertex
100
AcDb2dVertex
 10
6391.7795821575473
 20
405.39539785741692
 30
0.0
  0
VERTEX
  5
96
100
AcDbEntity
  8
IMPORTED
  6
STYLE_05
 62
              30
100
AcDbVertex
100
AcDb2dVertex
 10
6388.4795821575481
 20
402.09539785741697
 30
0.0
  0
SEQEND
  5
97
100
AcDbEntity
  8
IMPORTED
  6
STYLE_05
 62
              30
  0
POLYLINE
  5
99
100
AcDbEntity
  8
IMPORTED
  6
CONTINUOUS
 62
              30
100
AcDb2dPolyline
 66
               1
 10
0.0
 20
0.0
 30
0.0
 70
               1
 75
               5
  0
VERTEX
  5
9A
100
AcDbEntity
  8
IMPORTED
  6
CONTINUOUS
 62
              30
100
AcDbVertex
100
AcDb2dVertex
 10
6380.4795921501336
 20
373.76851613224301
 30
0.0
  0
VERTEX
  5
9B
100
AcDbEntity
  8
IMPORTED
  6
CONTINUOUS
 62
              30
100
AcDbVertex
100
AcDb2dVertex
 10
6381.1494617735389
 20
374.19539785741711
 30
0.0
  0
VERTEX
  5
9C
100
AcDbEntity
  8
IMPORTED
  6
CONTINUOUS
 62
              30
100
AcDbVertex
100
AcDb2dVertex
 10
6389.8097025415564
 20
374.19539785741711
 30
0.0
  0
VERTEX
  5
9D
100
AcDbEntity
  8
IMPORTED
  6
CONTINUOUS
 62
              30
100
AcDbVertex
100
AcDb2dVertex
 10
6390.4795721649625
 20
373.76851613224301
 30
0.0
  0
VERTEX
  5
9E
100
AcDbEntity
  8
IMPORTED
  6
CONTINUOUS
 62
              30
100
AcDbVertex
100
AcDb2dVertex
 10
6390.4795721649625
 20
369.62227958259098
 30
0.0
  0
VERTEX
  5
9F
100
AcDbEntity
  8
IMPORTED
  6
CONTINUOUS
 62
              30
100
AcDbVertex
100
AcDb2dVertex
 10
6389.8097025415564
 20
369.19539785741711
 30
0.0
  0
VERTEX
  5
A0
100
AcDbEntity
  8
IMPORTED
  6
CONTINUOUS
 62
              30
100
AcDbVertex
100
AcDb2dVertex
 10
6381.1494617735389
 20
369.19539785741711
 30
0.0
  0
VERTEX
  5
A1
100
AcDbEntity
  8
IMPORTED
  6
CONTINUOUS
 62
              30
100
AcDbVertex
100
AcDb2dVertex
 10
6380.4795921501336
 20
369.62227958259098
 30
0.0
  0
SEQEND
  5
A2
100
AcDbEntity
  8
IMPORTED
  6
CONTINUOUS
 62
              30
  0
SPLINE
  5
A4
100
AcDbEntity
  8
IMPORTED
  6
CONTINUOUS
 62
              30
100
AcDbSpline
210
0.0
220
0.0
230
1.0
 70
               8
 71
               2
 72
              10
 73
               7
 74
               0
 42
0.000001
 43
0.000001
 40
0.0
 40
0.0
 40
0.0
 40
1.0
 40
1.0
 40
2.0
 40
2.0
 40
3.0
 40
3.0
 40
3.0
 10
6380.4795921501336
 20
373.76851613224301
 30
0.0
 10
6381.7295913174175
 20
374.62052286767283
 30
0.0
 10
6382.9795904847024
 20
373.76851613224301
 30
0.0
 10
6385.4795888192712
 20
374.62052286767283
 30
0.0
 10
6387.9795871538408
 20
373.76851613224301
 30
0.0
 10
6389.2295863211248
 20
374.62052286767283
 30
0.0
 10
6390.4795854884096
 20
373.76851613224301
 30
0.0
  0
SPLINE
  5
A5
100
AcDbEntity
  8
IMPORTED
  6
CONTINUOUS
 62
              30
100
AcDbSpline
210
0.0
220
0.0
230
1.0
 70
               8
 71
               2
 72
              10
 73
               7
 74
               0
 42
0.000001
 43
0.000001
 40
0.0
 40
0.0
 40
0.0
 40
1.0
 40
1.0
 40
2.0
 40
2.0
 40
3.0
 40
3.0
 40
3.0
 10
6380.4795988118567
 20
369.62227958259098
 30
0.0
 10
6381.7295979791415
 20
368.77027284716166
 30
0.0
 10
6382.9795971464264
 20
369.62227958259098
 30
0.0
 10
6385.4795954809942
 20
368.77027284716166
 30
0.0
 10
6387.9795938155639
 20
369.62227958259098
 30
0.0
 10
6389.2295929828488
 20
368.77027284716166
 30
0.0
 10
6390.4795921501336
 20
369.62227958259098
 30
0.0
  0
LINE
  5
A6
100
AcDbEntity
  8
IMPORTED
  6
CONTINUOUS
 62
              30
100
AcDbLine
 10
6382.9795838229784
 20
373.76851613224301
 30
0.0
 11
6382.9795838229784
 21
369.62227958259098
 31
0.0
  0
LINE
  5
A7
100
AcDbEntity
  8
IMPORTED
  6
CONTINUOUS
 62
              30
100
AcDbLine
 10
6387.9795738303928
 20
369.62227958259098
 30
0.0
 11
6387.9795738303928
 21
373.76851613224301
 31
0.0
  0
LINE
  5
A8
100
AcDbEntity
  8
IMPORTED
  6
CONTINUOUS
 62
              30
100
AcDbLine
 10
6382.4795821575481
 20
369.19539785741711
 30
0.0
 11
6382.4795821575481
 21
366.19539785741711
 31
0.0
  0
LINE
  5
A9
100
AcDbEntity
  8
IMPORTED
  6
CONTINUOUS
 62
              30
100
AcDbLine
 10
6382.4795821575481
 20
366.19539785741711
 30
0.0
 11
6383.2795821575473
 21
365.39539785741692
 31
0.0
  0
LINE
  5
AA
100
AcDbEntity
  8
IMPORTED
  6
CONTINUOUS
 62
              30
100
AcDbLine
 10
6383.2795821575473
 20
365.39539785741692
 30
0.0
 11
6387.6795821575479
 21
365.39539785741692
 31
0.0
  0
LINE
  5
AB
100
AcDbEntity
  8
IMPORTED
  6
CONTINUOUS
 62
              30
100
AcDbLine
 10
6387.6795821575479
 20
365.39539785741692
 30
0.0
 11
6388.4795821575481
 21
366.19539785741711
 31
0.0
  0
LINE
  5
AC
100
AcDbEntity
  8
IMPORTED
  6
CONTINUOUS
 62
              30
100
AcDbLine
 10
6388.4795821575481
 20
366.19539785741711
 30
0.0
 11
6388.4795821575481
 21
369.19539785741711
 31
0.0
  0
LINE
  5
AD
100
AcDbEntity
  8
IMPORTED
  6
STYLE_06
 62
               1
100
AcDbLine
 10
3375.3347916914108
 20
-473.29820798705555
 30
0.0
 11
5470.0
 21
-473.29820798705555
 31
0.0
  0
MTEXT
  5
AE
100
AcDbEntity
  8
IMPORTED
 62
               1
100
AcDbMText
 10
5847.4960821575469
 20
-354.3880091333765
 30
0.0
 40
24.432617187500004
 41
0.0
 71
               1
 72
               1
  1
均しコンクリート
  7
_______
  0
MTEXT
  5
AF
100
AcDbEntity
  8
IMPORTED
 62
               1
100
AcDbMText
 10
5820.2001892028838
 20
-439.94154539994088
 30
0.0
 40
24.432617187500004
 41
0.0
 71
               1
 72
               1
  1
再生クラッシャラン
  7
_______
  0
MTEXT
  5
B0
100
AcDbEntity
  8
IMPORTED
 62
               1
100
AcDbMText
 10
5849.1806502908294
 20
-239.59896860142007
 30
0.0
 40
24.432617187500004
 41
0.0
 71
               1
 72
               1
  1
基礎コンクリート
  7
_______
  0
MTEXT
  5
B1
100
AcDbEntity
  8
IMPORTED
 62
               1
100
AcDbMText
 10
5983.0448821575474
 20
127.68170062755893
 30
0.0
 40
24.432617187500004
 41
0.0
 71
               1
 72
               1
  1
コンクリート脚\P楕円形
  7
_______
  0
LINE
  5
B2
100
AcDbEntity
  8
IMPORTED
  6
STYLE_06
 62
               1
100
AcDbLine
 10
4071.8511314629377
 20
300.26143274478022
 30
0.0
 11
4826.1885086579896
 21
1138.0375468301961
 31
0.0
  0
LINE
  5
B3
100
AcDbEntity
  8
IMPORTED
  6
CONTINUOUS
 62
               1
100
AcDbLine
 10
5174.0
 20
-442.95398397945416
 30
0.0
 11
5404.960915970627
 21
-576.29933098737683
 31
0.0
  0
LINE
  5
B4
100
AcDbEntity
  8
IMPORTED
  6
STYLE_06
 62
               1
100
AcDbLine
 10
4393.5153920446801
 20
-256.87750059447114
 30
0.0
 11
5532.6330563457959
 21
-14.750520127788235
 31
0.0
  0
CIRCLE
  5
B5
100
AcDbEntity
  8
IMPORTED
  6
CONTINUOUS
 62
               1
100
AcDbCircle
 10
4117.2802012326456
 20
350.71539177634656
 30
0.0
 40
42.338499999999897
  0
MTEXT
  5
B6
100
AcDbEntity
  8
IMPORTED
 62
               1
100
AcDbMText
 10
4041.5461545432618
 20
482.62591040447887
 30
0.0
 40
24.432617187500004
 41
0.0
 71
               1
 72
               1
  1
12°
  7
_______
 11
0.8090224021739626
 21
-0.5877778090236745
 31
0.0
  0
ARC
  5
B7
100
AcDbEntity
  8
IMPORTED
  6
CONTINUOUS
 62
               1
100
AcDbCircle
 10
3375.3352704049016
 20
-473.29815314158759
 30
0.0
 40
1108.8194634787062
100
AcDbArc
 50
48.000007586856782
 51
60.000004865176642
  0
CIRCLE
  5
B8
100
AcDbEntity
  8
IMPORTED
  6
CONTINUOUS
 62
               1
100
AcDbCircle
 10
4459.9243479464603
 20
-242.76180230726678
 30
0.0
 40
42.338500000000096
  0
MTEXT
  5
B9
100
AcDbEntity
  8
IMPORTED
 62
               1
100
AcDbMText
 10
4539.2015324233462
 20
-340.27102420962365
 30
0.0
 40
24.432617187500004
 41
0.0
 71
               1
 72
               1
  1
12°
  7
_______
 11
0.0596086895790447
 21
-0.9982218211032401
 31
0.0
  0
ARC
  5
BA
100
AcDbEntity
  8
IMPORTED
  6
CONTINUOUS
 62
               1
100
AcDbCircle
 10
3375.3352338023092
 20
-473.29828974411407
 30
0.0
 40
1108.8195003905118
100
AcDbArc
 50
359.99999306225561
 51
11.999997700752942
  0
LINE
  5
BB
100
AcDbEntity
  8
IMPORTED
  6
CONTINUOUS
 62
               1
100
AcDbLine
 10
5542.0
 20
919.51832360886499
 30
0.0
 11
5105.9479231638288
 21
919.51832360886499
 31
0.0
  0
MTEXT
  5
BC
100
AcDbEntity
  8
IMPORTED
 62
               1
100
AcDbMText
 10
5116.9910231638287
 20
960.07424778617894
 30
0.0
 40
24.432617187500004
 41
0.0
 71
               1
 72
               1
  1
座板 ESW(135×103)×25M塗装
  7
_______
  0
LINE
  5
BD
100
AcDbEntity
  8
IMPORTED
  6
CONTINUOUS
 62
               1
100
AcDbLine
 10
5201.1338315394714
 20
136.68854357864433
 30
0.0
 11
5333.9167955646417
 21
269.47150760381459
 31
0.0
  0
LINE
  5
BE
100
AcDbEntity
  8
IMPORTED
  6
CONTINUOUS
 62
               1
100
AcDbLine
 10
5333.9167955646417
 20
269.47150760381459
 30
0.0
 11
5570.0
 21
269.47150760381459
 31
0.0
  0
MTEXT
  5
BF
100
AcDbEntity
  8
IMPORTED
 62
               1
100
AcDbMText
 10
5348.9509718944209
 20
308.41578127364357
 30
0.0
 40
24.432617187500004
 41
0.0
 71
               1
 72
               1
  1
L-50×50×4.5
  7
_______
  0
MTEXT
  5
C0
100
AcDbEntity
  8
IMPORTED
 62
               1
100
AcDbMText
 10
4076.0230899681051
 20
-52.58824122167178
 30
0.0
 40
24.432617187500004
 41
0.0
 71
               1
 72
               1
  1
60°
  7
_______
 11
0.4999902078365641
 21
-0.8660310572188213
 31
0.0
  0
ARC
  5
C1
100
AcDbEntity
  8
IMPORTED
  6
CONTINUOUS
 62
               1
100
AcDbCircle
 10
3375.3351838023423
 20
-473.2982031415545
 30
0.0
 40
767.80114827559999
100
AcDbArc
 50
359.99999313897058
 51
59.999996441507001
  0
CIRCLE
  5
C2
100
AcDbEntity
  8
IMPORTED
  6
CONTINUOUS
 62
               1
100
AcDbCircle
 10
4484.1546841928457
 20
-473.29833740460685
 30
0.0
 40
42.338500000000124
  0
CIRCLE
  5
C3
100
AcDbEntity
  8
IMPORTED
  6
CONTINUOUS
 62
               1
100
AcDbCircle
 10
4143.1362454753771
 20
-473.29834508383101
 30
0.0
 40
42.338500000000124
  0
CIRCLE
  5
C4
100
AcDbEntity
  8
IMPORTED
  6
CONTINUOUS
 62
               1
100
AcDbCircle
 10
3759.2358126350218
 20
191.63709568198962
 30
0.0
 40
42.338500000000025
  0
CIRCLE
  5
C5
100
AcDbEntity
  8
IMPORTED
  6
CONTINUOUS
 62
               1
100
AcDbCircle
 10
3929.7448908557549
 20
486.96783919646964
 30
0.0
 40
42.338500000000181
  0
LINE
  5
C6
100
AcDbEntity
  8
IMPORTED
  6
CONTINUOUS
 62
               1
100
AcDbLine
 10
4806.2876075213871
 20
1115.9353679841522
 30
0.0
 11
4917.594800709905
 21
1152.8541599864843
 31
0.0
  0
LINE
  5
C7
100
AcDbEntity
  8
IMPORTED
  6
CONTINUOUS
 62
               1
100
AcDbLine
 10
5404.960915970627
 20
-576.29933098737683
 30
0.0
 11
5585.0
 21
-576.29933098737683
 31
0.0
  0
MTEXT
  5
C8
100
AcDbEntity
  8
IMPORTED
 62
               1
100
AcDbMText
 10
5419.4687995477407
 20
-540.65102639999259
 30
0.0
 40
24.432617187500004
 41
0.0
 71
               1
 72
               1
  1
FB-50×4.5
  7
_______
  0
MTEXT
  5
C9
100
AcDbEntity
  8
IMPORTED
 62
               1
100
AcDbMText
 10
4928.203422576642
 20
1191.9635041233332
 30
0.0
 40
24.432617187500004
 41
0.0
 71
               1
 72
               1
  1
脚位置
  7
_______
 11
0.9999999999999272
 21
-0.0000003816343626
 31
0.0
  0
LINE
  5
CA
100
AcDbEntity
  8
IMPORTED
  6
CONTINUOUS
 62
               1
100
AcDbLine
 10
4917.594800709905
 20
1152.8541599864843
 30
0.0
 11
5034.0
 21
1152.854115562265
 31
0.0
  0
LINE
  5
CB
100
AcDbEntity
  8
IMPORTED
  6
CONTINUOUS
 62
               1
100
AcDbLine
 10
5195.327375816918
 20
84.0
 30
0.0
 11
5341.2024981159639
 21
204.37008417331231
 31
0.0
  0
LINE
  5
CC
100
AcDbEntity
  8
IMPORTED
  6
CONTINUOUS
 62
               1
100
AcDbLine
 10
5341.2024981159639
 20
204.37008417331231
 30
0.0
 11
5416.5764853419432
 21
204.37008417331231
 31
0.0
  0
MTEXT
  5
CD
100
AcDbEntity
  8
IMPORTED
 62
               1
100
AcDbMText
 10
5343.1699981159636
 20
240.49386873097507
 30
0.0
 40
24.432617187500004
 41
0.0
 71
               1
 72
               1
  1
φ10
  7
_______
  0
MTEXT
  5
CE
100
AcDbEntity
  8
IMPORTED
 62
               1
100
AcDbMText
 10
4359.9743769129891
 20
141.54221041913763
 30
0.0
 40
24.432617187500004
 41
0.0
 71
               1
 72
               1
  1
36°
  7
_______
 11
0.4999999999999986
 21
-0.8660254037844395
 31
0.0
  0
ARC
  5
CF
100
AcDbEntity
  8
IMPORTED
  6
CONTINUOUS
 62
               1
100
AcDbCircle
 10
3375.3352704049016
 20
-473.29815314158759
 30
0.0
 40
1108.819500000043
100
AcDbArc
 50
11.99999118960414
 51
48.00000599007781
  0
MTEXT
  5
D0
100
AcDbEntity
  8
IMPORTED
 62
               1
100
AcDbMText
 10
5766.0302094950957
 20
546.60647379790998
 30
0.0
 40
24.432617187500004
 41
0.0
 71
               1
 72
               1
  1
座板 ESW(135×103)×25M塗装
  7
_______
  0
LINE
  5
D1
100
AcDbEntity
  8
IMPORTED
  6
CONTINUOUS
 62
               1
100
AcDbLine
 10
5838.9999999999991
 20
-280.30760214258294
 30
0.0
 11
6110.6061821575468
 21
-280.30760214258294
 31
0.0
  0
LINE
  5
D2
100
AcDbEntity
  8
IMPORTED
  6
CONTINUOUS
 62
               1
100
AcDbLine
 10
6110.6061821575468
 20
-280.30760214258294
 30
0.0
 11
6285.6061821575477
 21
-105.30760214258297
 31
0.0
  0
LINE
  5
D3
100
AcDbEntity
  8
IMPORTED
  6
CONTINUOUS
 62
               1
100
AcDbLine
 10
5836.9999999999991
 20
-392.99690214258294
 30
0.0
 11
6109.1295821575468
 21
-392.99690214258294
 31
0.0
  0
LINE
  5
D4
100
AcDbEntity
  8
IMPORTED
  6
CONTINUOUS
 62
               1
100
AcDbLine
 10
6109.1295821575468
 20
-392.99690214258294
 30
0.0
 11
6284.1295821575477
 21
-217.99690214258297
 31
0.0
  0
LINE
  5
D5
100
AcDbEntity
  8
IMPORTED
  6
CONTINUOUS
 62
               1
100
AcDbLine
 10
5806.9999999999991
 20
-479.13470214258302
 30
0.0
 11
6109.1295821575468
 21
-479.13470214258302
 31
0.0
  0
LINE
  5
D6
100
AcDbEntity
  8
IMPORTED
  6
CONTINUOUS
 62
               1
100
AcDbLine
 10
6109.1295821575468
 20
-479.13470214258302
 30
0.0
 11
6284.1295821575477
 21
-304.13470214258291
 31
0.0
  0
LINE
  5
D7
100
AcDbEntity
  8
IMPORTED
  6
CONTINUOUS
 62
               1
100
AcDbLine
 10
5974.9880952380945
 20
95.395397857416953
 30
0.0
 11
6214.1295821575468
 21
95.395397857416953
 31
0.0
  0
LINE
  5
D8
100
AcDbEntity
  8
IMPORTED
  6
CONTINUOUS
 62
               1
100
AcDbLine
 10
6214.1295821575468
 20
95.395397857416953
 30
0.0
 11
6417.1295821575477
 21
212.5975025028981
 31
0.0
  0
LINE
  5
D9
100
AcDbEntity
  8
IMPORTED
  6
CONTINUOUS
 62
               1
100
AcDbLine
 10
5756.0
 20
509.25579785741695
 30
0.0
 11
6195.1191821575467
 21
509.25579785741695
 31
0.0
  0
LINE
  5
DA
100
AcDbEntity
  8
IMPORTED
  6
CONTINUOUS
 62
               1
100
AcDbLine
 10
6195.1191821575467
 20
509.25579785741695
 30
0.0
 11
6310.4795821575481
 21
393.89539785741692
 31
0.0
  0
LINE
  5
DB
100
AcDbEntity
  8
IMPORTED
  6
CONTINUOUS
 62
               1
100
AcDbLine
 10
5105.9479231638288
 20
919.51832360886499
 30
0.0
 11
4936.0
 21
738.0
 31
0.0
  0
CIRCLE
  5
DC
100
AcDbEntity
  8
IMPORTED
  6
CONTINUOUS
 62
               1
100
AcDbCircle
 10
4715.4664865245231
 20
-53.499094135348827
 30
0.0
 40
32.565289166534328
  0
CIRCLE
  5
DD
100
AcDbEntity
  8
IMPORTED
  6
CONTINUOUS
 62
               1
100
AcDbCircle
 10
5450.4191153422771
 20
102.00537698857718
 30
0.0
 40
32.565289166534484
  0
MTEXT
  5
DE
100
AcDbEntity
  8
IMPORTED
 62
               1
100
AcDbMText
 10
5442.1713588860457
 20
114.25064470845709
 30
0.0
 40
24.4326171875
 41
0.0
 71
               1
 72
               1
  1
A'
  7
_______
  0
MTEXT
  5
DF
100
AcDbEntity
  8
IMPORTED
 62
               1
100
AcDbMText
 10
4707.700093586408
 20
-39.171006236157751
 30
0.0
 40
24.4326171875
 41
0.0
 71
               1
 72
               1
  1
A
  7
_______
  0
LINE
  5
E0
100
AcDbEntity
  8
IMPORTED
  6
CONTINUOUS
 62
               1
100
AcDbLine
 10
4736.2509327659618
 20
-183.88054429098887
 30
0.0
 11
5471.2035615837149
 21
-28.376073167063709
 31
0.0
  0
LINE
  5
E1
100
AcDbEntity
  8
IMPORTED
  6
CONTINUOUS
 62
               1
100
AcDbLine
 10
5471.2035615837149
 20
-28.376073167063709
 30
0.0
 11
5450.4191153422771
 21
69.440087822042656
 31
0.0
  0
LINE
  5
E2
100
AcDbEntity
  8
IMPORTED
  6
CONTINUOUS
 62
               1
100
AcDbLine
 10
5450.4191153422771
 20
69.440087822042656
 30
0.0
 11
5465.3417915710588
 21
40.152686685182886
 31
0.0
  0
LINE
  5
E3
100
AcDbEntity
  8
IMPORTED
  6
CONTINUOUS
 62
               1
100
AcDbLine
 10
5450.4191153422771
 20
69.440087822042656
 30
0.0
 11
5448.6988314804221
 21
36.615116312305787
 31
0.0
  0
LINE
  5
E4
100
AcDbEntity
  8
IMPORTED
  6
CONTINUOUS
 62
               1
100
AcDbLine
 10
5465.3417915710588
 20
40.152686685182886
 30
0.0
 11
5448.6988314804221
 21
36.615116312305787
 31
0.0
  0
LINE
  5
E5
100
AcDbEntity
  8
IMPORTED
  6
CONTINUOUS
 62
               1
100
AcDbLine
 10
4736.2509327659618
 20
-183.88054429098887
 30
0.0
 11
4715.4664865245231
 21
-86.064383301883055
 31
0.0
  0
LINE
  5
E6
100
AcDbEntity
  8
IMPORTED
  6
CONTINUOUS
 62
               1
100
AcDbLine
 10
4715.4664865245231
 20
-86.064383301883055
 30
0.0
 11
4730.3891627533058
 21
-115.35178443874284
 31
0.0
  0
LINE
  5
E7
100
AcDbEntity
  8
IMPORTED
  6
CONTINUOUS
 62
               1
100
AcDbLine
 10
4715.4664865245231
 20
-86.064383301883055
 30
0.0
 11
4713.746202662669
 21
-118.88935481161994
 31
0.0
  0
LINE
  5
E8
100
AcDbEntity
  8
IMPORTED
  6
CONTINUOUS
 62
               1
100
AcDbLine
 10
4730.3891627533058
 20
-115.35178443874284
 30
0.0
 11
4713.746202662669
 21
-118.88935481161994
 31
0.0
  0
LINE
  5
E9
100
AcDbEntity
  8
IMPORTED
  6
STYLE_06
 62
               1
100
AcDbLine
 10
3375.3349419431702
 20
-473.29863174485388
 30
0.0
 11
4422.6675460974648
 21
1340.7346510738073
 31
0.0
  0
LINE
  5
EA
100
AcDbEntity
  8
IMPORTED
  6
CONTINUOUS
 62
               1
100
AcDbLine
 10
3375.3347916914108
 20
-503.29820787529684
 30
0.0
 11
3375.3347916914108
 21
-714.99999992549419
 31
0.0
  0
LINE
  5
EB
100
AcDbEntity
  8
IMPORTED
  6
CONTINUOUS
 62
               1
100
AcDbLine
 10
5375.1221686034451
 20
-494.57072824349655
 30
0.0
 11
5375.1221686034451
 21
-714.99999992549419
 31
0.0
  0
LINE
  5
EC
100
AcDbEntity
  8
IMPORTED
  6
CONTINUOUS
 62
               1
100
AcDbLine
 10
3355.3347917659166
 20
-695.0
 30
0.0
 11
3375.3347916914108
 21
-695.0
 31
0.0
  0
LINE
  5
ED
100
AcDbEntity
  8
IMPORTED
  6
CONTINUOUS
 62
               1
100
AcDbLine
 10
5375.1221686034451
 20
-695.0
 30
0.0
 11
5395.1221685289393
 21
-695.0
 31
0.0
  0
LINE
  5
EE
100
AcDbEntity
  8
IMPORTED
  6
CONTINUOUS
 62
               1
100
AcDbLine
 10
3375.3347916914108
 20
-695.0
 30
0.0
 11
5375.1221686034451
 21
-695.0
 31
0.0
  0
SOLID
  5
EF
100
AcDbEntity
  8
IMPORTED
 62
               1
100
AcDbTrace
 10
3375.3347916914108
 20
-695.0
 30
0.0
 11
3395.3335709882858
 21
-693.2503335271665
 31
0.0
 12
3395.3335709882858
 22
-696.7496664728335
 32
0.0
 13
3395.3335709882858
 23
-696.7496664728335
 33
0.0
  0
SOLID
  5
F0
100
AcDbEntity
  8
IMPORTED
 62
               1
100
AcDbTrace
 10
5375.1221686034451
 20
-695.0
 30
0.0
 11
5355.1233893065701
 21
-696.7496664728335
 31
0.0
 12
5355.1233893065701
 22
-693.2503335271665
 32
0.0
 13
5355.1233893065701
 23
-693.2503335271665
 33
0.0
  0
MTEXT
  5
F1
100
AcDbEntity
  8
IMPORTED
 62
               1
100
AcDbMText
 10
4343.4784801474279
 20
-656.12238284975285
 30
0.0
 40
24.432617187500004
 41
0.0
 71
               1
 72
               1
  1
2000
  7
_______
  0
LINE
  5
F2
100
AcDbEntity
  8
IMPORTED
  6
CONTINUOUS
 62
               1
100
AcDbLine
 10
4925.1363846985241
 20
-494.99375491383933
 30
0.0
 11
4925.1363846985241
 21
-609.99999992549419
 31
0.0
  0
LINE
  5
F3
100
AcDbEntity
  8
IMPORTED
  6
CONTINUOUS
 62
               1
100
AcDbLine
 10
5375.1221686034451
 20
-494.57072824349655
 30
0.0
 11
5375.1221686034451
 21
-609.99999992549419
 31
0.0
  0
LINE
  5
F4
100
AcDbEntity
  8
IMPORTED
  6
CONTINUOUS
 62
               1
100
AcDbLine
 10
4905.1363847730299
 20
-590.0
 30
0.0
 11
4925.1363846985241
 21
-590.0
 31
0.0
  0
LINE
  5
F5
100
AcDbEntity
  8
IMPORTED
  6
CONTINUOUS
 62
               1
100
AcDbLine
 10
5375.1221686034451
 20
-590.0
 30
0.0
 11
5395.1221685289393
 21
-590.0
 31
0.0
  0
LINE
  5
F6
100
AcDbEntity
  8
IMPORTED
  6
CONTINUOUS
 62
               1
100
AcDbLine
 10
4925.1363846985241
 20
-590.0
 30
0.0
 11
5375.1221686034451
 21
-590.0
 31
0.0
  0
SOLID
  5
F7
100
AcDbEntity
  8
IMPORTED
 62
               1
100
AcDbTrace
 10
4925.1363846985241
 20
-590.0
 30
0.0
 11
4945.1351639953991
 21
-588.2503335271665
 31
0.0
 12
4945.1351639953991
 22
-591.7496664728335
 32
0.0
 13
4945.1351639953991
 23
-591.7496664728335
 33
0.0
  0
SOLID
  5
F8
100
AcDbEntity
  8
IMPORTED
 62
               1
100
AcDbTrace
 10
5375.1221686034451
 20
-590.0
 30
0.0
 11
5355.1233893065701
 21
-591.7496664728335
 31
0.0
 12
5355.1233893065701
 22
-588.2503335271665
 32
0.0
 13
5355.1233893065701
 23
-588.2503335271665
 33
0.0
  0
MTEXT
  5
F9
100
AcDbEntity
  8
IMPORTED
 62
               1
100
AcDbMText
 10
5126.3167749688091
 20
-551.12238284975285
 30
0.0
 40
24.432617187500004
 41
0.0
 71
               1
 72
               1
  1
450
  7
_______
  0
LINE
  5
FA
100
AcDbEntity
  8
IMPORTED
  6
CONTINUOUS
 62
               1
100
AcDbLine
 10
4608.2492684710069
 20
420.6844686374676
 30
0.0
 11
4527.90604912866
 21
366.49148477853532
 31
0.0
  0
LINE
  5
FB
100
AcDbEntity
  8
IMPORTED
  6
CONTINUOUS
 62
               1
100
AcDbLine
 10
4666.0666885986529
 20
334.96788068918454
 30
0.0
 11
4585.7234692563061
 21
280.77489683025226
 31
0.0
  0
LINE
  5
FC
100
AcDbEntity
  8
IMPORTED
  6
CONTINUOUS
 62
               1
100
AcDbLine
 10
4533.3027529204173
 20
394.25613104358933
 30
0.0
 11
4544.4867241570655
 21
377.67545601518407
 31
0.0
  0
LINE
  5
FD
100
AcDbEntity
  8
IMPORTED
  6
CONTINUOUS
 62
               1
100
AcDbLine
 10
4602.3041442847116
 20
291.958868066901
 30
0.0
 11
4613.4881155213607
 21
275.37819303849579
 31
0.0
  0
LINE
  5
FE
100
AcDbEntity
  8
IMPORTED
  6
CONTINUOUS
 62
               1
100
AcDbLine
 10
4544.4867241570655
 20
377.67545601518407
 30
0.0
 11
4602.3041442847116
 21
291.958868066901
 31
0.0
  0
SOLID
  5
FF
100
AcDbEntity
  8
IMPORTED
 62
               1
100
AcDbTrace
 10
4544.4867241570655
 20
377.67545601518407
 30
0.0
 11
4557.3907955855839
 21
362.29698253115532
 31
0.0
 12
4554.524309849493
 22
360.28984761057382
 32
0.0
 13
4554.524309849493
 23
360.28984761057382
 33
0.0
  0
SOLID
  5
100
100
AcDbEntity
  8
IMPORTED
 62
               1
100
AcDbTrace
 10
4602.3041442847116
 20
291.958868066901
 30
0.0
 11
4589.6704295784029
 21
307.56020643419708
 31
0.0
 12
4592.5715080692407
 22
309.51700858429547
 32
0.0
 13
4592.5715080692407
 23
309.51700858429547
 33
0.0
  0
MTEXT
  5
101
100
AcDbEntity
  8
IMPORTED
 62
               1
100
AcDbMText
 10
4592.3103743893971
 20
376.29883739373946
 30
0.0
 40
24.432617187500004
 41
0.0
 71
               1
 72
               1
  1
103
  7
_______
 11
0.5591985639156161
 21
-0.8290337545086525
 31
0.0
  0
LINE
  5
102
100
AcDbEntity
  8
IMPORTED
  6
CONTINUOUS
 62
               1
100
AcDbLine
 10
5017.1906774716199
 20
715.2133351370976
 30
0.0
 11
5091.1494802234847
 21
765.09990313318497
 31
0.0
  0
LINE
  5
103
100
AcDbEntity
  8
IMPORTED
  6
CONTINUOUS
 62
               1
100
AcDbLine
 10
5092.3379347172286
 20
603.80456521715439
 30
0.0
 11
5166.2967374690943
 21
653.69113321324164
 31
0.0
  0
LINE
  5
104
100
AcDbEntity
  8
IMPORTED
  6
CONTINUOUS
 62
               1
100
AcDbLine
 10
5063.3848344134904
 20
770.49660926610488
 30
0.0
 11
5074.5688042520278
 21
753.91593329464774
 31
0.0
  0
LINE
  5
105
100
AcDbEntity
  8
IMPORTED
  6
CONTINUOUS
 62
               1
100
AcDbLine
 10
5149.7160614976374
 20
642.50716337470442
 30
0.0
 11
5160.9000313361748
 21
625.92648740324728
 31
0.0
  0
LINE
  5
106
100
AcDbEntity
  8
IMPORTED
  6
CONTINUOUS
 62
               1
100
AcDbLine
 10
5074.5688042520278
 20
753.91593329464774
 30
0.0
 11
5149.7160614976374
 21
642.50716337470442
 31
0.0
  0
SOLID
  5
107
100
AcDbEntity
  8
IMPORTED
 62
               1
100
AcDbTrace
 10
5074.5688042520278
 20
753.91593329464774
 30
0.0
 11
5087.4728756805462
 21
738.537459810619
 31
0.0
 12
5084.6063899444553
 22
736.53032489003749
 32
0.0
 13
5084.6063899444553
 23
736.53032489003749
 33
0.0
  0
SOLID
  5
108
100
AcDbEntity
  8
IMPORTED
 62
               1
100
AcDbTrace
 10
5149.7160614976374
 20
642.50716337470442
 30
0.0
 11
5137.0823467913278
 21
658.1085017420005
 31
0.0
 12
5139.9834252821656
 22
660.06530389209888
 32
0.0
 13
5139.9834252821656
 23
660.06530389209888
 33
0.0
  0
MTEXT
  5
109
100
AcDbEntity
  8
IMPORTED
 62
               1
100
AcDbMText
 10
5131.0573765411482
 20
739.69322209243205
 30
0.0
 40
24.432617187500004
 41
0.0
 71
               1
 72
               1
  1
135
  7
_______
 11
0.5591984940100389
 21
-0.8290338016612499
 31
0.0
  0
LINE
  5
10A
100
AcDbEntity
  8
IMPORTED
  6
CONTINUOUS
 62
               1
100
AcDbLine
 10
6370.6295821575477
 20
-224.60460203082428
 30
0.0
 11
6370.6295821575477
 21
-469.60460206807716
 31
0.0
  0
LINE
  5
10B
100
AcDbEntity
  8
IMPORTED
  6
CONTINUOUS
 62
               1
100
AcDbLine
 10
6650.6295821575477
 20
-224.60460203082428
 30
0.0
 11
6650.6295821575477
 21
-469.60460206807716
 31
0.0
  0
LINE
  5
10C
100
AcDbEntity
  8
IMPORTED
  6
CONTINUOUS
 62
               1
100
AcDbLine
 10
6350.6295822320535
 20
-449.60460214258296
 30
0.0
 11
6370.6295821575477
 21
-449.60460214258296
 31
0.0
  0
LINE
  5
10D
100
AcDbEntity
  8
IMPORTED
  6
CONTINUOUS
 62
               1
100
AcDbLine
 10
6650.6295821575477
 20
-449.60460214258296
 30
0.0
 11
6670.6295820830419
 21
-449.60460214258296
 31
0.0
  0
LINE
  5
10E
100
AcDbEntity
  8
IMPORTED
  6
CONTINUOUS
 62
               1
100
AcDbLine
 10
6370.6295821575477
 20
-449.60460214258296
 30
0.0
 11
6650.6295821575477
 21
-449.60460214258296
 31
0.0
  0
SOLID
  5
10F
100
AcDbEntity
  8
IMPORTED
 62
               1
100
AcDbTrace
 10
6370.6295821575477
 20
-449.60460214258296
 30
0.0
 11
6390.6283614544227
 21
-447.85493566974947
 31
0.0
 12
6390.6283614544227
 22
-451.35426861541646
 32
0.0
 13
6390.6283614544227
 23
-451.35426861541646
 33
0.0
  0
SOLID
  5
110
100
AcDbEntity
  8
IMPORTED
 62
               1
100
AcDbTrace
 10
6650.6295821575477
 20
-449.60460214258296
 30
0.0
 11
6630.6308028606727
 21
-451.35426861541646
 31
0.0
 12
6630.6308028606727
 22
-447.85493566974947
 32
0.0
 13
6630.6308028606727
 23
-447.85493566974947
 33
0.0
  0
MTEXT
  5
111
100
AcDbEntity
  8
IMPORTED
 62
               1
100
AcDbMText
 10
6447.1295821575477
 20
-410.72698499233582
 30
0.0
 40
24.432617187500004
 41
0.0
 71
               1
 72
               1
  1
280×150
  7
_______
  0
LINE
  5
112
100
AcDbEntity
  8
IMPORTED
  6
CONTINUOUS
 62
               1
100
AcDbLine
 10
6269.2527821575477
 20
-224.60460203082428
 30
0.0
 11
6269.2527821575477
 21
-555.99999992549419
 31
0.0
  0
LINE
  5
113
100
AcDbEntity
  8
IMPORTED
  6
CONTINUOUS
 62
               1
100
AcDbLine
 10
6769.2527821575477
 20
-224.60460203082428
 30
0.0
 11
6769.2527821575477
 21
-555.99999992549419
 31
0.0
  0
LINE
  5
114
100
AcDbEntity
  8
IMPORTED
  6
CONTINUOUS
 62
               1
100
AcDbLine
 10
6249.2527822320535
 20
-536.0
 30
0.0
 11
6269.2527821575477
 21
-536.0
 31
0.0
  0
LINE
  5
115
100
AcDbEntity
  8
IMPORTED
  6
CONTINUOUS
 62
               1
100
AcDbLine
 10
6769.2527821575477
 20
-536.0
 30
0.0
 11
6789.2527820830419
 21
-536.0
 31
0.0
  0
LINE
  5
116
100
AcDbEntity
  8
IMPORTED
  6
CONTINUOUS
 62
               1
100
AcDbLine
 10
6269.2527821575477
 20
-536.0
 30
0.0
 11
6769.2527821575477
 21
-536.0
 31
0.0
  0
SOLID
  5
117
100
AcDbEntity
  8
IMPORTED
 62
               1
100
AcDbTrace
 10
6269.2527821575477
 20
-536.0
 30
0.0
 11
6289.2515614544227
 21
-534.2503335271665
 31
0.0
 12
6289.2515614544227
 22
-537.7496664728335
 32
0.0
 13
6289.2515614544227
 23
-537.7496664728335
 33
0.0
  0
SOLID
  5
118
100
AcDbEntity
  8
IMPORTED
 62
               1
100
AcDbTrace
 10
6769.2527821575477
 20
-536.0
 30
0.0
 11
6749.2540028606727
 21
-537.7496664728335
 31
0.0
 12
6749.2540028606727
 22
-534.2503335271665
 32
0.0
 13
6749.2540028606727
 23
-534.2503335271665
 33
0.0
  0
MTEXT
  5
119
100
AcDbEntity
  8
IMPORTED
 62
               1
100
AcDbMText
 10
6455.7527821575477
 20
-497.12238284975285
 30
0.0
 40
24.432617187500004
 41
0.0
 71
               1
 72
               1
  1
500×300
  7
_______
  0
LINE
  5
11A
100
AcDbEntity
  8
IMPORTED
  6
CONTINUOUS
 62
               1
100
AcDbLine
 10
6219.2527821575468
 20
-374.60460203082425
 30
0.0
 11
6219.2527821575468
 21
-651.99999992549419
 31
0.0
  0
LINE
  5
11B
100
AcDbEntity
  8
IMPORTED
  6
CONTINUOUS
 62
               1
100
AcDbLine
 10
6819.2527821575477
 20
-374.60460203082425
 30
0.0
 11
6819.2527821575477
 21
-651.99999992549419
 31
0.0
  0
LINE
  5
11C
100
AcDbEntity
  8
IMPORTED
  6
CONTINUOUS
 62
               1
100
AcDbLine
 10
6199.2527822320526
 20
-632.0
 30
0.0
 11
6219.2527821575468
 21
-632.0
 31
0.0
  0
LINE
  5
11D
100
AcDbEntity
  8
IMPORTED
  6
CONTINUOUS
 62
               1
100
AcDbLine
 10
6819.2527821575477
 20
-632.0
 30
0.0
 11
6839.2527820830419
 21
-632.0
 31
0.0
  0
LINE
  5
11E
100
AcDbEntity
  8
IMPORTED
  6
CONTINUOUS
 62
               1
100
AcDbLine
 10
6219.2527821575468
 20
-632.0
 30
0.0
 11
6819.2527821575477
 21
-632.0
 31
0.0
  0
SOLID
  5
11F
100
AcDbEntity
  8
IMPORTED
 62
               1
100
AcDbTrace
 10
6219.2527821575468
 20
-632.0
 30
0.0
 11
6239.2515614544218
 21
-630.2503335271665
 31
0.0
 12
6239.2515614544218
 22
-633.7496664728335
 32
0.0
 13
6239.2515614544218
 23
-633.7496664728335
 33
0.0
  0
SOLID
  5
120
100
AcDbEntity
  8
IMPORTED
 62
               1
100
AcDbTrace
 10
6819.2527821575477
 20
-632.0
 30
0.0
 11
6799.2540028606727
 21
-633.7496664728335
 31
0.0
 12
6799.2540028606727
 22
-630.2503335271665
 32
0.0
 13
6799.2540028606727
 23
-630.2503335271665
 33
0.0
  0
MTEXT
  5
121
100
AcDbEntity
  8
IMPORTED
 62
               1
100
AcDbMText
 10
6455.7527821575477
 20
-593.12238284975285
 30
0.0
 40
24.432617187500004
 41
0.0
 71
               1
 72
               1
  1
600×400
  7
_______
  0
LINE
  5
122
100
AcDbEntity
  8
IMPORTED
  6
CONTINUOUS
 62
               1
100
AcDbLine
 10
6849.252782045789
 20
-344.60460214258296
 30
0.0
 11
7030.6295820830419
 21
-344.60460214258296
 31
0.0
  0
LINE
  5
123
100
AcDbEntity
  8
IMPORTED
  6
CONTINUOUS
 62
               1
100
AcDbLine
 10
6849.252782045789
 20
-244.60460214258299
 30
0.0
 11
7030.6295820830419
 21
-244.60460214258299
 31
0.0
  0
LINE
  5
124
100
AcDbEntity
  8
IMPORTED
  6
CONTINUOUS
 62
               1
100
AcDbLine
 10
7010.6295821575477
 20
-364.60460206807716
 30
0.0
 11
7010.6295821575477
 21
-344.60460214258296
 31
0.0
  0
LINE
  5
125
100
AcDbEntity
  8
IMPORTED
  6
CONTINUOUS
 62
               1
100
AcDbLine
 10
7010.6295821575477
 20
-244.60460214258299
 30
0.0
 11
7010.6295821575477
 21
-224.6046022170888
 31
0.0
  0
LINE
  5
126
100
AcDbEntity
  8
IMPORTED
  6
CONTINUOUS
 62
               1
100
AcDbLine
 10
7010.6295821575477
 20
-344.60460214258296
 30
0.0
 11
7010.6295821575477
 21
-244.60460214258299
 31
0.0
  0
SOLID
  5
127
100
AcDbEntity
  8
IMPORTED
 62
               1
100
AcDbTrace
 10
7010.6295821575477
 20
-344.60460214258296
 30
0.0
 11
7008.8799156847144
 21
-324.60582284570796
 31
0.0
 12
7012.379248630381
 22
-324.60582284570796
 32
0.0
 13
7012.379248630381
 23
-324.60582284570796
 33
0.0
  0
SOLID
  5
128
100
AcDbEntity
  8
IMPORTED
 62
               1
100
AcDbTrace
 10
7010.6295821575477
 20
-244.60460214258299
 30
0.0
 11
7012.379248630381
 21
-264.60338143945796
 31
0.0
 12
7008.8799156847144
 22
-264.60338143945796
 32
0.0
 13
7008.8799156847144
 23
-264.60338143945796
 33
0.0
  0
MTEXT
  5
129
100
AcDbEntity
  8
IMPORTED
 62
               1
100
AcDbMText
 10
6971.7519650073009
 20
-318.41710382475844
 30
0.0
 40
24.432617187500004
 41
0.0
 71
               1
 72
               1
  1
100
  7
_______
 11
0.0
 21
1.0
 31
0.0
  0
LINE
  5
12A
100
AcDbEntity
  8
IMPORTED
  6
CONTINUOUS
 62
               1
100
AcDbLine
 10
6849.252782045789
 20
-244.60460214258299
 30
0.0
 11
7030.6295820830419
 21
-244.60460214258299
 31
0.0
  0
LINE
  5
12B
100
AcDbEntity
  8
IMPORTED
  6
CONTINUOUS
 62
               1
100
AcDbLine
 10
6849.252782045789
 20
-194.60460214258299
 30
0.0
 11
7030.6295820830419
 21
-194.60460214258299
 31
0.0
  0
LINE
  5
12C
100
AcDbEntity
  8
IMPORTED
  6
CONTINUOUS
 62
               1
100
AcDbLine
 10
7010.6295821575477
 20
-264.60460206807716
 30
0.0
 11
7010.6295821575477
 21
-244.60460214258299
 31
0.0
  0
LINE
  5
12D
100
AcDbEntity
  8
IMPORTED
  6
CONTINUOUS
 62
               1
100
AcDbLine
 10
7010.6295821575477
 20
-194.60460214258299
 30
0.0
 11
7010.6295821575477
 21
-174.6046022170888
 31
0.0
  0
LINE
  5
12E
100
AcDbEntity
  8
IMPORTED
  6
CONTINUOUS
 62
               1
100
AcDbLine
 10
7010.6295821575477
 20
-244.60460214258299
 30
0.0
 11
7010.6295821575477
 21
-194.60460214258299
 31
0.0
  0
SOLID
  5
12F
100
AcDbEntity
  8
IMPORTED
 62
               1
100
AcDbTrace
 10
7010.6295821575477
 20
-244.60460214258299
 30
0.0
 11
7008.8799156847144
 21
-224.60582284570799
 31
0.0
 12
7012.379248630381
 22
-224.60582284570799
 32
0.0
 13
7012.379248630381
 23
-224.60582284570799
 33
0.0
  0
SOLID
  5
130
100
AcDbEntity
  8
IMPORTED
 62
               1
100
AcDbTrace
 10
7010.6295821575477
 20
-194.60460214258299
 30
0.0
 11
7012.379248630381
 21
-214.60338143945799
 31
0.0
 12
7008.8799156847144
 22
-214.60338143945799
 32
0.0
 13
7008.8799156847144
 23
-214.60338143945799
 33
0.0
  0
MTEXT
  5
131
100
AcDbEntity
  8
IMPORTED
 62
               1
100
AcDbMText
 10
6971.7519650073009
 20
-235.47960214258299
 30
0.0
 40
24.432617187500004
 41
0.0
 71
               1
 72
               1
  1
50
  7
_______
 11
0.0
 21
1.0
 31
0.0
  0
LINE
  5
132
100
AcDbEntity
  8
IMPORTED
  6
CONTINUOUS
 62
               1
100
AcDbLine
 10
6849.252782045789
 20
-194.60460214258299
 30
0.0
 11
7030.6295820830419
 21
-194.60460214258299
 31
0.0
  0
LINE
  5
133
100
AcDbEntity
  8
IMPORTED
  6
CONTINUOUS
 62
               1
100
AcDbLine
 10
6799.252782045789
 20
-44.604602142582934
 30
0.0
 11
7030.6295820830419
 21
-44.604602142582934
 31
0.0
  0
LINE
  5
134
100
AcDbEntity
  8
IMPORTED
  6
CONTINUOUS
 62
               1
100
AcDbLine
 10
7010.6295821575477
 20
-214.60460206807718
 30
0.0
 11
7010.6295821575477
 21
-194.60460214258299
 31
0.0
  0
LINE
  5
135
100
AcDbEntity
  8
IMPORTED
  6
CONTINUOUS
 62
               1
100
AcDbLine
 10
7010.6295821575477
 20
-44.604602142582934
 30
0.0
 11
7010.6295821575477
 21
-24.60460221708874
 31
0.0
  0
LINE
  5
136
100
AcDbEntity
  8
IMPORTED
  6
CONTINUOUS
 62
               1
100
AcDbLine
 10
7010.6295821575477
 20
-194.60460214258299
 30
0.0
 11
7010.6295821575477
 21
-44.604602142582934
 31
0.0
  0
SOLID
  5
137
100
AcDbEntity
  8
IMPORTED
 62
               1
100
AcDbTrace
 10
7010.6295821575477
 20
-194.60460214258299
 30
0.0
 11
7008.8799156847144
 21
-174.60582284570799
 31
0.0
 12
7012.379248630381
 22
-174.60582284570799
 32
0.0
 13
7012.379248630381
 23
-174.60582284570799
 33
0.0
  0
SOLID
  5
138
100
AcDbEntity
  8
IMPORTED
 62
               1
100
AcDbTrace
 10
7010.6295821575477
 20
-44.604602142582934
 30
0.0
 11
7012.379248630381
 21
-64.603381439457934
 31
0.0
 12
7008.8799156847144
 22
-64.603381439457934
 32
0.0
 13
7008.8799156847144
 23
-64.603381439457934
 33
0.0
  0
MTEXT
  5
139
100
AcDbEntity
  8
IMPORTED
 62
               1
100
AcDbMText
 10
6971.7519650073009
 20
-143.41710382475847
 30
0.0
 40
24.432617187500004
 41
0.0
 71
               1
 72
               1
  1
150
  7
_______
 11
0.0
 21
1.0
 31
0.0
  0
LINE
  5
13A
100
AcDbEntity
  8
IMPORTED
  6
CONTINUOUS
 62
               1
100
AcDbLine
 10
6799.252782045789
 20
-44.604602142582934
 30
0.0
 11
7030.6295820830419
 21
-44.604602142582934
 31
0.0
  0
LINE
  5
13B
100
AcDbEntity
  8
IMPORTED
  6
CONTINUOUS
 62
               1
100
AcDbLine
 10
6900.2080820457895
 20
5.3953978574170662
 30
0.0
 11
7030.6295820830419
 21
5.3953978574170662
 31
0.0
  0
LINE
  5
13C
100
AcDbEntity
  8
IMPORTED
  6
CONTINUOUS
 62
               1
100
AcDbLine
 10
7010.6295821575477
 20
-64.604602068077128
 30
0.0
 11
7010.6295821575477
 21
-44.604602142582934
 31
0.0
  0
LINE
  5
13D
100
AcDbEntity
  8
IMPORTED
  6
CONTINUOUS
 62
               1
100
AcDbLine
 10
7010.6295821575477
 20
5.3953978574170662
 30
0.0
 11
7010.6295821575477
 21
25.39539778291126
 31
0.0
  0
LINE
  5
13E
100
AcDbEntity
  8
IMPORTED
  6
CONTINUOUS
 62
               1
100
AcDbLine
 10
7010.6295821575477
 20
-44.604602142582934
 30
0.0
 11
7010.6295821575477
 21
5.3953978574170662
 31
0.0
  0
SOLID
  5
13F
100
AcDbEntity
  8
IMPORTED
 62
               1
100
AcDbTrace
 10
7010.6295821575477
 20
-44.604602142582934
 30
0.0
 11
7008.8799156847144
 21
-24.605822845707934
 31
0.0
 12
7012.379248630381
 22
-24.605822845707934
 32
0.0
 13
7012.379248630381
 23
-24.605822845707934
 33
0.0
  0
SOLID
  5
140
100
AcDbEntity
  8
IMPORTED
 62
               1
100
AcDbTrace
 10
7010.6295821575477
 20
5.3953978574170662
 30
0.0
 11
7012.379248630381
 21
-14.603381439457934
 31
0.0
 12
7008.8799156847144
 22
-14.603381439457934
 32
0.0
 13
7008.8799156847144
 23
-14.603381439457934
 33
0.0
  0
MTEXT
  5
141
100
AcDbEntity
  8
IMPORTED
 62
               1
100
AcDbMText
 10
6971.7519650073009
 20
-35.479602142582934
 30
0.0
 40
24.432617187500004
 41
0.0
 71
               1
 72
               1
  1
50
  7
_______
 11
0.0
 21
1.0
 31
0.0
  0
LINE
  5
142
100
AcDbEntity
  8
IMPORTED
  6
CONTINUOUS
 62
               1
100
AcDbLine
 10
6900.2080820457895
 20
5.3953978574170662
 30
0.0
 11
7030.6295820830419
 21
5.3953978574170662
 31
0.0
  0
LINE
  5
143
100
AcDbEntity
  8
IMPORTED
  6
CONTINUOUS
 62
               1
100
AcDbLine
 10
6683.4795820457894
 20
325.39539785741692
 30
0.0
 11
7030.6295820830419
 21
325.39539785741692
 31
0.0
  0
LINE
  5
144
100
AcDbEntity
  8
IMPORTED
  6
CONTINUOUS
 62
               1
100
AcDbLine
 10
7010.6295821575477
 20
-14.604602068077128
 30
0.0
 11
7010.6295821575477
 21
5.3953978574170662
 31
0.0
  0
LINE
  5
145
100
AcDbEntity
  8
IMPORTED
  6
CONTINUOUS
 62
               1
100
AcDbLine
 10
7010.6295821575477
 20
325.39539785741692
 30
0.0
 11
7010.6295821575477
 21
345.39539778291112
 31
0.0
  0
LINE
  5
146
100
AcDbEntity
  8
IMPORTED
  6
CONTINUOUS
 62
               1
100
AcDbLine
 10
7010.6295821575477
 20
5.3953978574170662
 30
0.0
 11
7010.6295821575477
 21
325.39539785741692
 31
0.0
  0
SOLID
  5
147
100
AcDbEntity
  8
IMPORTED
 62
               1
100
AcDbTrace
 10
7010.6295821575477
 20
5.3953978574170662
 30
0.0
 11
7008.8799156847144
 21
25.394177154292066
 31
0.0
 12
7012.379248630381
 22
25.394177154292066
 32
0.0
 13
7012.379248630381
 23
25.394177154292066
 33
0.0
  0
SOLID
  5
148
100
AcDbEntity
  8
IMPORTED
 62
               1
100
AcDbTrace
 10
7010.6295821575477
 20
325.39539785741692
 30
0.0
 11
7012.379248630381
 21
305.39661856054192
 31
0.0
 12
7008.8799156847144
 22
305.39661856054192
 32
0.0
 13
7008.8799156847144
 23
305.39661856054192
 33
0.0
  0
MTEXT
  5
149
100
AcDbEntity
  8
IMPORTED
 62
               1
100
AcDbMText
 10
6971.7519650073009
 20
141.58289617524147
 30
0.0
 40
24.432617187500004
 41
0.0
 71
               1
 72
               1
  1
320
  7
_______
 11
0.0
 21
1.0
 31
0.0
  0
LINE
  5
14A
100
AcDbEntity
  8
IMPORTED
  6
CONTINUOUS
 62
               1
100
AcDbLine
 10
6683.4795820457894
 20
325.39539785741692
 30
0.0
 11
7030.6295820830419
 21
325.39539785741692
 31
0.0
  0
LINE
  5
14B
100
AcDbEntity
  8
IMPORTED
  6
CONTINUOUS
 62
               1
100
AcDbLine
 10
6759.4795820457894
 20
380.39539785741692
 30
0.0
 11
7030.6295820830419
 21
380.39539785741692
 31
0.0
  0
LINE
  5
14C
100
AcDbEntity
  8
IMPORTED
  6
CONTINUOUS
 62
               1
100
AcDbLine
 10
7010.6295821575477
 20
305.39539793192273
 30
0.0
 11
7010.6295821575477
 21
325.39539785741692
 31
0.0
  0
LINE
  5
14D
100
AcDbEntity
  8
IMPORTED
  6
CONTINUOUS
 62
               1
100
AcDbLine
 10
7010.6295821575477
 20
380.39539785741692
 30
0.0
 11
7010.6295821575477
 21
400.39539778291112
 31
0.0
  0
LINE
  5
14E
100
AcDbEntity
  8
IMPORTED
  6
CONTINUOUS
 62
               1
100
AcDbLine
 10
7010.6295821575477
 20
325.39539785741692
 30
0.0
 11
7010.6295821575477
 21
380.39539785741692
 31
0.0
  0
SOLID
  5
14F
100
AcDbEntity
  8
IMPORTED
 62
               1
100
AcDbTrace
 10
7010.6295821575477
 20
325.39539785741692
 30
0.0
 11
7008.8799156847144
 21
345.39417715429192
 31
0.0
 12
7012.379248630381
 22
345.39417715429192
 32
0.0
 13
7012.379248630381
 23
345.39417715429192
 33
0.0
  0
SOLID
  5
150
100
AcDbEntity
  8
IMPORTED
 62
               1
100
AcDbTrace
 10
7010.6295821575477
 20
380.39539785741692
 30
0.0
 11
7012.379248630381
 21
360.39661856054192
 31
0.0
 12
7008.8799156847144
 22
360.39661856054192
 32
0.0
 13
7008.8799156847144
 23
360.39661856054192
 33
0.0
  0
MTEXT
  5
151
100
AcDbEntity
  8
IMPORTED
 62
               1
100
AcDbMText
 10
6971.7519650073009
 20
337.02039785741692
 30
0.0
 40
24.432617187500004
 41
0.0
 71
               1
 72
               1
  1
55
  7
_______
 11
0.0
 21
1.0
 31
0.0
  0
LINE
  5
152
100
AcDbEntity
  8
IMPORTED
  6
CONTINUOUS
 62
               1
100
AcDbLine
 10
6759.4795820457894
 20
380.39539785741692
 30
0.0
 11
7030.6295820830419
 21
380.39539785741692
 31
0.0
  0
LINE
  5
153
100
AcDbEntity
  8
IMPORTED
  6
CONTINUOUS
 62
               1
100
AcDbLine
 10
6759.4795820457894
 20
405.39539785741692
 30
0.0
 11
7030.6295820830419
 21
405.39539785741692
 31
0.0
  0
LINE
  5
154
100
AcDbEntity
  8
IMPORTED
  6
CONTINUOUS
 62
               1
100
AcDbLine
 10
7010.6295821575477
 20
360.39539793192273
 30
0.0
 11
7010.6295821575477
 21
380.39539785741692
 31
0.0
  0
LINE
  5
155
100
AcDbEntity
  8
IMPORTED
  6
CONTINUOUS
 62
               1
100
AcDbLine
 10
7010.6295821575477
 20
405.39539785741692
 30
0.0
 11
7010.6295821575477
 21
425.39539778291112
 31
0.0
  0
LINE
  5
156
100
AcDbEntity
  8
IMPORTED
  6
CONTINUOUS
 62
               1
100
AcDbLine
 10
7010.6295821575477
 20
405.39539785741692
 30
0.0
 11
7010.6295821575477
 21
447.75
 31
0.0
  0
LINE
  5
157
100
AcDbEntity
  8
IMPORTED
  6
CONTINUOUS
 62
               1
100
AcDbLine
 10
7010.6295821575477
 20
380.39539785741692
 30
0.0
 11
7010.6295821575477
 21
405.39539785741692
 31
0.0
  0
SOLID
  5
158
100
AcDbEntity
  8
IMPORTED
 62
               1
100
AcDbTrace
 10
7010.6295821575477
 20
380.39539785741692
 30
0.0
 11
7008.8799156847144
 21
400.39417715429192
 31
0.0
 12
7012.379248630381
 22
400.39417715429192
 32
0.0
 13
7012.379248630381
 23
400.39417715429192
 33
0.0
  0
SOLID
  5
159
100
AcDbEntity
  8
IMPORTED
 62
               1
100
AcDbTrace
 10
7010.6295821575477
 20
405.39539785741692
 30
0.0
 11
7012.379248630381
 21
385.39661856054192
 31
0.0
 12
7008.8799156847144
 22
385.39661856054192
 32
0.0
 13
7008.8799156847144
 23
385.39661856054192
 33
0.0
  0
MTEXT
  5
15A
100
AcDbEntity
  8
IMPORTED
 62
               1
100
AcDbMText
 10
6971.7519650073009
 20
416.0
 30
0.0
 40
24.432617187500004
 41
0.0
 71
               1
 72
               1
  1
25
  7
_______
 11
0.0
 21
1.0
 31
0.0
  0
LINE
  5
15B
100
AcDbEntity
  8
IMPORTED
  6
CONTINUOUS
 62
               1
100
AcDbLine
 10
6683.4795820457894
 20
325.39539785741692
 30
0.0
 11
7130.6295820830419
 21
325.39539785741692
 31
0.0
  0
LINE
  5
15C
100
AcDbEntity
  8
IMPORTED
  6
CONTINUOUS
 62
               1
100
AcDbLine
 10
6849.252782045789
 20
-194.60460214258299
 30
0.0
 11
7130.6295820830419
 21
-194.60460214258299
 31
0.0
  0
LINE
  5
15D
100
AcDbEntity
  8
IMPORTED
  6
CONTINUOUS
 62
               1
100
AcDbLine
 10
7110.6295821575477
 20
345.39539778291112
 30
0.0
 11
7110.6295821575477
 21
325.39539785741692
 31
0.0
  0
LINE
  5
15E
100
AcDbEntity
  8
IMPORTED
  6
CONTINUOUS
 62
               1
100
AcDbLine
 10
7110.6295821575477
 20
-194.60460214258299
 30
0.0
 11
7110.6295821575477
 21
-214.60460206807718
 31
0.0
  0
LINE
  5
15F
100
AcDbEntity
  8
IMPORTED
  6
CONTINUOUS
 62
               1
100
AcDbLine
 10
7110.6295821575477
 20
325.39539785741692
 30
0.0
 11
7110.6295821575477
 21
-194.60460214258299
 31
0.0
  0
SOLID
  5
160
100
AcDbEntity
  8
IMPORTED
 62
               1
100
AcDbTrace
 10
7110.6295821575477
 20
325.39539785741692
 30
0.0
 11
7112.379248630381
 21
305.39661856054192
 31
0.0
 12
7108.8799156847144
 22
305.39661856054192
 32
0.0
 13
7108.8799156847144
 23
305.39661856054192
 33
0.0
  0
SOLID
  5
161
100
AcDbEntity
  8
IMPORTED
 62
               1
100
AcDbTrace
 10
7110.6295821575477
 20
-194.60460214258299
 30
0.0
 11
7108.8799156847144
 21
-174.60582284570799
 31
0.0
 12
7112.379248630381
 22
-174.60582284570799
 32
0.0
 13
7112.379248630381
 23
-174.60582284570799
 33
0.0
  0
MTEXT
  5
162
100
AcDbEntity
  8
IMPORTED
 62
               1
100
AcDbMText
 10
7071.7519650073009
 20
41.582896175241444
 30
0.0
 40
24.432617187500004
 41
0.0
 71
               1
 72
               1
  1
520
  7
_______
 11
0.0
 21
1.0
 31
0.0
  0
LINE
  5
163
100
AcDbEntity
  8
IMPORTED
  6
CONTINUOUS
 62
               1
100
AcDbLine
 10
6285.4795821575481
 20
422.89539774565822
 30
0.0
 11
6285.4795821575481
 21
577.99999992549408
 31
0.0
  0
LINE
  5
164
100
AcDbEntity
  8
IMPORTED
  6
CONTINUOUS
 62
               1
100
AcDbLine
 10
6385.4795821575481
 20
435.39539774565822
 30
0.0
 11
6385.4795821575481
 21
577.99999992549408
 31
0.0
  0
LINE
  5
165
100
AcDbEntity
  8
IMPORTED
  6
CONTINUOUS
 62
               1
100
AcDbLine
 10
6265.4795822320539
 20
557.99999999999989
 30
0.0
 11
6285.4795821575481
 21
557.99999999999989
 31
0.0
  0
LINE
  5
166
100
AcDbEntity
  8
IMPORTED
  6
CONTINUOUS
 62
               1
100
AcDbLine
 10
6385.4795821575481
 20
557.99999999999989
 30
0.0
 11
6405.4795820830423
 21
557.99999999999989
 31
0.0
  0
LINE
  5
167
100
AcDbEntity
  8
IMPORTED
  6
CONTINUOUS
 62
               1
100
AcDbLine
 10
6285.4795821575481
 20
557.99999999999989
 30
0.0
 11
6385.4795821575481
 21
557.99999999999989
 31
0.0
  0
SOLID
  5
168
100
AcDbEntity
  8
IMPORTED
 62
               1
100
AcDbTrace
 10
6285.4795821575481
 20
557.99999999999989
 30
0.0
 11
6305.4783614544231
 21
559.74966647283338
 31
0.0
 12
6305.4783614544231
 22
556.25033352716639
 32
0.0
 13
6305.4783614544231
 23
556.25033352716639
 33
0.0
  0
SOLID
  5
169
100
AcDbEntity
  8
IMPORTED
 62
               1
100
AcDbTrace
 10
6385.4795821575481
 20
557.99999999999989
 30
0.0
 11
6365.4808028606731
 21
556.25033352716639
 31
0.0
 12
6365.4808028606731
 22
559.74966647283338
 32
0.0
 13
6365.4808028606731
 23
559.74966647283338
 33
0.0
  0
MTEXT
  5
16A
100
AcDbEntity
  8
IMPORTED
 62
               1
100
AcDbMText
 10
6311.6670804753721
 20
596.87761715024703
 30
0.0
 40
24.432617187500004
 41
0.0
 71
               1
 72
               1
  1
100
  7
_______
  0
LINE
  5
16B
100
AcDbEntity
  8
IMPORTED
  6
CONTINUOUS
 62
               1
100
AcDbLine
 10
6385.4795821575481
 20
435.39539774565822
 30
0.0
 11
6385.4795821575481
 21
577.99999992549408
 31
0.0
  0
LINE
  5
16C
100
AcDbEntity
  8
IMPORTED
  6
CONTINUOUS
 62
               1
100
AcDbLine
 10
6635.4795821575472
 20
435.39539774565822
 30
0.0
 11
6635.4795821575472
 21
577.99999992549408
 31
0.0
  0
LINE
  5
16D
100
AcDbEntity
  8
IMPORTED
  6
CONTINUOUS
 62
               1
100
AcDbLine
 10
6365.4795822320539
 20
557.99999999999989
 30
0.0
 11
6385.4795821575481
 21
557.99999999999989
 31
0.0
  0
LINE
  5
16E
100
AcDbEntity
  8
IMPORTED
  6
CONTINUOUS
 62
               1
100
AcDbLine
 10
6635.4795821575472
 20
557.99999999999989
 30
0.0
 11
6655.4795820830414
 21
557.99999999999989
 31
0.0
  0
LINE
  5
16F
100
AcDbEntity
  8
IMPORTED
  6
CONTINUOUS
 62
               1
100
AcDbLine
 10
6385.4795821575481
 20
557.99999999999989
 30
0.0
 11
6635.4795821575472
 21
557.99999999999989
 31
0.0
  0
SOLID
  5
170
100
AcDbEntity
  8
IMPORTED
 62
               1
100
AcDbTrace
 10
6385.4795821575481
 20
557.99999999999989
 30
0.0
 11
6405.4783614544231
 21
559.74966647283338
 31
0.0
 12
6405.4783614544231
 22
556.25033352716639
 32
0.0
 13
6405.4783614544231
 23
556.25033352716639
 33
0.0
  0
SOLID
  5
171
100
AcDbEntity
  8
IMPORTED
 62
               1
100
AcDbTrace
 10
6635.4795821575472
 20
557.99999999999989
 30
0.0
 11
6615.4808028606722
 21
556.25033352716639
 31
0.0
 12
6615.4808028606722
 22
559.74966647283338
 32
0.0
 13
6615.4808028606722
 23
559.74966647283338
 33
0.0
  0
MTEXT
  5
172
100
AcDbEntity
  8
IMPORTED
 62
               1
100
AcDbMText
 10
6486.6670804753721
 20
596.87761715024703
 30
0.0
 40
24.432617187500004
 41
0.0
 71
               1
 72
               1
  1
250
  7
_______
  0
LINE
  5
173
100
AcDbEntity
  8
IMPORTED
  6
CONTINUOUS
 62
               1
100
AcDbLine
 10
6635.4795821575472
 20
435.39539774565822
 30
0.0
 11
6635.4795821575472
 21
577.99999992549408
 31
0.0
  0
LINE
  5
174
100
AcDbEntity
  8
IMPORTED
  6
CONTINUOUS
 62
               1
100
AcDbLine
 10
6735.4795821575481
 20
422.89539774565822
 30
0.0
 11
6735.4795821575481
 21
577.99999992549408
 31
0.0
  0
LINE
  5
175
100
AcDbEntity
  8
IMPORTED
  6
CONTINUOUS
 62
               1
100
AcDbLine
 10
6615.479582232053
 20
557.99999999999989
 30
0.0
 11
6635.4795821575472
 21
557.99999999999989
 31
0.0
  0
LINE
  5
176
100
AcDbEntity
  8
IMPORTED
  6
CONTINUOUS
 62
               1
100
AcDbLine
 10
6735.4795821575481
 20
557.99999999999989
 30
0.0
 11
6755.4795820830423
 21
557.99999999999989
 31
0.0
  0
LINE
  5
177
100
AcDbEntity
  8
IMPORTED
  6
CONTINUOUS
 62
               1
100
AcDbLine
 10
6635.4795821575472
 20
557.99999999999989
 30
0.0
 11
6735.4795821575481
 21
557.99999999999989
 31
0.0
  0
SOLID
  5
178
100
AcDbEntity
  8
IMPORTED
 62
               1
100
AcDbTrace
 10
6635.4795821575472
 20
557.99999999999989
 30
0.0
 11
6655.4783614544222
 21
559.74966647283338
 31
0.0
 12
6655.4783614544222
 22
556.25033352716639
 32
0.0
 13
6655.4783614544222
 23
556.25033352716639
 33
0.0
  0
SOLID
  5
179
100
AcDbEntity
  8
IMPORTED
 62
               1
100
AcDbTrace
 10
6735.4795821575481
 20
557.99999999999989
 30
0.0
 11
6715.4808028606731
 21
556.25033352716639
 31
0.0
 12
6715.4808028606731
 22
559.74966647283338
 32
0.0
 13
6715.4808028606731
 23
559.74966647283338
 33
0.0
  0
MTEXT
  5
17A
100
AcDbEntity
  8
IMPORTED
 62
               1
100
AcDbMText
 10
6661.6670804753721
 20
596.87761715024703
 30
0.0
 40
24.432617187500004
 41
0.0
 71
               1
 72
               1
  1
100
  7
_______
  0
LINE
  5
17B
100
AcDbEntity
  8
IMPORTED
  6
CONTINUOUS
 62
               1
100
AcDbLine
 10
6735.4795821575481
 20
422.89539774565822
 30
0.0
 11
6735.4795821575481
 21
663.99999992549408
 31
0.0
  0
LINE
  5
17C
100
AcDbEntity
  8
IMPORTED
  6
CONTINUOUS
 62
               1
100
AcDbLine
 10
6285.4795821575481
 20
422.89539774565822
 30
0.0
 11
6285.4795821575481
 21
663.99999992549408
 31
0.0
  0
LINE
  5
17D
100
AcDbEntity
  8
IMPORTED
  6
CONTINUOUS
 62
               1
100
AcDbLine
 10
6755.4795820830423
 20
643.99999999999989
 30
0.0
 11
6735.4795821575481
 21
643.99999999999989
 31
0.0
  0
LINE
  5
17E
100
AcDbEntity
  8
IMPORTED
  6
CONTINUOUS
 62
               1
100
AcDbLine
 10
6285.4795821575481
 20
643.99999999999989
 30
0.0
 11
6265.4795822320539
 21
643.99999999999989
 31
0.0
  0
LINE
  5
17F
100
AcDbEntity
  8
IMPORTED
  6
CONTINUOUS
 62
               1
100
AcDbLine
 10
6735.4795821575481
 20
643.99999999999989
 30
0.0
 11
6285.4795821575481
 21
643.99999999999989
 31
0.0
  0
SOLID
  5
180
100
AcDbEntity
  8
IMPORTED
 62
               1
100
AcDbTrace
 10
6735.4795821575481
 20
643.99999999999989
 30
0.0
 11
6715.4808028606731
 21
642.25033352716639
 31
0.0
 12
6715.4808028606731
 22
645.74966647283338
 32
0.0
 13
6715.4808028606731
 23
645.74966647283338
 33
0.0
  0
SOLID
  5
181
100
AcDbEntity
  8
IMPORTED
 62
               1
100
AcDbTrace
 10
6285.4795821575481
 20
643.99999999999989
 30
0.0
 11
6305.4783614544231
 21
645.74966647283338
 31
0.0
 12
6305.4783614544231
 22
642.25033352716639
 32
0.0
 13
6305.4783614544231
 23
642.25033352716639
 33
0.0
  0
MTEXT
  5
182
100
AcDbEntity
  8
IMPORTED
 62
               1
100
AcDbMText
 10
6486.6670804753721
 20
682.87761715024703
 30
0.0
 40
24.432617187500004
 41
0.0
 71
               1
 72
               1
  1
450
  7
_______
  0
POLYLINE
  5
183
100
AcDbEntity
  8
IMPORTED
  6
CONTINUOUS
 62
              30
100
AcDb2dPolyline
 66
               1
 10
0.0
 20
0.0
 30
0.0
 70
             129
  0
VERTEX
  5
184
100
AcDbEntity
  8
IMPORTED
  6
CONTINUOUS
 62
              30
100
AcDbVertex
100
AcDb2dVertex
 10
5194.2726791987598
 20
-18.225431815033147
 30
0.0
 42
0.1174332926129327
 70
               2
 50
216.99271335214448
  0
VERTEX
  5
185
100
AcDbEntity
  8
IMPORTED
  6
CONTINUOUS
 62
              30
100
AcDbVertex
100
AcDb2dVertex
 10
5159.5322119475186
 20
-17.379086145888607
 30
0.0
  0
VERTEX
  5
186
100
AcDbEntity
  8
IMPORTED
  6
CONTINUOUS
 62
              30
100
AcDbVertex
100
AcDb2dVertex
 10
5032.3730223746124
 20
-44.407678494205385
 30
0.0
  0
VERTEX
  5
187
100
AcDbEntity
  8
IMPORTED
  6
CONTINUOUS
 62
              30
100
AcDbVertex
100
AcDb2dVertex
 10
5032.3730223746124
 20
-44.407678494205385
 30
0.0
 42
0.1269253987624653
 70
               2
 50
-269.55436714689642
  0
VERTEX
  5
188
100
AcDbEntity
  8
IMPORTED
  6
CONTINUOUS
 62
              30
100
AcDbVertex
100
AcDb2dVertex
 10
4998.8268486784455
 20
-61.109262174840723
 30
0.0
  0
VERTEX
  5
189
100
AcDbEntity
  8
IMPORTED
  6
CONTINUOUS
 62
              30
100
AcDbVertex
100
AcDb2dVertex
 10
4998.8268486784455
 20
-61.109262174840723
 30
0.0
 42
-0.0001396545073431
 70
               2
 50
14.546942567610966
  0
VERTEX
  5
18A
100
AcDbEntity
  8
IMPORTED
  6
CONTINUOUS
 62
              30
100
AcDbVertex
100
AcDb2dVertex
 10
4999.0562220317997
 20
-62.013749953499058
 30
0.0
  0
VERTEX
  5
18B
100
AcDbEntity
  8
IMPORTED
  6
CONTINUOUS
 62
              30
100
AcDbVertex
100
AcDb2dVertex
 10
4999.0562220317997
 20
-62.013749953499058
 30
0.0
 42
-0.0194616564772872
 70
               2
 50
14.51287776664609
  0
VERTEX
  5
18C
100
AcDbEntity
  8
IMPORTED
  6
CONTINUOUS
 62
              30
100
AcDbVertex
100
AcDb2dVertex
 10
5026.1207444525189
 20
-189.51668365747426
 30
0.0
  0
VERTEX
  5
18D
100
AcDbEntity
  8
IMPORTED
  6
CONTINUOUS
 62
              30
100
AcDbVertex
100
AcDb2dVertex
 10
5026.1207444525189
 20
-189.51668365747426
 30
0.0
 42
0.1269256369940266
 70
               2
 50
188.17691232964671
  0
VERTEX
  5
18E
100
AcDbEntity
  8
IMPORTED
  6
CONTINUOUS
 62
              30
100
AcDbVertex
100
AcDb2dVertex
 10
5063.5598604540428
 20
-191.1297754619674
 30
0.0
  0
VERTEX
  5
18F
100
AcDbEntity
  8
IMPORTED
  6
CONTINUOUS
 62
              30
100
AcDbVertex
100
AcDb2dVertex
 10
5190.7190134243565
 20
-164.10131971617707
 30
0.0
  0
VERTEX
  5
190
100
AcDbEntity
  8
IMPORTED
  6
CONTINUOUS
 62
              30
100
AcDbVertex
100
AcDb2dVertex
 10
5190.7190134243565
 20
-164.10131971617707
 30
0.0
 42
0.1174335750510932
 70
               2
 50
-269.55491325945809
  0
VERTEX
  5
191
100
AcDbEntity
  8
IMPORTED
  6
CONTINUOUS
 62
              30
100
AcDbVertex
100
AcDb2dVertex
 10
5222.1117936991714
 20
-149.19790826728533
 30
0.0
  0
VERTEX
  5
192
100
AcDbEntity
  8
IMPORTED
  6
CONTINUOUS
 62
              30
100
AcDbVertex
100
AcDb2dVertex
 10
5222.1117936991714
 20
-149.19790826728533
 30
0.0
 42
0.0178588260270895
 70
               2
 50
10.055131155411901
  0
VERTEX
  5
193
100
AcDbEntity
  8
IMPORTED
  6
CONTINUOUS
 62
              30
100
AcDbVertex
100
AcDb2dVertex
 10
5194.2726791987598
 20
-18.225431815033147
 30
0.0
  0
SEQEND
  5
194
100
AcDbEntity
  8
IMPORTED
  6
CONTINUOUS
 62
              30
  0
POLYLINE
  5
195
100
AcDbEntity
  8
IMPORTED
  6
STYLE_05
 62
              30
100
AcDb2dPolyline
 66
               1
 10
0.0
 20
0.0
 30
0.0
 70
             129
  0
VERTEX
  5
196
100
AcDbEntity
  8
IMPORTED
  6
STYLE_05
 62
              30
100
AcDbVertex
100
AcDb2dVertex
 10
5222.1117936991714
 20
-149.19790826728533
 30
0.0
 42
0.2830132667372389
 70
               2
 50
-71.284292405019045
  0
VERTEX
  5
197
100
AcDbEntity
  8
IMPORTED
  6
STYLE_05
 62
              30
100
AcDbVertex
100
AcDb2dVertex
 10
5248.4867111697858
 20
-75.146870493876946
 30
0.0
  0
VERTEX
  5
198
100
AcDbEntity
  8
IMPORTED
  6
STYLE_05
 62
              30
100
AcDbVertex
100
AcDb2dVertex
 10
5248.4866995331513
 20
-75.146815748033561
 30
0.0
 42
0.2830132176551837
 70
               2
 50
12.178642790167588
  0
VERTEX
  5
199
100
AcDbEntity
  8
IMPORTED
  6
STYLE_05
 62
              30
100
AcDbVertex
100
AcDb2dVertex
 10
5194.2727333130306
 20
-18.225446103644089
 30
0.0
  0
VERTEX
  5
19A
100
AcDbEntity
  8
IMPORTED
  6
STYLE_05
 62
              30
100
AcDbVertex
100
AcDb2dVertex
 10
5194.2726791987598
 20
-18.225431815033147
 30
0.0
  0
VERTEX
  5
19B
100
AcDbEntity
  8
IMPORTED
  6
STYLE_05
 62
              30
100
AcDbVertex
100
AcDb2dVertex
 10
5194.2726791987598
 20
-18.225431815033147
 30
0.0
 42
-0.0178588260270895
 70
               2
 50
14.334605240405319
  0
VERTEX
  5
19C
100
AcDbEntity
  8
IMPORTED
  6
STYLE_05
 62
              30
100
AcDbVertex
100
AcDb2dVertex
 10
5222.1117936991714
 20
-149.19790826728533
 30
0.0
  0
SEQEND
  5
19D
100
AcDbEntity
  8
IMPORTED
  6
STYLE_05
 62
              30
  0
POLYLINE
  5
19E
100
AcDbEntity
  8
IMPORTED
  6
STYLE_05
 62
              30
100
AcDb2dPolyline
 66
               1
 10
0.0
 20
0.0
 30
0.0
 70
             129
  0
VERTEX
  5
19F
100
AcDbEntity
  8
IMPORTED
  6
STYLE_05
 62
              30
100
AcDbVertex
100
AcDb2dVertex
 10
4998.8268486784455
 20
-61.109262174840723
 30
0.0
 42
0.2729392937856837
 70
               2
 50
-66.063821971312635
  0
VERTEX
  5
1A0
100
AcDbEntity
  8
IMPORTED
  6
STYLE_05
 62
              30
100
AcDbVertex
100
AcDb2dVertex
 10
4974.6054612317103
 20
-133.36216431909784
 30
0.0
  0
VERTEX
  5
1A1
100
AcDbEntity
  8
IMPORTED
  6
STYLE_05
 62
              30
100
AcDbVertex
100
AcDb2dVertex
 10
4974.6054612317103
 20
-133.36216431909784
 30
0.0
 42
0.2729396268707936
 70
               2
 50
12.178490914420724
  0
VERTEX
  5
1A2
100
AcDbEntity
  8
IMPORTED
  6
STYLE_05
 62
              30
100
AcDbVertex
100
AcDb2dVertex
 10
5026.1207444525189
 20
-189.51668365747426
 30
0.0
  0
VERTEX
  5
1A3
100
AcDbEntity
  8
IMPORTED
  6
STYLE_05
 62
              30
100
AcDbVertex
100
AcDb2dVertex
 10
5026.1207444525189
 20
-189.51668365747426
 30
0.0
 42
0.0194616564772872
 70
               2
 50
9.8495438357028782
  0
VERTEX
  5
1A4
100
AcDbEntity
  8
IMPORTED
  6
STYLE_05
 62
              30
100
AcDbVertex
100
AcDb2dVertex
 10
4999.0562220317997
 20
-62.013749953499058
 30
0.0
  0
VERTEX
  5
1A5
100
AcDbEntity
  8
IMPORTED
  6
STYLE_05
 62
              30
100
AcDbVertex
100
AcDb2dVertex
 10
4999.0562220317997
 20
-62.013749953499058
 30
0.0
 42
0.0001396545073431
 70
               2
 50
14.512877766647602
  0
VERTEX
  5
1A6
100
AcDbEntity
  8
IMPORTED
  6
STYLE_05
 62
              30
100
AcDbVertex
100
AcDb2dVertex
 10
4998.8268486784455
 20
-61.109262174840723
 30
0.0
  0
SEQEND
  5
1A7
100
AcDbEntity
  8
IMPORTED
  6
STYLE_05
 62
              30
  0
LINE
  5
1A8
100
AcDbEntity
  8
IMPORTED
  6
STYLE_06
 62
               1
100
AcDbLine
 10
6420.4795821575481
 20
352.47819785741694
 30
0.0
 11
6420.4795821575481
 21
282.39549785741701
 31
0.0
  0
LINE
  5
1A9
100
AcDbEntity
  8
IMPORTED
  6
STYLE_06
 62
               1
100
AcDbLine
 10
6600.4795821575481
 20
352.47819785741694
 30
0.0
 11
6600.4795821575481
 21
282.39549785741701
 31
0.0
  0
POLYLINE
  5
1AA
100
AcDbEntity
  8
IMPORTED
  6
CONTINUOUS
 62
              30
100
AcDb2dPolyline
 66
               1
 10
0.0
 20
0.0
 30
0.0
 70
             129
  0
VERTEX
  5
1AB
100
AcDbEntity
  8
IMPORTED
  6
CONTINUOUS
 62
              30
100
AcDbVertex
100
AcDb2dVertex
 10
6729.4795821575481
 20
380.39539785741692
 30
0.0
  0
VERTEX
  5
1AC
100
AcDbEntity
  8
IMPORTED
  6
CONTINUOUS
 62
              30
100
AcDbVertex
100
AcDb2dVertex
 10
6291.4795821575481
 20
380.39539785741692
 30
0.0
  0
VERTEX
  5
1AD
100
AcDbEntity
  8
IMPORTED
  6
CONTINUOUS
 62
              30
100
AcDbVertex
100
AcDb2dVertex
 10
6291.4795821575481
 20
380.39539785741692
 30
0.0
 42
-0.414213562373095
 70
               2
 50
3.1191399769264294E+17
  0
VERTEX
  5
1AE
100
AcDbEntity
  8
IMPORTED
  6
CONTINUOUS
 62
              30
100
AcDbVertex
100
AcDb2dVertex
 10
6285.4795821575481
 20
386.39539785741692
 30
0.0
  0
VERTEX
  5
1AF
100
AcDbEntity
  8
IMPORTED
  6
CONTINUOUS
 62
              30
100
AcDbVertex
100
AcDb2dVertex
 10
6285.4795821575481
 20
386.39539785741692
 30
0.0
  0
VERTEX
  5
1B0
100
AcDbEntity
  8
IMPORTED
  6
CONTINUOUS
 62
              30
100
AcDbVertex
100
AcDb2dVertex
 10
6285.4795821575481
 20
399.39539785741692
 30
0.0
  0
VERTEX
  5
1B1
100
AcDbEntity
  8
IMPORTED
  6
CONTINUOUS
 62
              30
100
AcDbVertex
100
AcDb2dVertex
 10
6285.4795821575481
 20
399.39539785741692
 30
0.0
 42
-0.414213562373095
 70
               2
  0
VERTEX
  5
1B2
100
AcDbEntity
  8
IMPORTED
  6
CONTINUOUS
 62
              30
100
AcDbVertex
100
AcDb2dVertex
 10
6291.4795821575481
 20
405.39539785741692
 30
0.0
  0
VERTEX
  5
1B3
100
AcDbEntity
  8
IMPORTED
  6
CONTINUOUS
 62
              30
100
AcDbVertex
100
AcDb2dVertex
 10
6291.4795821575481
 20
405.39539785741692
 30
0.0
  0
VERTEX
  5
1B4
100
AcDbEntity
  8
IMPORTED
  6
CONTINUOUS
 62
              30
100
AcDbVertex
100
AcDb2dVertex
 10
6729.4795821575481
 20
405.39539785741692
 30
0.0
  0
VERTEX
  5
1B5
100
AcDbEntity
  8
IMPORTED
  6
CONTINUOUS
 62
              30
100
AcDbVertex
100
AcDb2dVertex
 10
6729.4795821575481
 20
405.39539785741692
 30
0.0
 42
-0.414213562373095
 70
               2
 50
1.8714839861558573E+17
  0
VERTEX
  5
1B6
100
AcDbEntity
  8
IMPORTED
  6
CONTINUOUS
 62
              30
100
AcDbVertex
100
AcDb2dVertex
 10
6735.4795821575481
 20
399.39539785741692
 30
0.0
  0
VERTEX
  5
1B7
100
AcDbEntity
  8
IMPORTED
  6
CONTINUOUS
 62
              30
100
AcDbVertex
100
AcDb2dVertex
 10
6735.4795821575481
 20
399.39539785741692
 30
0.0
  0
VERTEX
  5
1B8
100
AcDbEntity
  8
IMPORTED
  6
CONTINUOUS
 62
              30
100
AcDbVertex
100
AcDb2dVertex
 10
6735.4795821575481
 20
386.39539785741692
 30
0.0
  0
VERTEX
  5
1B9
100
AcDbEntity
  8
IMPORTED
  6
CONTINUOUS
 62
              30
100
AcDbVertex
100
AcDb2dVertex
 10
6735.4795821575481
 20
386.39539785741692
 30
0.0
 42
-0.414213562373095
 70
               2
  0
VERTEX
  5
1BA
100
AcDbEntity
  8
IMPORTED
  6
CONTINUOUS
 62
              30
100
AcDbVertex
100
AcDb2dVertex
 10
6729.4795821575481
 20
380.39539785741692
 30
0.0
  0
SEQEND
  5
1BB
100
AcDbEntity
  8
IMPORTED
  6
CONTINUOUS
 62
              30
  0
POLYLINE
  5
1BC
100
AcDbEntity
  8
IMPORTED
  6
CONTINUOUS
 62
              30
100
AcDb2dPolyline
 66
               1
 10
0.0
 20
0.0
 30
0.0
 70
               1
 75
               5
  0
VERTEX
  5
1BD
100
AcDbEntity
  8
IMPORTED
  6
CONTINUOUS
 62
              30
100
AcDbVertex
100
AcDb2dVertex
 10
6410.4795821575481
 20
380.39539785741692
 30
0.0
  0
VERTEX
  5
1BE
100
AcDbEntity
  8
IMPORTED
  6
CONTINUOUS
 62
              30
100
AcDbVertex
100
AcDb2dVertex
 10
6610.4795821575481
 20
380.39539785741692
 30
0.0
  0
VERTEX
  5
1BF
100
AcDbEntity
  8
IMPORTED
  6
CONTINUOUS
 62
              30
100
AcDbVertex
100
AcDb2dVertex
 10
6610.4795821575481
 20
375.89539785741692
 30
0.0
  0
VERTEX
  5
1C0
100
AcDbEntity
  8
IMPORTED
  6
CONTINUOUS
 62
              30
100
AcDbVertex
100
AcDb2dVertex
 10
6410.4795821575481
 20
375.89539785741692
 30
0.0
  0
SEQEND
  5
1C1
100
AcDbEntity
  8
IMPORTED
  6
CONTINUOUS
 62
              30
  0
POLYLINE
  5
1C3
100
AcDbEntity
  8
IMPORTED
  6
CONTINUOUS
 62
              30
100
AcDb2dPolyline
 66
               1
 10
0.0
 20
0.0
 30
0.0
 70
               1
 75
               5
  0
VERTEX
  5
1C4
100
AcDbEntity
  8
IMPORTED
  6
CONTINUOUS
 62
              30
100
AcDbVertex
100
AcDb2dVertex
 10
6410.4795821575481
 20
375.89539785741692
 30
0.0
  0
VERTEX
  5
1C5
100
AcDbEntity
  8
IMPORTED
  6
CONTINUOUS
 62
              30
100
AcDbVertex
100
AcDb2dVertex
 10
6364.9795821575481
 20
375.89539785741692
 30
0.0
  0
VERTEX
  5
1C6
100
AcDbEntity
  8
IMPORTED
  6
CONTINUOUS
 62
              30
100
AcDbVertex
100
AcDb2dVertex
 10
6364.9795821575481
 20
330.39539785741692
 30
0.0
  0
VERTEX
  5
1C7
100
AcDbEntity
  8
IMPORTED
  6
CONTINUOUS
 62
              30
100
AcDbVertex
100
AcDb2dVertex
 10
6360.4795821575481
 20
330.39539785741692
 30
0.0
  0
VERTEX
  5
1C8
100
AcDbEntity
  8
IMPORTED
  6
CONTINUOUS
 62
              30
100
AcDbVertex
100
AcDb2dVertex
 10
6360.4795821575481
 20
375.89539785741692
 30
0.0
  0
VERTEX
  5
1C9
100
AcDbEntity
  8
IMPORTED
  6
CONTINUOUS
 62
              30
100
AcDbVertex
100
AcDb2dVertex
 10
6360.4795821575481
 20
380.39539785741692
 30
0.0
  0
VERTEX
  5
1CA
100
AcDbEntity
  8
IMPORTED
  6
CONTINUOUS
 62
              30
100
AcDbVertex
100
AcDb2dVertex
 10
6364.9795821575481
 20
380.39539785741692
 30
0.0
  0
VERTEX
  5
1CB
100
AcDbEntity
  8
IMPORTED
  6
CONTINUOUS
 62
              30
100
AcDbVertex
100
AcDb2dVertex
 10
6410.4795821575481
 20
380.39539785741692
 30
0.0
  0
SEQEND
  5
1CC
100
AcDbEntity
  8
IMPORTED
  6
CONTINUOUS
 62
              30
  0
POLYLINE
  5
1CE
100
AcDbEntity
  8
IMPORTED
  6
CONTINUOUS
 62
              30
100
AcDb2dPolyline
 66
               1
 10
0.0
 20
0.0
 30
0.0
 70
               1
 75
               5
  0
VERTEX
  5
1CF
100
AcDbEntity
  8
IMPORTED
  6
CONTINUOUS
 62
              30
100
AcDbVertex
100
AcDb2dVertex
 10
6655.9795821575481
 20
380.39539785741692
 30
0.0
  0
VERTEX
  5
1D0
100
AcDbEntity
  8
IMPORTED
  6
CONTINUOUS
 62
              30
100
AcDbVertex
100
AcDb2dVertex
 10
6660.4795821575481
 20
380.39539785741692
 30
0.0
  0
VERTEX
  5
1D1
100
AcDbEntity
  8
IMPORTED
  6
CONTINUOUS
 62
              30
100
AcDbVertex
100
AcDb2dVertex
 10
6660.4795821575481
 20
375.89539785741692
 30
0.0
  0
VERTEX
  5
1D2
100
AcDbEntity
  8
IMPORTED
  6
CONTINUOUS
 62
              30
100
AcDbVertex
100
AcDb2dVertex
 10
6660.4795821575481
 20
330.39539785741692
 30
0.0
  0
VERTEX
  5
1D3
100
AcDbEntity
  8
IMPORTED
  6
CONTINUOUS
 62
              30
100
AcDbVertex
100
AcDb2dVertex
 10
6655.9795821575481
 20
330.39539785741692
 30
0.0
  0
VERTEX
  5
1D4
100
AcDbEntity
  8
IMPORTED
  6
CONTINUOUS
 62
              30
100
AcDbVertex
100
AcDb2dVertex
 10
6655.9795821575481
 20
375.89539785741692
 30
0.0
  0
VERTEX
  5
1D5
100
AcDbEntity
  8
IMPORTED
  6
CONTINUOUS
 62
              30
100
AcDbVertex
100
AcDb2dVertex
 10
6610.4795821575481
 20
375.89539785741692
 30
0.0
  0
VERTEX
  5
1D6
100
AcDbEntity
  8
IMPORTED
  6
CONTINUOUS
 62
              30
100
AcDbVertex
100
AcDb2dVertex
 10
6610.4795821575481
 20
380.39539785741692
 30
0.0
  0
SEQEND
  5
1D7
100
AcDbEntity
  8
IMPORTED
  6
CONTINUOUS
 62
              30
  0
POLYLINE
  5
1D9
100
AcDbEntity
  8
IMPORTED
  6
CONTINUOUS
 62
              30
100
AcDb2dPolyline
 66
               1
 10
0.0
 20
0.0
 30
0.0
 70
               1
 75
               5
  0
VERTEX
  5
1DA
100
AcDbEntity
  8
IMPORTED
  6
CONTINUOUS
 62
              30
100
AcDbVertex
100
AcDb2dVertex
 10
6367.4795821575481
 20
325.39539785741692
 30
0.0
  0
VERTEX
  5
1DB
100
AcDbEntity
  8
IMPORTED
  6
CONTINUOUS
 62
              30
100
AcDbVertex
100
AcDb2dVertex
 10
6367.4795821575481
 20
329.89539785741692
 30
0.0
  0
VERTEX
  5
1DC
100
AcDbEntity
  8
IMPORTED
  6
CONTINUOUS
 62
              30
100
AcDbVertex
100
AcDb2dVertex
 10
6367.4795821575481
 20
370.39539785741692
 30
0.0
  0
VERTEX
  5
1DD
100
AcDbEntity
  8
IMPORTED
  6
CONTINUOUS
 62
              30
100
AcDbVertex
100
AcDb2dVertex
 10
6371.9795821575481
 20
370.39539785741692
 30
0.0
  0
VERTEX
  5
1DE
100
AcDbEntity
  8
IMPORTED
  6
CONTINUOUS
 62
              30
100
AcDbVertex
100
AcDb2dVertex
 10
6371.9795821575481
 20
329.89539785741692
 30
0.0
  0
VERTEX
  5
1DF
100
AcDbEntity
  8
IMPORTED
  6
CONTINUOUS
 62
              30
100
AcDbVertex
100
AcDb2dVertex
 10
6408.4795821575481
 20
329.89539785741692
 30
0.0
  0
VERTEX
  5
1E0
100
AcDbEntity
  8
IMPORTED
  6
CONTINUOUS
 62
              30
100
AcDbVertex
100
AcDb2dVertex
 10
6417.4795821575481
 20
329.89539785741692
 30
0.0
  0
VERTEX
  5
1E1
100
AcDbEntity
  8
IMPORTED
  6
CONTINUOUS
 62
              30
100
AcDbVertex
100
AcDb2dVertex
 10
6603.4795821575481
 20
329.89539785741692
 30
0.0
  0
VERTEX
  5
1E2
100
AcDbEntity
  8
IMPORTED
  6
CONTINUOUS
 62
              30
100
AcDbVertex
100
AcDb2dVertex
 10
6613.4795821575481
 20
329.89539785741692
 30
0.0
  0
VERTEX
  5
1E3
100
AcDbEntity
  8
IMPORTED
  6
CONTINUOUS
 62
              30
100
AcDbVertex
100
AcDb2dVertex
 10
6648.9795821575481
 20
329.89539785741692
 30
0.0
  0
VERTEX
  5
1E4
100
AcDbEntity
  8
IMPORTED
  6
CONTINUOUS
 62
              30
100
AcDbVertex
100
AcDb2dVertex
 10
6648.9795821575481
 20
370.39539785741692
 30
0.0
  0
VERTEX
  5
1E5
100
AcDbEntity
  8
IMPORTED
  6
CONTINUOUS
 62
              30
100
AcDbVertex
100
AcDb2dVertex
 10
6653.4795821575481
 20
370.39539785741692
 30
0.0
  0
VERTEX
  5
1E6
100
AcDbEntity
  8
IMPORTED
  6
CONTINUOUS
 62
              30
100
AcDbVertex
100
AcDb2dVertex
 10
6653.4795821575481
 20
329.89539785741692
 30
0.0
  0
VERTEX
  5
1E7
100
AcDbEntity
  8
IMPORTED
  6
CONTINUOUS
 62
              30
100
AcDbVertex
100
AcDb2dVertex
 10
6653.4795821575481
 20
325.39539785741692
 30
0.0
  0
VERTEX
  5
1E8
100
AcDbEntity
  8
IMPORTED
  6
CONTINUOUS
 62
              30
100
AcDbVertex
100
AcDb2dVertex
 10
6648.9795821575481
 20
325.39539785741692
 30
0.0
  0
VERTEX
  5
1E9
100
AcDbEntity
  8
IMPORTED
  6
CONTINUOUS
 62
              30
100
AcDbVertex
100
AcDb2dVertex
 10
6613.4795821575481
 20
325.39539785741692
 30
0.0
  0
VERTEX
  5
1EA
100
AcDbEntity
  8
IMPORTED
  6
CONTINUOUS
 62
              30
100
AcDbVertex
100
AcDb2dVertex
 10
6603.4795821575481
 20
325.39539785741692
 30
0.0
  0
VERTEX
  5
1EB
100
AcDbEntity
  8
IMPORTED
  6
CONTINUOUS
 62
              30
100
AcDbVertex
100
AcDb2dVertex
 10
6417.4795821575481
 20
325.39539785741692
 30
0.0
  0
VERTEX
  5
1EC
100
AcDbEntity
  8
IMPORTED
  6
CONTINUOUS
 62
              30
100
AcDbVertex
100
AcDb2dVertex
 10
6408.4795821575481
 20
325.39539785741692
 30
0.0
  0
VERTEX
  5
1ED
100
AcDbEntity
  8
IMPORTED
  6
CONTINUOUS
 62
              30
100
AcDbVertex
100
AcDb2dVertex
 10
6371.9795821575481
 20
325.39539785741692
 30
0.0
  0
SEQEND
  5
1EE
100
AcDbEntity
  8
IMPORTED
  6
CONTINUOUS
 62
              30
  0
POLYLINE
  5
1F0
100
AcDbEntity
  8
IMPORTED
  6
STYLE_12
 62
              30
100
AcDb2dPolyline
 66
               1
 10
0.0
 20
0.0
 30
0.0
 70
               1
 75
               5
  0
VERTEX
  5
1F1
100
AcDbEntity
  8
IMPORTED
  6
STYLE_12
 62
              30
100
AcDbVertex
100
AcDb2dVertex
 10
6414.4795821575481
 20
329.89539785741692
 30
0.0
  0
VERTEX
  5
1F2
100
AcDbEntity
  8
IMPORTED
  6
STYLE_12
 62
              30
100
AcDbVertex
100
AcDb2dVertex
 10
6426.4795821575481
 20
329.89539785741692
 30
0.0
  0
VERTEX
  5
1F3
100
AcDbEntity
  8
IMPORTED
  6
STYLE_12
 62
              30
100
AcDbVertex
100
AcDb2dVertex
 10
6426.4795821575481
 20
325.39539785741692
 30
0.0
  0
VERTEX
  5
1F4
100
AcDbEntity
  8
IMPORTED
  6
STYLE_12
 62
              30
100
AcDbVertex
100
AcDb2dVertex
 10
6414.4795821575481
 20
325.39539785741692
 30
0.0
  0
SEQEND
  5
1F5
100
AcDbEntity
  8
IMPORTED
  6
STYLE_12
 62
              30
  0
POLYLINE
  5
1F7
100
AcDbEntity
  8
IMPORTED
  6
STYLE_12
 62
              30
100
AcDb2dPolyline
 66
               1
 10
0.0
 20
0.0
 30
0.0
 70
               1
 75
               5
  0
VERTEX
  5
1F8
100
AcDbEntity
  8
IMPORTED
  6
STYLE_12
 62
              30
100
AcDbVertex
100
AcDb2dVertex
 10
6594.4795821575481
 20
329.89539785741692
 30
0.0
  0
VERTEX
  5
1F9
100
AcDbEntity
  8
IMPORTED
  6
STYLE_12
 62
              30
100
AcDbVertex
100
AcDb2dVertex
 10
6606.4795821575481
 20
329.89539785741692
 30
0.0
  0
VERTEX
  5
1FA
100
AcDbEntity
  8
IMPORTED
  6
STYLE_12
 62
              30
100
AcDbVertex
100
AcDb2dVertex
 10
6606.4795821575481
 20
325.39539785741692
 30
0.0
  0
VERTEX
  5
1FB
100
AcDbEntity
  8
IMPORTED
  6
STYLE_12
 62
              30
100
AcDbVertex
100
AcDb2dVertex
 10
6594.4795821575481
 20
325.39539785741692
 30
0.0
  0
SEQEND
  5
1FC
100
AcDbEntity
  8
IMPORTED
  6
STYLE_12
 62
              30
  0
POLYLINE
  5
1FE
100
AcDbEntity
  8
IMPORTED
  6
STYLE_05
 62
              30
100
AcDb2dPolyline
 66
               1
 10
0.0
 20
0.0
 30
0.0
 70
             129
  0
VERTEX
  5
1FF
100
AcDbEntity
  8
IMPORTED
  6
STYLE_05
 62
              30
100
AcDbVertex
100
AcDb2dVertex
 10
6413.0579821575475
 20
325.39539785741692
 30
0.0
  0
VERTEX
  5
200
100
AcDbEntity
  8
IMPORTED
  6
STYLE_05
 62
              30
100
AcDbVertex
100
AcDb2dVertex
 10
6428.457982157548
 20
325.39539785741692
 30
0.0
  0
VERTEX
  5
201
100
AcDbEntity
  8
IMPORTED
  6
STYLE_05
 62
              30
100
AcDbVertex
100
AcDb2dVertex
 10
6428.457982157548
 20
303.49059785741701
 30
0.0
  0
VERTEX
  5
202
100
AcDbEntity
  8
IMPORTED
  6
STYLE_05
 62
              30
100
AcDbVertex
100
AcDb2dVertex
 10
6413.0579821575475
 20
303.49059785741701
 30
0.0
  0
VERTEX
  5
203
100
AcDbEntity
  8
IMPORTED
  6
STYLE_05
 62
              30
100
AcDbVertex
100
AcDb2dVertex
 10
6413.0579821575475
 20
325.39539785741692
 30
0.0
  0
SEQEND
  5
204
100
AcDbEntity
  8
IMPORTED
  6
STYLE_05
 62
              30
  0
POLYLINE
  5
205
100
AcDbEntity
  8
IMPORTED
  6
STYLE_05
 62
              30
100
AcDb2dPolyline
 66
               1
 10
0.0
 20
0.0
 30
0.0
 70
             129
  0
VERTEX
  5
206
100
AcDbEntity
  8
IMPORTED
  6
STYLE_05
 62
              30
100
AcDbVertex
100
AcDb2dVertex
 10
6414.4794821575479
 20
325.39539785741692
 30
0.0
  0
VERTEX
  5
207
100
AcDbEntity
  8
IMPORTED
  6
STYLE_05
 62
              30
100
AcDbVertex
100
AcDb2dVertex
 10
6414.4794821575479
 20
306.6078978574169
 30
0.0
  0
VERTEX
  5
208
100
AcDbEntity
  8
IMPORTED
  6
STYLE_05
 62
              30
100
AcDbVertex
100
AcDb2dVertex
 10
6415.9951821575478
 20
305.39539785741692
 30
0.0
  0
VERTEX
  5
209
100
AcDbEntity
  8
IMPORTED
  6
STYLE_05
 62
              30
100
AcDbVertex
100
AcDb2dVertex
 10
6424.9639821575483
 20
305.39539785741692
 30
0.0
  0
VERTEX
  5
20A
100
AcDbEntity
  8
IMPORTED
  6
STYLE_05
 62
              30
100
AcDbVertex
100
AcDb2dVertex
 10
6426.4795821575481
 20
306.6078978574169
 30
0.0
  0
VERTEX
  5
20B
100
AcDbEntity
  8
IMPORTED
  6
STYLE_05
 62
              30
100
AcDbVertex
100
AcDb2dVertex
 10
6426.4795821575481
 20
325.39539785741692
 30
0.0
  0
SEQEND
  5
20C
100
AcDbEntity
  8
IMPORTED
  6
STYLE_05
 62
              30
  0
POLYLINE
  5
20D
100
AcDbEntity
  8
IMPORTED
  6
CONTINUOUS
 62
              30
100
AcDb2dPolyline
 66
               1
 10
0.0
 20
0.0
 30
0.0
 70
             128
  0
VERTEX
  5
20E
100
AcDbEntity
  8
IMPORTED
  6
CONTINUOUS
 62
              30
100
AcDbVertex
100
AcDb2dVertex
 10
6410.0871821575483
 20
336.69169785741701
 30
0.0
  0
VERTEX
  5
20F
100
AcDbEntity
  8
IMPORTED
  6
CONTINUOUS
 62
              30
100
AcDbVertex
100
AcDb2dVertex
 10
6410.7365821575477
 20
337.04249785741695
 30
0.0
  0
VERTEX
  5
210
100
AcDbEntity
  8
IMPORTED
  6
CONTINUOUS
 62
              30
100
AcDbVertex
100
AcDb2dVertex
 10
6411.3861821575483
 20
337.29309785741691
 30
0.0
  0
VERTEX
  5
211
100
AcDbEntity
  8
IMPORTED
  6
CONTINUOUS
 62
              30
100
AcDbVertex
100
AcDb2dVertex
 10
6412.0355821575477
 20
337.4434978574169
 30
0.0
  0
VERTEX
  5
212
100
AcDbEntity
  8
IMPORTED
  6
CONTINUOUS
 62
              30
100
AcDbVertex
100
AcDb2dVertex
 10
6412.6851821575483
 20
337.49369785741692
 30
0.0
  0
VERTEX
  5
213
100
AcDbEntity
  8
IMPORTED
  6
CONTINUOUS
 62
              30
100
AcDbVertex
100
AcDb2dVertex
 10
6413.3345821575476
 20
337.4434978574169
 30
0.0
  0
VERTEX
  5
214
100
AcDbEntity
  8
IMPORTED
  6
CONTINUOUS
 62
              30
100
AcDbVertex
100
AcDb2dVertex
 10
6413.9841821575483
 20
337.29309785741691
 30
0.0
  0
VERTEX
  5
215
100
AcDbEntity
  8
IMPORTED
  6
CONTINUOUS
 62
              30
100
AcDbVertex
100
AcDb2dVertex
 10
6414.633782157548
 20
337.04249785741695
 30
0.0
  0
VERTEX
  5
216
100
AcDbEntity
  8
IMPORTED
  6
CONTINUOUS
 62
              30
100
AcDbVertex
100
AcDb2dVertex
 10
6415.2833821575477
 20
336.69169785741701
 30
0.0
  0
VERTEX
  5
217
100
AcDbEntity
  8
IMPORTED
  6
CONTINUOUS
 62
              30
100
AcDbVertex
100
AcDb2dVertex
 10
6415.2833821575477
 20
336.69169785741701
 30
0.0
  0
VERTEX
  5
218
100
AcDbEntity
  8
IMPORTED
  6
CONTINUOUS
 62
              30
100
AcDbVertex
100
AcDb2dVertex
 10
6416.5823821575477
 20
337.04249785741695
 30
0.0
  0
VERTEX
  5
219
100
AcDbEntity
  8
IMPORTED
  6
CONTINUOUS
 62
              30
100
AcDbVertex
100
AcDb2dVertex
 10
6417.8813821575477
 20
337.29309785741691
 30
0.0
  0
VERTEX
  5
21A
100
AcDbEntity
  8
IMPORTED
  6
CONTINUOUS
 62
              30
100
AcDbVertex
100
AcDb2dVertex
 10
6419.1803821575477
 20
337.4434978574169
 30
0.0
  0
VERTEX
  5
21B
100
AcDbEntity
  8
IMPORTED
  6
CONTINUOUS
 62
              30
100
AcDbVertex
100
AcDb2dVertex
 10
6420.4795821575481
 20
337.49369785741692
 30
0.0
  0
VERTEX
  5
21C
100
AcDbEntity
  8
IMPORTED
  6
CONTINUOUS
 62
              30
100
AcDbVertex
100
AcDb2dVertex
 10
6421.778582157548
 20
337.4434978574169
 30
0.0
  0
VERTEX
  5
21D
100
AcDbEntity
  8
IMPORTED
  6
CONTINUOUS
 62
              30
100
AcDbVertex
100
AcDb2dVertex
 10
6423.077582157548
 20
337.29309785741691
 30
0.0
  0
VERTEX
  5
21E
100
AcDbEntity
  8
IMPORTED
  6
CONTINUOUS
 62
              30
100
AcDbVertex
100
AcDb2dVertex
 10
6424.376582157548
 20
337.04249785741695
 30
0.0
  0
VERTEX
  5
21F
100
AcDbEntity
  8
IMPORTED
  6
CONTINUOUS
 62
              30
100
AcDbVertex
100
AcDb2dVertex
 10
6425.6757821575475
 20
336.69169785741701
 30
0.0
  0
VERTEX
  5
220
100
AcDbEntity
  8
IMPORTED
  6
CONTINUOUS
 62
              30
100
AcDbVertex
100
AcDb2dVertex
 10
6425.6757821575475
 20
336.69169785741701
 30
0.0
  0
VERTEX
  5
221
100
AcDbEntity
  8
IMPORTED
  6
CONTINUOUS
 62
              30
100
AcDbVertex
100
AcDb2dVertex
 10
6426.3251821575477
 20
337.04249785741695
 30
0.0
  0
VERTEX
  5
222
100
AcDbEntity
  8
IMPORTED
  6
CONTINUOUS
 62
              30
100
AcDbVertex
100
AcDb2dVertex
 10
6426.9747821575475
 20
337.29309785741691
 30
0.0
  0
VERTEX
  5
223
100
AcDbEntity
  8
IMPORTED
  6
CONTINUOUS
 62
              30
100
AcDbVertex
100
AcDb2dVertex
 10
6427.6241821575477
 20
337.4434978574169
 30
0.0
  0
VERTEX
  5
224
100
AcDbEntity
  8
IMPORTED
  6
CONTINUOUS
 62
              30
100
AcDbVertex
100
AcDb2dVertex
 10
6428.2737821575483
 20
337.49369785741692
 30
0.0
  0
VERTEX
  5
225
100
AcDbEntity
  8
IMPORTED
  6
CONTINUOUS
 62
              30
100
AcDbVertex
100
AcDb2dVertex
 10
6428.9231821575477
 20
337.4434978574169
 30
0.0
  0
VERTEX
  5
226
100
AcDbEntity
  8
IMPORTED
  6
CONTINUOUS
 62
              30
100
AcDbVertex
100
AcDb2dVertex
 10
6429.5727821575483
 20
337.29309785741691
 30
0.0
  0
VERTEX
  5
227
100
AcDbEntity
  8
IMPORTED
  6
CONTINUOUS
 62
              30
100
AcDbVertex
100
AcDb2dVertex
 10
6430.2223821575481
 20
337.04249785741695
 30
0.0
  0
VERTEX
  5
228
100
AcDbEntity
  8
IMPORTED
  6
CONTINUOUS
 62
              30
100
AcDbVertex
100
AcDb2dVertex
 10
6430.8719821575478
 20
336.69169785741701
 30
0.0
  0
VERTEX
  5
229
100
AcDbEntity
  8
IMPORTED
  6
CONTINUOUS
 62
              30
100
AcDbVertex
100
AcDb2dVertex
 10
6430.8719821575478
 20
336.69169785741701
 30
0.0
  0
SEQEND
  5
22A
100
AcDbEntity
  8
IMPORTED
  6
CONTINUOUS
 62
              30
  0
POLYLINE
  5
22B
100
AcDbEntity
  8
IMPORTED
  6
CONTINUOUS
 62
              30
100
AcDb2dPolyline
 66
               1
 10
0.0
 20
0.0
 30
0.0
 70
             129
  0
VERTEX
  5
22C
100
AcDbEntity
  8
IMPORTED
  6
CONTINUOUS
 62
              30
100
AcDbVertex
100
AcDb2dVertex
 10
6410.0871821575483
 20
329.89539785741692
 30
0.0
  0
VERTEX
  5
22D
100
AcDbEntity
  8
IMPORTED
  6
CONTINUOUS
 62
              30
100
AcDbVertex
100
AcDb2dVertex
 10
6410.0871821575483
 20
336.69159785741692
 30
0.0
  0
VERTEX
  5
22E
100
AcDbEntity
  8
IMPORTED
  6
CONTINUOUS
 62
              30
100
AcDbVertex
100
AcDb2dVertex
 10
6411.4794821575479
 20
337.49539785741695
 30
0.0
  0
VERTEX
  5
22F
100
AcDbEntity
  8
IMPORTED
  6
CONTINUOUS
 62
              30
100
AcDbVertex
100
AcDb2dVertex
 10
6429.4794821575479
 20
337.49539785741695
 30
0.0
  0
VERTEX
  5
230
100
AcDbEntity
  8
IMPORTED
  6
CONTINUOUS
 62
              30
100
AcDbVertex
100
AcDb2dVertex
 10
6430.8717821575483
 20
336.69159785741692
 30
0.0
  0
VERTEX
  5
231
100
AcDbEntity
  8
IMPORTED
  6
CONTINUOUS
 62
              30
100
AcDbVertex
100
AcDb2dVertex
 10
6430.8717821575483
 20
329.89539785741692
 30
0.0
  0
SEQEND
  5
232
100
AcDbEntity
  8
IMPORTED
  6
CONTINUOUS
 62
              30
  0
LINE
  5
233
100
AcDbEntity
  8
IMPORTED
  6
CONTINUOUS
 62
              30
100
AcDbLine
 10
6425.6756821575482
 20
329.89539785741692
 30
0.0
 11
6425.6756821575482
 21
336.69159785741692
 31
0.0
  0
LINE
  5
234
100
AcDbEntity
  8
IMPORTED
  6
CONTINUOUS
 62
              30
100
AcDbLine
 10
6415.2833821575477
 20
336.69159785741692
 30
0.0
 11
6415.2833821575477
 21
329.89539785741692
 31
0.0
  0
POLYLINE
  5
235
100
AcDbEntity
  8
IMPORTED
  6
STYLE_05
 62
              30
100
AcDb2dPolyline
 66
               1
 10
0.0
 20
0.0
 30
0.0
 70
             129
  0
VERTEX
  5
236
100
AcDbEntity
  8
IMPORTED
  6
STYLE_05
 62
              30
100
AcDbVertex
100
AcDb2dVertex
 10
6593.0580821575477
 20
325.39539785741692
 30
0.0
  0
VERTEX
  5
237
100
AcDbEntity
  8
IMPORTED
  6
STYLE_05
 62
              30
100
AcDbVertex
100
AcDb2dVertex
 10
6608.4580821575482
 20
325.39539785741692
 30
0.0
  0
VERTEX
  5
238
100
AcDbEntity
  8
IMPORTED
  6
STYLE_05
 62
              30
100
AcDbVertex
100
AcDb2dVertex
 10
6608.4580821575482
 20
303.49059785741701
 30
0.0
  0
VERTEX
  5
239
100
AcDbEntity
  8
IMPORTED
  6
STYLE_05
 62
              30
100
AcDbVertex
100
AcDb2dVertex
 10
6593.0580821575477
 20
303.49059785741701
 30
0.0
  0
VERTEX
  5
23A
100
AcDbEntity
  8
IMPORTED
  6
STYLE_05
 62
              30
100
AcDbVertex
100
AcDb2dVertex
 10
6593.0580821575477
 20
325.39539785741692
 30
0.0
  0
SEQEND
  5
23B
100
AcDbEntity
  8
IMPORTED
  6
STYLE_05
 62
              30
  0
POLYLINE
  5
23C
100
AcDbEntity
  8
IMPORTED
  6
STYLE_05
 62
              30
100
AcDb2dPolyline
 66
               1
 10
0.0
 20
0.0
 30
0.0
 70
             129
  0
VERTEX
  5
23D
100
AcDbEntity
  8
IMPORTED
  6
STYLE_05
 62
              30
100
AcDbVertex
100
AcDb2dVertex
 10
6594.4796821575483
 20
325.39539785741692
 30
0.0
  0
VERTEX
  5
23E
100
AcDbEntity
  8
IMPORTED
  6
STYLE_05
 62
              30
100
AcDbVertex
100
AcDb2dVertex
 10
6594.4796821575483
 20
306.6078978574169
 30
0.0
  0
VERTEX
  5
23F
100
AcDbEntity
  8
IMPORTED
  6
STYLE_05
 62
              30
100
AcDbVertex
100
AcDb2dVertex
 10
6595.995282157548
 20
305.39539785741692
 30
0.0
  0
VERTEX
  5
240
100
AcDbEntity
  8
IMPORTED
  6
STYLE_05
 62
              30
100
AcDbVertex
100
AcDb2dVertex
 10
6604.9640821575476
 20
305.39539785741692
 30
0.0
  0
VERTEX
  5
241
100
AcDbEntity
  8
IMPORTED
  6
STYLE_05
 62
              30
100
AcDbVertex
100
AcDb2dVertex
 10
6606.4797821575476
 20
306.6078978574169
 30
0.0
  0
VERTEX
  5
242
100
AcDbEntity
  8
IMPORTED
  6
STYLE_05
 62
              30
100
AcDbVertex
100
AcDb2dVertex
 10
6606.4797821575476
 20
325.39539785741692
 30
0.0
  0
SEQEND
  5
243
100
AcDbEntity
  8
IMPORTED
  6
STYLE_05
 62
              30
  0
POLYLINE
  5
244
100
AcDbEntity
  8
IMPORTED
  6
CONTINUOUS
 62
              30
100
AcDb2dPolyline
 66
               1
 10
0.0
 20
0.0
 30
0.0
 70
             128
  0
VERTEX
  5
245
100
AcDbEntity
  8
IMPORTED
  6
CONTINUOUS
 62
              30
100
AcDbVertex
100
AcDb2dVertex
 10
6590.0872821575476
 20
336.69169785741701
 30
0.0
  0
VERTEX
  5
246
100
AcDbEntity
  8
IMPORTED
  6
CONTINUOUS
 62
              30
100
AcDbVertex
100
AcDb2dVertex
 10
6590.7366821575479
 20
337.04249785741695
 30
0.0
  0
VERTEX
  5
247
100
AcDbEntity
  8
IMPORTED
  6
CONTINUOUS
 62
              30
100
AcDbVertex
100
AcDb2dVertex
 10
6591.3862821575476
 20
337.29309785741691
 30
0.0
  0
VERTEX
  5
248
100
AcDbEntity
  8
IMPORTED
  6
CONTINUOUS
 62
              30
100
AcDbVertex
100
AcDb2dVertex
 10
6592.0356821575479
 20
337.4434978574169
 30
0.0
  0
VERTEX
  5
249
100
AcDbEntity
  8
IMPORTED
  6
CONTINUOUS
 62
              30
100
AcDbVertex
100
AcDb2dVertex
 10
6592.6852821575476
 20
337.49369785741692
 30
0.0
  0
VERTEX
  5
24A
100
AcDbEntity
  8
IMPORTED
  6
CONTINUOUS
 62
              30
100
AcDbVertex
100
AcDb2dVertex
 10
6593.3346821575478
 20
337.4434978574169
 30
0.0
  0
VERTEX
  5
24B
100
AcDbEntity
  8
IMPORTED
  6
CONTINUOUS
 62
              30
100
AcDbVertex
100
AcDb2dVertex
 10
6593.9842821575476
 20
337.29309785741691
 30
0.0
  0
VERTEX
  5
24C
100
AcDbEntity
  8
IMPORTED
  6
CONTINUOUS
 62
              30
100
AcDbVertex
100
AcDb2dVertex
 10
6594.6338821575482
 20
337.04249785741695
 30
0.0
  0
VERTEX
  5
24D
100
AcDbEntity
  8
IMPORTED
  6
CONTINUOUS
 62
              30
100
AcDbVertex
100
AcDb2dVertex
 10
6595.283482157548
 20
336.69169785741701
 30
0.0
  0
VERTEX
  5
24E
100
AcDbEntity
  8
IMPORTED
  6
CONTINUOUS
 62
              30
100
AcDbVertex
100
AcDb2dVertex
 10
6595.283482157548
 20
336.69169785741701
 30
0.0
  0
VERTEX
  5
24F
100
AcDbEntity
  8
IMPORTED
  6
CONTINUOUS
 62
              30
100
AcDbVertex
100
AcDb2dVertex
 10
6596.5824821575479
 20
337.04249785741695
 30
0.0
  0
VERTEX
  5
250
100
AcDbEntity
  8
IMPORTED
  6
CONTINUOUS
 62
              30
100
AcDbVertex
100
AcDb2dVertex
 10
6597.8814821575479
 20
337.29309785741691
 30
0.0
  0
VERTEX
  5
251
100
AcDbEntity
  8
IMPORTED
  6
CONTINUOUS
 62
              30
100
AcDbVertex
100
AcDb2dVertex
 10
6599.1804821575479
 20
337.4434978574169
 30
0.0
  0
VERTEX
  5
252
100
AcDbEntity
  8
IMPORTED
  6
CONTINUOUS
 62
              30
100
AcDbVertex
100
AcDb2dVertex
 10
6600.4796821575483
 20
337.49369785741692
 30
0.0
  0
VERTEX
  5
253
100
AcDbEntity
  8
IMPORTED
  6
CONTINUOUS
 62
              30
100
AcDbVertex
100
AcDb2dVertex
 10
6601.7786821575482
 20
337.4434978574169
 30
0.0
  0
VERTEX
  5
254
100
AcDbEntity
  8
IMPORTED
  6
CONTINUOUS
 62
              30
100
AcDbVertex
100
AcDb2dVertex
 10
6603.0776821575482
 20
337.29309785741691
 30
0.0
  0
VERTEX
  5
255
100
AcDbEntity
  8
IMPORTED
  6
CONTINUOUS
 62
              30
100
AcDbVertex
100
AcDb2dVertex
 10
6604.3766821575482
 20
337.04249785741695
 30
0.0
  0
VERTEX
  5
256
100
AcDbEntity
  8
IMPORTED
  6
CONTINUOUS
 62
              30
100
AcDbVertex
100
AcDb2dVertex
 10
6605.6758821575477
 20
336.69169785741701
 30
0.0
  0
VERTEX
  5
257
100
AcDbEntity
  8
IMPORTED
  6
CONTINUOUS
 62
              30
100
AcDbVertex
100
AcDb2dVertex
 10
6605.6758821575477
 20
336.69169785741701
 30
0.0
  0
VERTEX
  5
258
100
AcDbEntity
  8
IMPORTED
  6
CONTINUOUS
 62
              30
100
AcDbVertex
100
AcDb2dVertex
 10
6606.3252821575479
 20
337.04249785741695
 30
0.0
  0
VERTEX
  5
259
100
AcDbEntity
  8
IMPORTED
  6
CONTINUOUS
 62
              30
100
AcDbVertex
100
AcDb2dVertex
 10
6606.9748821575477
 20
337.29309785741691
 30
0.0
  0
VERTEX
  5
25A
100
AcDbEntity
  8
IMPORTED
  6
CONTINUOUS
 62
              30
100
AcDbVertex
100
AcDb2dVertex
 10
6607.6242821575479
 20
337.4434978574169
 30
0.0
  0
VERTEX
  5
25B
100
AcDbEntity
  8
IMPORTED
  6
CONTINUOUS
 62
              30
100
AcDbVertex
100
AcDb2dVertex
 10
6608.2738821575476
 20
337.49369785741692
 30
0.0
  0
VERTEX
  5
25C
100
AcDbEntity
  8
IMPORTED
  6
CONTINUOUS
 62
              30
100
AcDbVertex
100
AcDb2dVertex
 10
6608.9232821575479
 20
337.4434978574169
 30
0.0
  0
VERTEX
  5
25D
100
AcDbEntity
  8
IMPORTED
  6
CONTINUOUS
 62
              30
100
AcDbVertex
100
AcDb2dVertex
 10
6609.5728821575476
 20
337.29309785741691
 30
0.0
  0
VERTEX
  5
25E
100
AcDbEntity
  8
IMPORTED
  6
CONTINUOUS
 62
              30
100
AcDbVertex
100
AcDb2dVertex
 10
6610.2224821575483
 20
337.04249785741695
 30
0.0
  0
VERTEX
  5
25F
100
AcDbEntity
  8
IMPORTED
  6
CONTINUOUS
 62
              30
100
AcDbVertex
100
AcDb2dVertex
 10
6610.872082157548
 20
336.69169785741701
 30
0.0
  0
VERTEX
  5
260
100
AcDbEntity
  8
IMPORTED
  6
CONTINUOUS
 62
              30
100
AcDbVertex
100
AcDb2dVertex
 10
6610.872082157548
 20
336.69169785741701
 30
0.0
  0
SEQEND
  5
261
100
AcDbEntity
  8
IMPORTED
  6
CONTINUOUS
 62
              30
  0
POLYLINE
  5
262
100
AcDbEntity
  8
IMPORTED
  6
CONTINUOUS
 62
              30
100
AcDb2dPolyline
 66
               1
 10
0.0
 20
0.0
 30
0.0
 70
             129
  0
VERTEX
  5
263
100
AcDbEntity
  8
IMPORTED
  6
CONTINUOUS
 62
              30
100
AcDbVertex
100
AcDb2dVertex
 10
6590.0872821575476
 20
329.89539785741692
 30
0.0
  0
VERTEX
  5
264
100
AcDbEntity
  8
IMPORTED
  6
CONTINUOUS
 62
              30
100
AcDbVertex
100
AcDb2dVertex
 10
6590.0872821575476
 20
336.69159785741692
 30
0.0
  0
VERTEX
  5
265
100
AcDbEntity
  8
IMPORTED
  6
CONTINUOUS
 62
              30
100
AcDbVertex
100
AcDb2dVertex
 10
6591.4795821575481
 20
337.49539785741695
 30
0.0
  0
VERTEX
  5
266
100
AcDbEntity
  8
IMPORTED
  6
CONTINUOUS
 62
              30
100
AcDbVertex
100
AcDb2dVertex
 10
6609.4795821575481
 20
337.49539785741695
 30
0.0
  0
VERTEX
  5
267
100
AcDbEntity
  8
IMPORTED
  6
CONTINUOUS
 62
              30
100
AcDbVertex
100
AcDb2dVertex
 10
6610.8718821575476
 20
336.69159785741692
 30
0.0
  0
VERTEX
  5
268
100
AcDbEntity
  8
IMPORTED
  6
CONTINUOUS
 62
              30
100
AcDbVertex
100
AcDb2dVertex
 10
6610.8718821575476
 20
329.89539785741692
 30
0.0
  0
SEQEND
  5
269
100
AcDbEntity
  8
IMPORTED
  6
CONTINUOUS
 62
              30
  0
LINE
  5
26A
100
AcDbEntity
  8
IMPORTED
  6
CONTINUOUS
 62
              30
100
AcDbLine
 10
6605.6757821575475
 20
329.89539785741692
 30
0.0
 11
6605.6757821575475
 21
336.69159785741692
 31
0.0
  0
LINE
  5
26B
100
AcDbEntity
  8
IMPORTED
  6
CONTINUOUS
 62
              30
100
AcDbLine
 10
6595.283482157548
 20
336.69159785741692
 30
0.0
 11
6595.283482157548
 21
329.89539785741692
 31
0.0
  0
POLYLINE
  5
26C
100
AcDbEntity
  8
IMPORTED
  6
CONTINUOUS
 62
              30
100
AcDb2dPolyline
 66
               1
 10
0.0
 20
0.0
 30
0.0
 70
             129
  0
VERTEX
  5
26D
100
AcDbEntity
  8
IMPORTED
  6
CONTINUOUS
 62
              30
100
AcDbVertex
100
AcDb2dVertex
 10
3304.8642345384997
 20
1530.3177370362662
 30
0.0
  0
VERTEX
  5
26E
100
AcDbEntity
  8
IMPORTED
  6
CONTINUOUS
 62
              30
100
AcDbVertex
100
AcDb2dVertex
 10
7204.8642345384997
 20
1530.3177370362662
 30
0.0
  0
VERTEX
  5
26F
100
AcDbEntity
  8
IMPORTED
  6
CONTINUOUS
 62
              30
100
AcDbVertex
100
AcDb2dVertex
 10
7204.8642345384997
 20
-1219.6822629637338
 30
0.0
  0
VERTEX
  5
270
100
AcDbEntity
  8
IMPORTED
  6
CONTINUOUS
 62
              30
100
AcDbVertex
100
AcDb2dVertex
 10
3304.8642345384997
 20
-1219.6822629637338
 30
0.0
  0
VERTEX
  5
271
100
AcDbEntity
  8
IMPORTED
  6
CONTINUOUS
 62
              30
100
AcDbVertex
100
AcDb2dVertex
 10
3304.8642345384997
 20
1530.3177370362662
 30
0.0
  0
SEQEND
  5
272
100
AcDbEntity
  8
IMPORTED
  6
CONTINUOUS
 62
              30
  0
MTEXT
  5
273
100
AcDbEntity
  8
IMPORTED
 62
              30
100
AcDbMText
 10
6483.7321845384995
 20
1320.187248567516
 30
0.0
 40
27.14736953125
 41
0.0
 71
               1
 72
               1
  1
記　　号
  7
_______
  0
MTEXT
  5
274
100
AcDbEntity
  8
IMPORTED
 62
              30
100
AcDbMText
 10
6483.7321845384995
 20
1141.1567485675159
 30
0.0
 40
27.14736953125
 41
0.0
 71
               1
 72
               1
  1
縮　　尺
  7
_______
  0
MTEXT
  5
275
100
AcDbEntity
  8
IMPORTED
 62
              30
100
AcDbMText
 10
6483.7321845384995
 20
1410.187248567516
 30
0.0
 40
27.14736953125
 41
0.0
 71
               1
 72
               1
  1
仕　　様
  7
_______
  0
MTEXT
  5
276
100
AcDbEntity
  8
IMPORTED
 62
              30
100
AcDbMText
 10
6483.7321845384995
 20
1501.1567485675162
 30
0.0
 40
27.14736953125
 41
0.0
 71
               1
 72
               1
  1
品　　名
  7
_______
  0
MTEXT
  5
277
100
AcDbEntity
  8
IMPORTED
 62
              30
100
AcDbMText
 10
6833.9166845384998
 20
1500.187248567516
 30
0.0
 40
27.14736953125
 41
0.0
 71
               1
 72
               1
  1
ＥＳＷベンチ
  7
_______
  0
LINE
  5
278
100
AcDbEntity
  8
IMPORTED
  6
CONTINUOUS
 62
              30
100
AcDbLine
 10
3304.8642345384997
 20
-1069.6822129637337
 30
0.0
 11
7204.8642345384997
 21
-1069.6822129637337
 31
0.0
  0
MTEXT
  5
279
100
AcDbEntity
  8
IMPORTED
 62
              30
100
AcDbMText
 10
6431.4197345385001
 20
-1114.0074785887336
 30
0.0
 40
48.865234375
 41
0.0
 71
               1
 72
               1
  1
イー・トップ株式会社
  7
_______
  0
MTEXT
  5
27A
100
AcDbEntity
  8
IMPORTED
 62
              30
100
AcDbMText
 10
6763.3606845385002
 20
1409.7127485675162
 30
0.0
 40
27.14736953125
 41
0.0
 71
               1
 72
               1
  1
ＥＩＮスーパーウッド
  7
_______
  0
LINE
  5
27B
100
AcDbEntity
  8
IMPORTED
  6
CONTINUOUS
 62
              30
100
AcDbLine
 10
7204.8641845385
 20
1440.3177370362662
 30
0.0
 11
6454.8641845385
 21
1440.3177370362662
 31
0.0
  0
LINE
  5
27C
100
AcDbEntity
  8
IMPORTED
  6
CONTINUOUS
 62
              30
100
AcDbLine
 10
7204.8641845385
 20
1350.3177370362662
 30
0.0
 11
6454.8641845385
 21
1350.3177370362662
 31
0.0
  0
LINE
  5
27D
100
AcDbEntity
  8
IMPORTED
  6
CONTINUOUS
 62
              30
100
AcDbLine
 10
7204.8641845385
 20
1260.3177370362662
 30
0.0
 11
6454.8641845385
 21
1260.3177370362662
 31
0.0
  0
LINE
  5
27E
100
AcDbEntity
  8
IMPORTED
  6
CONTINUOUS
 62
              30
100
AcDbLine
 10
7204.8641845385
 20
1170.317737036266
 30
0.0
 11
6454.8641845385
 21
1170.317737036266
 31
0.0
  0
LINE
  5
27F
100
AcDbEntity
  8
IMPORTED
  6
CONTINUOUS
 62
              30
100
AcDbLine
 10
7204.8641845385
 20
1080.317737036266
 30
0.0
 11
6454.8641845385
 21
1080.317737036266
 31
0.0
  0
LINE
  5
280
100
AcDbEntity
  8
IMPORTED
  6
CONTINUOUS
 62
              30
100
AcDbLine
 10
6654.8641845385
 20
1530.3177370362662
 30
0.0
 11
6654.8641845385
 21
1080.317737036266
 31
0.0
  0
LINE
  5
281
100
AcDbEntity
  8
IMPORTED
  6
CONTINUOUS
 62
              30
100
AcDbLine
 10
6454.8641845385
 20
1530.3177370362662
 30
0.0
 11
6454.8641845385
 21
1080.317737036266
 31
0.0
  0
MTEXT
  5
282
100
AcDbEntity
  8
IMPORTED
 62
              30
100
AcDbMText
 10
6883.2841845385001
 20
1232.1262485675159
 30
0.0
 40
27.14736953125
 41
0.0
 71
               1
 72
               1
  1
R2000
  7
_______
  0
MTEXT
  5
283
100
AcDbEntity
  8
IMPORTED
 62
              30
100
AcDbMText
 10
6483.7321845384995
 20
1230.187248567516
 30
0.0
 40
27.14736953125
 41
0.0
 71
               1
 72
               1
  1
規格寸法
  7
_______
  0
MTEXT
  5
284
100
AcDbEntity
  8
IMPORTED
 62
              30
100
AcDbMText
 10
6885.2386845384999
 20
1322.7887485675162
 30
0.0
 40
27.14736953125
 41
0.0
 71
               1
 72
               1
  1
B-071
  7
_______
  0
MTEXT
  5
285
100
AcDbEntity
  8
IMPORTED
 62
              30
100
AcDbMText
 10
6886.6696845384995
 20
1140.187248567516
 30
0.0
 40
27.14736953125
 41
0.0
 71
               1
 72
               1
  1
1：10(A3)
  7
_______
  0
POLYLINE
  5
286
100
AcDbEntity
  8
IMPORTED
  6
CONTINUOUS
 62
              30
100
AcDb2dPolyline
 66
               1
 10
0.0
 20
0.0
 30
0.0
 70
             129
  0
VERTEX
  5
287
100
AcDbEntity
  8
IMPORTED
  6
CONTINUOUS
 62
              30
100
AcDbVertex
100
AcDb2dVertex
 10
6308.7975176545506
 20
-781.10015114571229
 30
0.0
  0
VERTEX
  5
288
100
AcDbEntity
  8
IMPORTED
  6
CONTINUOUS
 62
              30
100
AcDbVertex
100
AcDb2dVertex
 10
6751.8323426545503
 20
-781.10015114571229
 30
0.0
  0
VERTEX
  5
289
100
AcDbEntity
  8
IMPORTED
  6
CONTINUOUS
 62
              30
100
AcDbVertex
100
AcDb2dVertex
 10
6751.8323426545503
 20
-881.10015114571218
 30
0.0
  0
VERTEX
  5
28A
100
AcDbEntity
  8
IMPORTED
  6
CONTINUOUS
 62
              30
100
AcDbVertex
100
AcDb2dVertex
 10
6308.7975176545506
 20
-881.10015114571218
 30
0.0
  0
VERTEX
  5
28B
100
AcDbEntity
  8
IMPORTED
  6
CONTINUOUS
 62
              30
100
AcDbVertex
100
AcDb2dVertex
 10
6308.7975176545506
 20
-781.10015114571229
 30
0.0
  0
SEQEND
  5
28C
100
AcDbEntity
  8
IMPORTED
  6
CONTINUOUS
 62
              30
  0
POLYLINE
  5
28D
100
AcDbEntity
  8
IMPORTED
  6
CONTINUOUS
 62
              30
100
AcDb2dPolyline
 66
               1
 10
0.0
 20
0.0
 30
0.0
 70
             129
  0
VERTEX
  5
28E
100
AcDbEntity
  8
IMPORTED
  6
CONTINUOUS
 62
              30
100
AcDbVertex
100
AcDb2dVertex
 10
6370.6295821575477
 20
325.39539785741704
 30
0.0
  0
VERTEX
  5
28F
100
AcDbEntity
  8
IMPORTED
  6
CONTINUOUS
 62
              30
100
AcDbVertex
100
AcDb2dVertex
 10
6650.6295821575477
 20
325.39539785741704
 30
0.0
  0
VERTEX
  5
290
100
AcDbEntity
  8
IMPORTED
  6
CONTINUOUS
 62
              30
100
AcDbVertex
100
AcDb2dVertex
 10
6650.6295821575477
 20
-194.60460214258299
 30
0.0
  0
VERTEX
  5
291
100
AcDbEntity
  8
IMPORTED
  6
CONTINUOUS
 62
              30
100
AcDbVertex
100
AcDb2dVertex
 10
6370.6295821575477
 20
-194.60460214258299
 30
0.0
  0
VERTEX
  5
292
100
AcDbEntity
  8
IMPORTED
  6
CONTINUOUS
 62
              30
100
AcDbVertex
100
AcDb2dVertex
 10
6370.6295821575477
 20
325.39539785741704
 30
0.0
  0
SEQEND
  5
293
100
AcDbEntity
  8
IMPORTED
  6
CONTINUOUS
 62
              30
  0
POLYLINE
  5
294
100
AcDbEntity
  8
IMPORTED
  6
CONTINUOUS
 62
              30
100
AcDb2dPolyline
 66
               1
 10
0.0
 20
0.0
 30
0.0
 70
             129
  0
VERTEX
  5
295
100
AcDbEntity
  8
IMPORTED
  6
CONTINUOUS
 62
              30
100
AcDbVertex
100
AcDb2dVertex
 10
6219.2527821575468
 20
-194.60460214258299
 30
0.0
  0
VERTEX
  5
296
100
AcDbEntity
  8
IMPORTED
  6
CONTINUOUS
 62
              30
100
AcDbVertex
100
AcDb2dVertex
 10
6819.2527821575477
 20
-194.60460214258299
 30
0.0
  0
VERTEX
  5
297
100
AcDbEntity
  8
IMPORTED
  6
CONTINUOUS
 62
              30
100
AcDbVertex
100
AcDb2dVertex
 10
6819.2527821575477
 20
-244.60460214258299
 30
0.0
  0
VERTEX
  5
298
100
AcDbEntity
  8
IMPORTED
  6
CONTINUOUS
 62
              30
100
AcDbVertex
100
AcDb2dVertex
 10
6219.2527821575468
 20
-244.60460214258299
 30
0.0
  0
VERTEX
  5
299
100
AcDbEntity
  8
IMPORTED
  6
CONTINUOUS
 62
              30
100
AcDbVertex
100
AcDb2dVertex
 10
6219.2527821575468
 20
-194.60460214258299
 30
0.0
  0
SEQEND
  5
29A
100
AcDbEntity
  8
IMPORTED
  6
CONTINUOUS
 62
              30
  0
POLYLINE
  5
29B
100
AcDbEntity
  8
IMPORTED
  6
CONTINUOUS
 62
              30
100
AcDb2dPolyline
 66
               1
 10
0.0
 20
0.0
 30
0.0
 70
             129
  0
VERTEX
  5
29C
100
AcDbEntity
  8
IMPORTED
  6
CONTINUOUS
 62
              30
100
AcDbVertex
100
AcDb2dVertex
 10
6269.2527821575477
 20
-44.604602142582934
 30
0.0
  0
VERTEX
  5
29D
100
AcDbEntity
  8
IMPORTED
  6
CONTINUOUS
 62
              30
100
AcDbVertex
100
AcDb2dVertex
 10
6769.2527821575477
 20
-44.604602142582934
 30
0.0
  0
VERTEX
  5
29E
100
AcDbEntity
  8
IMPORTED
  6
CONTINUOUS
 62
              30
100
AcDbVertex
100
AcDb2dVertex
 10
6769.2527821575477
 20
-194.60460214258299
 30
0.0
  0
VERTEX
  5
29F
100
AcDbEntity
  8
IMPORTED
  6
CONTINUOUS
 62
              30
100
AcDbVertex
100
AcDb2dVertex
 10
6269.2527821575477
 20
-194.60460214258299
 30
0.0
  0
VERTEX
  5
2A0
100
AcDbEntity
  8
IMPORTED
  6
CONTINUOUS
 62
              30
100
AcDbVertex
100
AcDb2dVertex
 10
6269.2527821575477
 20
-44.604602142582934
 30
0.0
  0
SEQEND
  5
2A1
100
AcDbEntity
  8
IMPORTED
  6
CONTINUOUS
 62
              30
  0
POLYLINE
  5
2A2
100
AcDbEntity
  8
IMPORTED
  6
CONTINUOUS
 62
              30
100
AcDb2dPolyline
 66
               1
 10
0.0
 20
0.0
 30
0.0
 70
             129
  0
VERTEX
  5
2A3
100
AcDbEntity
  8
IMPORTED
  6
CONTINUOUS
 62
              30
100
AcDbVertex
100
AcDb2dVertex
 10
6219.2527821575468
 20
-244.60460214258299
 30
0.0
  0
VERTEX
  5
2A4
100
AcDbEntity
  8
IMPORTED
  6
CONTINUOUS
 62
              30
100
AcDbVertex
100
AcDb2dVertex
 10
6819.2527821575477
 20
-244.60460214258299
 30
0.0
  0
VERTEX
  5
2A5
100
AcDbEntity
  8
IMPORTED
  6
CONTINUOUS
 62
              30
100
AcDbVertex
100
AcDb2dVertex
 10
6819.2527821575477
 20
-344.60460214258296
 30
0.0
  0
VERTEX
  5
2A6
100
AcDbEntity
  8
IMPORTED
  6
CONTINUOUS
 62
              30
100
AcDbVertex
100
AcDb2dVertex
 10
6219.2527821575468
 20
-344.60460214258296
 30
0.0
  0
VERTEX
  5
2A7
100
AcDbEntity
  8
IMPORTED
  6
CONTINUOUS
 62
              30
100
AcDbVertex
100
AcDb2dVertex
 10
6219.2527821575468
 20
-244.60460214258299
 30
0.0
  0
SEQEND
  5
2A8
100
AcDbEntity
  8
IMPORTED
  6
CONTINUOUS
 62
              30
  0
LINE
  5
2A9
100
AcDbEntity
  8
IMPORTED
  6
CONTINUOUS
 62
              30
100
AcDbLine
 10
6541.7527821575477
 20
-194.60460214258299
 30
0.0
 11
6583.5144821575477
 21
-244.60460214258299
 31
0.0
  0
LINE
  5
2AA
100
AcDbEntity
  8
IMPORTED
  6
CONTINUOUS
 62
              30
100
AcDbLine
 10
6553.5647821575476
 20
-194.60460214258299
 30
0.0
 11
6595.3265821575478
 21
-244.60460214258299
 31
0.0
  0
LINE
  5
2AB
100
AcDbEntity
  8
IMPORTED
  6
CONTINUOUS
 62
              30
100
AcDbLine
 10
6564.2615821575482
 20
-194.60460214258299
 30
0.0
 11
6714.2615821575482
 21
-44.604602142582934
 31
0.0
  0
MTEXT
  5
2AC
100
AcDbEntity
  8
IMPORTED
 62
              30
100
AcDbMText
 10
6340.4042682932086
 20
-803.55987819840516
 30
0.0
 40
48.865253613281247
 41
0.0
 71
               1
 72
               1
  1
A-A'部断面図
  7
_______
  0
LINE
  5
2AD
100
AcDbEntity
  8
IMPORTED
  6
CONTINUOUS
 62
              30
100
AcDbLine
 10
6180.6295821575459
 20
5.3953978574170662
 30
0.0
 11
6870.2080821575482
 21
5.3953978574170662
 31
0.0
  0
LINE
  5
2AE
100
AcDbEntity
  8
IMPORTED
  6
CONTINUOUS
 62
              30
100
AcDbLine
 10
6469.2527821575477
 20
-344.60460214258296
 30
0.0
 11
6421.0062821575484
 21
-244.60460214258299
 31
0.0
  0
LINE
  5
2AF
100
AcDbEntity
  8
IMPORTED
  6
CONTINUOUS
 62
              30
100
AcDbLine
 10
6549.2527821575477
 20
-344.60460214258296
 30
0.0
 11
6501.0062821575484
 21
-244.60460214258299
 31
0.0
  0
LINE
  5
2B0
100
AcDbEntity
  8
IMPORTED
  6
CONTINUOUS
 62
              30
100
AcDbLine
 10
6309.2527821575477
 20
-344.60460214258296
 30
0.0
 11
6261.0061821575482
 21
-244.60460214258299
 31
0.0
  0
LINE
  5
2B1
100
AcDbEntity
  8
IMPORTED
  6
CONTINUOUS
 62
              30
100
AcDbLine
 10
6389.2527821575477
 20
-344.60460214258296
 30
0.0
 11
6341.0061821575482
 21
-244.60460214258299
 31
0.0
  0
LINE
  5
2B2
100
AcDbEntity
  8
IMPORTED
  6
CONTINUOUS
 62
              30
100
AcDbLine
 10
6297.1911821575477
 20
-319.60440214258301
 30
0.0
 11
6285.1293821575482
 21
-344.60460214258296
 31
0.0
  0
LINE
  5
2B3
100
AcDbEntity
  8
IMPORTED
  6
CONTINUOUS
 62
              30
100
AcDbLine
 10
6377.1911821575477
 20
-319.60440214258301
 30
0.0
 11
6365.1293821575482
 21
-344.60460214258296
 31
0.0
  0
LINE
  5
2B4
100
AcDbEntity
  8
IMPORTED
  6
CONTINUOUS
 62
              30
100
AcDbLine
 10
6457.1911821575477
 20
-319.60440214258301
 30
0.0
 11
6445.1293821575482
 21
-344.60460214258296
 31
0.0
  0
LINE
  5
2B5
100
AcDbEntity
  8
IMPORTED
  6
CONTINUOUS
 62
              30
100
AcDbLine
 10
6537.1911821575477
 20
-319.60440214258301
 30
0.0
 11
6525.1293821575482
 21
-344.60460214258296
 31
0.0
  0
LINE
  5
2B6
100
AcDbEntity
  8
IMPORTED
  6
CONTINUOUS
 62
              30
100
AcDbLine
 10
6383.6295821575477
 20
325.39539785741704
 30
0.0
 11
6383.6295821575477
 21
-194.60460214258299
 31
0.0
  0
LINE
  5
2B7
100
AcDbEntity
  8
IMPORTED
  6
CONTINUOUS
 62
              30
100
AcDbLine
 10
6376.6295821575477
 20
325.39539785741704
 30
0.0
 11
6376.6295821575477
 21
-194.60460214258299
 31
0.0
  0
LINE
  5
2B8
100
AcDbEntity
  8
IMPORTED
  6
CONTINUOUS
 62
              30
100
AcDbLine
 10
6372.1295821575477
 20
325.39539785741704
 30
0.0
 11
6372.1295821575477
 21
-194.60460214258299
 31
0.0
  0
LINE
  5
2B9
100
AcDbEntity
  8
IMPORTED
  6
CONTINUOUS
 62
              30
100
AcDbLine
 10
6445.6295821575477
 20
325.39539785741704
 30
0.0
 11
6445.6295821575477
 21
-194.60460214258299
 31
0.0
  0
LINE
  5
2BA
100
AcDbEntity
  8
IMPORTED
  6
CONTINUOUS
 62
              30
100
AcDbLine
 10
6431.1295821575477
 20
325.39539785741704
 30
0.0
 11
6431.1295821575477
 21
-194.60460214258299
 31
0.0
  0
LINE
  5
2BB
100
AcDbEntity
  8
IMPORTED
  6
CONTINUOUS
 62
              30
100
AcDbLine
 10
6417.1295821575477
 20
325.39539785741704
 30
0.0
 11
6417.1295821575477
 21
-194.60460214258299
 31
0.0
  0
LINE
  5
2BC
100
AcDbEntity
  8
IMPORTED
  6
CONTINUOUS
 62
              30
100
AcDbLine
 10
6404.1295821575477
 20
325.39539785741704
 30
0.0
 11
6404.1295821575477
 21
-194.60460214258299
 31
0.0
  0
LINE
  5
2BD
100
AcDbEntity
  8
IMPORTED
  6
CONTINUOUS
 62
              30
100
AcDbLine
 10
6392.6295821575477
 20
325.39539785741704
 30
0.0
 11
6392.6295821575477
 21
-194.60460214258299
 31
0.0
  0
LINE
  5
2BE
100
AcDbEntity
  8
IMPORTED
  6
CONTINUOUS
 62
              30
100
AcDbLine
 10
6253.5647821575476
 20
-194.60460214258299
 30
0.0
 11
6295.3265821575478
 21
-244.60460214258299
 31
0.0
  0
LINE
  5
2BF
100
AcDbEntity
  8
IMPORTED
  6
CONTINUOUS
 62
              30
100
AcDbLine
 10
6241.7527821575477
 20
-194.60460214258299
 30
0.0
 11
6283.5144821575477
 21
-244.60460214258299
 31
0.0
  0
LINE
  5
2C0
100
AcDbEntity
  8
IMPORTED
  6
CONTINUOUS
 62
              30
100
AcDbLine
 10
6269.2527821575477
 20
-80.198602142582985
 30
0.0
 11
6304.8467821575478
 21
-44.604602142582934
 31
0.0
  0
LINE
  5
2C1
100
AcDbEntity
  8
IMPORTED
  6
CONTINUOUS
 62
              30
100
AcDbLine
 10
6269.2527821575477
 20
-65.349402142582989
 30
0.0
 11
6289.9975821575481
 21
-44.604602142582934
 31
0.0
  0
LINE
  5
2C2
100
AcDbEntity
  8
IMPORTED
  6
CONTINUOUS
 62
              30
100
AcDbLine
 10
6269.2527821575477
 20
-95.048202142582994
 30
0.0
 11
6319.6963821575482
 21
-44.604602142582934
 31
0.0
  0
LINE
  5
2C3
100
AcDbEntity
  8
IMPORTED
  6
CONTINUOUS
 62
              30
100
AcDbLine
 10
6352.1295821575477
 20
-194.60460214258299
 30
0.0
 11
6502.1295821575477
 21
-44.604602142582934
 31
0.0
  0
LINE
  5
2C4
100
AcDbEntity
  8
IMPORTED
  6
CONTINUOUS
 62
              30
100
AcDbLine
 10
6381.8279821575479
 20
-194.60460214258299
 30
0.0
 11
6531.8279821575479
 21
-44.604602142582934
 31
0.0
  0
LINE
  5
2C5
100
AcDbEntity
  8
IMPORTED
  6
CONTINUOUS
 62
              30
100
AcDbLine
 10
6366.9787821575483
 20
-194.60460214258299
 30
0.0
 11
6516.9787821575483
 21
-44.604602142582934
 31
0.0
  0
LINE
  5
2C6
100
AcDbEntity
  8
IMPORTED
  6
CONTINUOUS
 62
              30
100
AcDbLine
 10
6391.7527821575477
 20
-194.60460214258299
 30
0.0
 11
6433.5143821575484
 21
-244.60460214258299
 31
0.0
  0
LINE
  5
2C7
100
AcDbEntity
  8
IMPORTED
  6
CONTINUOUS
 62
              30
100
AcDbLine
 10
6403.5647821575476
 20
-194.60460214258299
 30
0.0
 11
6445.3265821575478
 21
-244.60460214258299
 31
0.0
  0
LINE
  5
2C8
100
AcDbEntity
  8
IMPORTED
  6
CONTINUOUS
 62
              30
100
AcDbLine
 10
6273.0679821575477
 20
-269.60460214258296
 30
0.0
 11
6285.1295821575477
 21
-244.60460214258299
 31
0.0
  0
LINE
  5
2C9
100
AcDbEntity
  8
IMPORTED
  6
CONTINUOUS
 62
              30
100
AcDbLine
 10
6353.0679821575477
 20
-269.60460214258296
 30
0.0
 11
6365.1295821575477
 21
-244.60460214258299
 31
0.0
  0
LINE
  5
2CA
100
AcDbEntity
  8
IMPORTED
  6
CONTINUOUS
 62
              30
100
AcDbLine
 10
6433.0679821575477
 20
-269.60460214258296
 30
0.0
 11
6445.1295821575477
 21
-244.60460214258299
 31
0.0
  0
LINE
  5
2CB
100
AcDbEntity
  8
IMPORTED
  6
CONTINUOUS
 62
              30
100
AcDbLine
 10
6513.0679821575477
 20
-269.60460214258296
 30
0.0
 11
6525.1295821575477
 21
-244.60460214258299
 31
0.0
  0
LINE
  5
2CC
100
AcDbEntity
  8
IMPORTED
  6
CONTINUOUS
 62
              30
100
AcDbLine
 10
6709.2527821575477
 20
-344.60460214258296
 30
0.0
 11
6661.0061821575482
 21
-244.60460214258299
 31
0.0
  0
LINE
  5
2CD
100
AcDbEntity
  8
IMPORTED
  6
CONTINUOUS
 62
              30
100
AcDbLine
 10
6789.2527821575477
 20
-344.60460214258296
 30
0.0
 11
6741.0061821575482
 21
-244.60460214258299
 31
0.0
  0
LINE
  5
2CE
100
AcDbEntity
  8
IMPORTED
  6
CONTINUOUS
 62
              30
100
AcDbLine
 10
6629.2527821575477
 20
-344.60460214258296
 30
0.0
 11
6581.0061821575482
 21
-244.60460214258299
 31
0.0
  0
LINE
  5
2CF
100
AcDbEntity
  8
IMPORTED
  6
CONTINUOUS
 62
              30
100
AcDbLine
 10
6617.1911821575477
 20
-319.60440214258301
 30
0.0
 11
6605.1293821575482
 21
-344.60460214258296
 31
0.0
  0
LINE
  5
2D0
100
AcDbEntity
  8
IMPORTED
  6
CONTINUOUS
 62
              30
100
AcDbLine
 10
6697.1911821575477
 20
-319.60440214258301
 30
0.0
 11
6685.1293821575482
 21
-344.60460214258296
 31
0.0
  0
LINE
  5
2D1
100
AcDbEntity
  8
IMPORTED
  6
CONTINUOUS
 62
              30
100
AcDbLine
 10
6777.1911821575477
 20
-319.60440214258301
 30
0.0
 11
6765.1293821575482
 21
-344.60460214258296
 31
0.0
  0
LINE
  5
2D2
100
AcDbEntity
  8
IMPORTED
  6
CONTINUOUS
 62
              30
100
AcDbLine
 10
6637.6295821575477
 20
325.39539785741704
 30
0.0
 11
6637.6295821575477
 21
-194.60460214258299
 31
0.0
  0
LINE
  5
2D3
100
AcDbEntity
  8
IMPORTED
  6
CONTINUOUS
 62
              30
100
AcDbLine
 10
6644.6295821575477
 20
325.39539785741704
 30
0.0
 11
6644.6295821575477
 21
-194.60460214258299
 31
0.0
  0
LINE
  5
2D4
100
AcDbEntity
  8
IMPORTED
  6
CONTINUOUS
 62
              30
100
AcDbLine
 10
6649.1295821575477
 20
325.39539785741704
 30
0.0
 11
6649.1295821575477
 21
-194.60460214258299
 31
0.0
  0
LINE
  5
2D5
100
AcDbEntity
  8
IMPORTED
  6
CONTINUOUS
 62
              30
100
AcDbLine
 10
6575.6295821575477
 20
325.39539785741704
 30
0.0
 11
6575.6295821575477
 21
-194.60460214258299
 31
0.0
  0
LINE
  5
2D6
100
AcDbEntity
  8
IMPORTED
  6
CONTINUOUS
 62
              30
100
AcDbLine
 10
6590.1295821575477
 20
325.39539785741704
 30
0.0
 11
6590.1295821575477
 21
-194.60460214258299
 31
0.0
  0
LINE
  5
2D7
100
AcDbEntity
  8
IMPORTED
  6
CONTINUOUS
 62
              30
100
AcDbLine
 10
6604.1295821575477
 20
325.39539785741704
 30
0.0
 11
6604.1295821575477
 21
-194.60460214258299
 31
0.0
  0
LINE
  5
2D8
100
AcDbEntity
  8
IMPORTED
  6
CONTINUOUS
 62
              30
100
AcDbLine
 10
6617.1295821575477
 20
325.39539785741704
 30
0.0
 11
6617.1295821575477
 21
-194.60460214258299
 31
0.0
  0
LINE
  5
2D9
100
AcDbEntity
  8
IMPORTED
  6
CONTINUOUS
 62
              30
100
AcDbLine
 10
6628.6295821575477
 20
325.39539785741704
 30
0.0
 11
6628.6295821575477
 21
-194.60460214258299
 31
0.0
  0
LINE
  5
2DA
100
AcDbEntity
  8
IMPORTED
  6
CONTINUOUS
 62
              30
100
AcDbLine
 10
6593.9595821575476
 20
-194.60460214258299
 30
0.0
 11
6743.9595821575476
 21
-44.604602142582934
 31
0.0
  0
LINE
  5
2DB
100
AcDbEntity
  8
IMPORTED
  6
CONTINUOUS
 62
              30
100
AcDbLine
 10
6579.1107821575479
 20
-194.60460214258299
 30
0.0
 11
6729.1107821575479
 21
-44.604602142582934
 31
0.0
  0
LINE
  5
2DC
100
AcDbEntity
  8
IMPORTED
  6
CONTINUOUS
 62
              30
100
AcDbLine
 10
6703.5648821575478
 20
-194.60460214258299
 30
0.0
 11
6745.3265821575478
 21
-244.60460214258299
 31
0.0
  0
LINE
  5
2DD
100
AcDbEntity
  8
IMPORTED
  6
CONTINUOUS
 62
              30
100
AcDbLine
 10
6691.7527821575477
 20
-194.60460214258299
 30
0.0
 11
6733.5143821575475
 21
-244.60460214258299
 31
0.0
  0
LINE
  5
2DE
100
AcDbEntity
  8
IMPORTED
  6
CONTINUOUS
 62
              30
100
AcDbLine
 10
6593.0679821575477
 20
-269.60460214258296
 30
0.0
 11
6605.1295821575477
 21
-244.60460214258299
 31
0.0
  0
LINE
  5
2DF
100
AcDbEntity
  8
IMPORTED
  6
CONTINUOUS
 62
              30
100
AcDbLine
 10
6673.0679821575477
 20
-269.60460214258296
 30
0.0
 11
6685.1295821575477
 21
-244.60460214258299
 31
0.0
  0
LINE
  5
2E0
100
AcDbEntity
  8
IMPORTED
  6
CONTINUOUS
 62
              30
100
AcDbLine
 10
6753.0679821575477
 20
-269.60460214258296
 30
0.0
 11
6765.1295821575477
 21
-244.60460214258299
 31
0.0
  0
MTEXT
  5
2E1
100
AcDbEntity
  8
IMPORTED
 62
              30
100
AcDbMText
 10
6720.406253364351
 20
54.412391493055566
 30
0.0
 40
35.291558159722221
 41
0.0
 71
               1
 72
               1
  1
▽GL
  7
_______
  0
POLYLINE
  5
2E2
100
AcDbEntity
  8
IMPORTED
  6
CONTINUOUS
 62
              30
100
AcDb2dPolyline
 66
               1
 10
0.0
 20
0.0
 30
0.0
 70
             129
  0
VERTEX
  5
2E3
100
AcDbEntity
  8
IMPORTED
  6
CONTINUOUS
 62
              30
100
AcDbVertex
100
AcDb2dVertex
 10
4256.568944440879
 20
-781.10015114571229
 30
0.0
  0
VERTEX
  5
2E4
100
AcDbEntity
  8
IMPORTED
  6
CONTINUOUS
 62
              30
100
AcDbVertex
100
AcDb2dVertex
 10
4556.5689444408799
 20
-781.10015114571229
 30
0.0
  0
VERTEX
  5
2E5
100
AcDbEntity
  8
IMPORTED
  6
CONTINUOUS
 62
              30
100
AcDbVertex
100
AcDb2dVertex
 10
4556.5689444408799
 20
-881.10015114571218
 30
0.0
  0
VERTEX
  5
2E6
100
AcDbEntity
  8
IMPORTED
  6
CONTINUOUS
 62
              30
100
AcDbVertex
100
AcDb2dVertex
 10
4256.568944440879
 20
-881.10015114571218
 30
0.0
  0
VERTEX
  5
2E7
100
AcDbEntity
  8
IMPORTED
  6
CONTINUOUS
 62
              30
100
AcDbVertex
100
AcDb2dVertex
 10
4256.568944440879
 20
-781.10015114571229
 30
0.0
  0
SEQEND
  5
2E8
100
AcDbEntity
  8
IMPORTED
  6
CONTINUOUS
 62
              30
  0
MTEXT
  5
2E9
100
AcDbEntity
  8
IMPORTED
 62
              30
100
AcDbMText
 10
4310.2871595540482
 20
-804.34004196144474
 30
0.0
 40
48.865253613281247
 41
0.0
 71
               1
 72
               1
  1
平面図
  7
_______
  0
CIRCLE
  5
2EA
100
AcDbEntity
  8
IMPORTED
  6
STYLE_05
 62
              30
100
AcDbCircle
 10
5199.7871355558163
 20
-86.520520156112326
 30
0.0
 40
7.5000000000000151
  0
CIRCLE
  5
2EB
100
AcDbEntity
  8
IMPORTED
  6
STYLE_05
 62
              30
100
AcDbCircle
 10
5023.512761417518
 20
-122.96670489513647
 30
0.0
 40
7.4999999999999529
  0
ARC
  5
2EC
100
AcDbEntity
  8
IMPORTED
  6
CONTINUOUS
 62
              30
100
AcDbCircle
 10
3375.3350971997825
 20
-473.29825314152163
 30
0.0
 40
1625.0000030717636
100
AcDbArc
 50
0.3525885444436195
 51
20.165460953033762
  0
ARC
  5
2ED
100
AcDbEntity
  8
IMPORTED
  6
STYLE_05
 62
              30
100
AcDbCircle
 10
3375.3350971997825
 20
-473.29825314152163
 30
0.0
 40
1629.0000794022267
100
AcDbArc
 50
0.3525877836022414
 51
59.673516158679959
  0
ARC
  5
2EE
100
AcDbEntity
  8
IMPORTED
  6
CONTINUOUS
 62
              30
100
AcDbCircle
 10
3375.3350971997825
 20
-473.29825314152163
 30
0.0
 40
1675.0000697875716
100
AcDbArc
 50
0.3418813602172082
 51
20.162830733606274
  0
ARC
  5
2EF
100
AcDbEntity
  8
IMPORTED
  6
CONTINUOUS
 62
              30
100
AcDbCircle
 10
3375.3350971997825
 20
-473.29825314152163
 30
0.0
 40
1924.999976750478
100
AcDbArc
 50
0.297638641058037
 51
20.140301943872586
  0
ARC
  5
2F0
100
AcDbEntity
  8
IMPORTED
  6
STYLE_05
 62
              30
100
AcDbCircle
 10
3375.3350971997825
 20
-473.29825314152163
 30
0.0
 40
1921.0000538802153
100
AcDbArc
 50
0.2976373250326861
 51
59.702355195138722
  0
ARC
  5
2F1
100
AcDbEntity
  8
IMPORTED
  6
CONTINUOUS
 62
              30
100
AcDbCircle
 10
3375.3350971997825
 20
-473.29825314152163
 30
0.0
 40
1875.0000534094634
100
AcDbArc
 50
0.3057554372960747
 51
20.151543608469126
  0
LINE
  5
2F2
100
AcDbEntity
  8
IMPORTED
  6
CONTINUOUS
 62
              30
100
AcDbLine
 10
5050.3350433819569
 20
-463.29829523142894
 30
0.0
 11
5000.3041946867779
 21
-463.29830425210866
 31
0.0
  0
LINE
  5
2F3
100
AcDbEntity
  8
IMPORTED
  6
CONTINUOUS
 62
              30
100
AcDbLine
 10
5300.3089636897548
 20
-463.2983211703322
 30
0.0
 11
5250.3081816550439
 21
-463.2984071860833
 31
0.0
  0
LINE
  5
2F4
100
AcDbEntity
  8
IMPORTED
  6
STYLE_05
 62
              30
100
AcDbLine
 10
4346.4835932177048
 20
1188.780138088568
 30
0.0
 11
4321.3804733475026
 21
1145.5353981272474
 31
0.0
  0
LINE
  5
2F5
100
AcDbEntity
  8
IMPORTED
  6
STYLE_05
 62
              30
100
AcDbLine
 10
4220.9733380986627
 20
972.56518180440389
 30
0.0
 11
4195.8729385496472
 21
929.32513011063543
 31
0.0
  0
LINE
  5
2F6
100
AcDbEntity
  8
IMPORTED
  6
CONTINUOUS
 62
              30
100
AcDbLine
 10
5050.3052116559147
 20
-463.3036251583851
 30
0.0
 11
5250.3083163360725
 21
-463.29244045657538
 31
0.0
  0
LINE
  5
2F7
100
AcDbEntity
  8
IMPORTED
  6
CONTINUOUS
 62
              30
100
AcDbLine
 10
5050.3023507687294
 20
-413.30363690483273
 30
0.0
 11
5250.3054554488881
 21
-413.29245220302312
 31
0.0
  0
LINE
  5
2F8
100
AcDbEntity
  8
IMPORTED
  6
STYLE_05
 62
              30
100
AcDbLine
 10
4321.3803867449424
 20
1145.5353481272805
 30
0.0
 11
4220.4688738567565
 21
972.8599398893457
 31
0.0
  0
LINE
  5
2F9
100
AcDbEntity
  8
IMPORTED
  6
STYLE_05
 62
              30
100
AcDbLine
 10
4364.5494620095124
 20
1120.3074833026085
 30
0.0
 11
4263.6377759162078
 21
947.63197506473944
 31
0.0
  0
LINE
  5
2FA
100
AcDbEntity
  8
IMPORTED
  6
CONTINUOUS
 62
              30
100
AcDbLine
 10
5204.1638813793979
 20
-59.01004977998528
 30
0.0
 11
5008.5343110207095
 21
-100.59244728331115
 31
0.0
  0
LINE
  5
2FB
100
AcDbEntity
  8
IMPORTED
  6
CONTINUOUS
 62
              30
100
AcDbLine
 10
5214.5595774058193
 20
-107.91755977350513
 30
0.0
 11
5018.929957047164
 21
-149.49987067427142
 31
0.0
  0
LINE
  5
2FC
100
AcDbEntity
  8
IMPORTED
  6
STYLE_05
 62
              30
100
AcDbLine
 10
4986.632622135412
 20
485.85218664189506
 30
0.0
 11
4813.4275032151027
 21
385.85225274291281
 31
0.0
  0
LINE
  5
2FD
100
AcDbEntity
  8
IMPORTED
  6
STYLE_05
 62
              30
100
AcDbLine
 10
5011.6325056102232
 20
442.55108011693596
 30
0.0
 11
4838.4274366898808
 21
342.55105961539442
 31
0.0
  0
POLYLINE
  5
2FE
100
AcDbEntity
  8
IMPORTED
  6
CONTINUOUS
 62
              30
100
AcDb2dPolyline
 66
               1
 10
0.0
 20
0.0
 30
0.0
 70
             129
  0
VERTEX
  5
2FF
100
AcDbEntity
  8
IMPORTED
  6
CONTINUOUS
 62
              30
100
AcDbVertex
100
AcDb2dVertex
 10
4486.371013314204
 20
1189.4777662170104
 30
0.0
  0
VERTEX
  5
300
100
AcDbEntity
  8
IMPORTED
  6
CONTINUOUS
 62
              30
100
AcDbVertex
100
AcDb2dVertex
 10
4382.7609529116889
 20
1254.2197373456941
 30
0.0
  0
VERTEX
  5
301
100
AcDbEntity
  8
IMPORTED
  6
CONTINUOUS
 62
              30
100
AcDbVertex
100
AcDb2dVertex
 10
4382.7609529116889
 20
1254.2197373456941
 30
0.0
 42
0.4244770028417131
 70
               2
 50
91.692198116714138
  0
VERTEX
  5
302
100
AcDbEntity
  8
IMPORTED
  6
CONTINUOUS
 62
              30
100
AcDbVertex
100
AcDb2dVertex
 10
4374.3852831217346
 20
1252.1314247853618
 30
0.0
  0
VERTEX
  5
303
100
AcDbEntity
  8
IMPORTED
  6
CONTINUOUS
 62
              30
100
AcDbVertex
100
AcDb2dVertex
 10
4374.3852831217346
 20
1252.1314247853618
 30
0.0
  0
VERTEX
  5
304
100
AcDbEntity
  8
IMPORTED
  6
CONTINUOUS
 62
              30
100
AcDbVertex
100
AcDb2dVertex
 10
4155.3908836071296
 20
872.81708416281481
 30
0.0
  0
VERTEX
  5
305
100
AcDbEntity
  8
IMPORTED
  6
CONTINUOUS
 62
              30
100
AcDbVertex
100
AcDb2dVertex
 10
4155.3908836071296
 20
872.81708416281481
 30
0.0
 42
0.4040243828281714
 70
               2
 50
-33.079602062651716
  0
VERTEX
  5
306
100
AcDbEntity
  8
IMPORTED
  6
CONTINUOUS
 62
              30
100
AcDbVertex
100
AcDb2dVertex
 10
4157.4075139500765
 20
864.72877183267406
 30
0.0
  0
VERTEX
  5
307
100
AcDbEntity
  8
IMPORTED
  6
CONTINUOUS
 62
              30
100
AcDbVertex
100
AcDb2dVertex
 10
4157.4075139500765
 20
864.72877183267406
 30
0.0
  0
VERTEX
  5
308
100
AcDbEntity
  8
IMPORTED
  6
CONTINUOUS
 62
              30
100
AcDbVertex
100
AcDb2dVertex
 10
4235.0914143248037
 20
816.18704772011802
 30
0.0
  0
VERTEX
  5
309
100
AcDbEntity
  8
IMPORTED
  6
CONTINUOUS
 62
              30
100
AcDbVertex
100
AcDb2dVertex
 10
4235.0914143248037
 20
816.18704772011802
 30
0.0
 42
0.404025816906459
 70
               2
 50
91.693198289740948
  0
VERTEX
  5
30A
100
AcDbEntity
  8
IMPORTED
  6
CONTINUOUS
 62
              30
100
AcDbVertex
100
AcDb2dVertex
 10
4243.2451277848977
 20
817.92019977077257
 30
0.0
  0
VERTEX
  5
30B
100
AcDbEntity
  8
IMPORTED
  6
CONTINUOUS
 62
              30
100
AcDbVertex
100
AcDb2dVertex
 10
4243.2451277848977
 20
817.92019977077257
 30
0.0
  0
VERTEX
  5
30C
100
AcDbEntity
  8
IMPORTED
  6
CONTINUOUS
 62
              30
100
AcDbVertex
100
AcDb2dVertex
 10
4488.1657739298489
 20
1181.0343433771588
 30
0.0
  0
VERTEX
  5
30D
100
AcDbEntity
  8
IMPORTED
  6
CONTINUOUS
 62
              30
100
AcDbVertex
100
AcDb2dVertex
 10
4488.1657739298489
 20
1181.0343433771588
 30
0.0
 42
0.4244740781733458
 70
               2
 50
-38.645860951061863
  0
VERTEX
  5
30E
100
AcDbEntity
  8
IMPORTED
  6
CONTINUOUS
 62
              30
100
AcDbVertex
100
AcDb2dVertex
 10
4486.371013314204
 20
1189.4777662170104
 30
0.0
  0
SEQEND
  5
30F
100
AcDbEntity
  8
IMPORTED
  6
CONTINUOUS
 62
              30
  0
POLYLINE
  5
310
100
AcDbEntity
  8
IMPORTED
  6
CONTINUOUS
 62
              30
100
AcDb2dPolyline
 66
               1
 10
0.0
 20
0.0
 30
0.0
 70
             129
  0
VERTEX
  5
311
100
AcDbEntity
  8
IMPORTED
  6
CONTINUOUS
 62
              30
100
AcDbVertex
100
AcDb2dVertex
 10
4500.811979580194
 20
1179.7372669841916
 30
0.0
  0
VERTEX
  5
312
100
AcDbEntity
  8
IMPORTED
  6
CONTINUOUS
 62
              30
100
AcDbVertex
100
AcDb2dVertex
 10
4599.6535855773245
 20
1107.9254983058061
 30
0.0
  0
VERTEX
  5
313
100
AcDbEntity
  8
IMPORTED
  6
CONTINUOUS
 62
              30
100
AcDbVertex
100
AcDb2dVertex
 10
4599.6536252586038
 20
1107.9254694763767
 30
0.0
 42
-0.4244728197102781
 70
               2
 50
78.86281081746607
  0
VERTEX
  5
314
100
AcDbEntity
  8
IMPORTED
  6
CONTINUOUS
 62
              30
100
AcDbVertex
100
AcDb2dVertex
 10
4600.8551030393164
 20
1099.3774446756361
 30
0.0
  0
VERTEX
  5
315
100
AcDbEntity
  8
IMPORTED
  6
CONTINUOUS
 62
              30
100
AcDbVertex
100
AcDb2dVertex
 10
4600.8550891719497
 20
1099.3774269255412
 30
0.0
  0
VERTEX
  5
316
100
AcDbEntity
  8
IMPORTED
  6
CONTINUOUS
 62
              30
100
AcDbVertex
100
AcDb2dVertex
 10
4600.8550891719497
 20
1099.3774269255412
 30
0.0
  0
VERTEX
  5
317
100
AcDbEntity
  8
IMPORTED
  6
CONTINUOUS
 62
              30
100
AcDbVertex
100
AcDb2dVertex
 10
4331.2013971937249
 20
754.23259664518935
 30
0.0
  0
VERTEX
  5
318
100
AcDbEntity
  8
IMPORTED
  6
CONTINUOUS
 62
              30
100
AcDbVertex
100
AcDb2dVertex
 10
4331.2013971937249
 20
754.23259664518935
 30
0.0
 42
-0.4040298675715541
 70
               2
 50
-44.763022927653545
  0
VERTEX
  5
319
100
AcDbEntity
  8
IMPORTED
  6
CONTINUOUS
 62
              30
100
AcDbVertex
100
AcDb2dVertex
 10
4322.9466730076438
 20
753.07240072133288
 30
0.0
  0
VERTEX
  5
31A
100
AcDbEntity
  8
IMPORTED
  6
CONTINUOUS
 62
              30
100
AcDbVertex
100
AcDb2dVertex
 10
4322.9466730076438
 20
753.07240072133288
 30
0.0
  0
VERTEX
  5
31B
100
AcDbEntity
  8
IMPORTED
  6
CONTINUOUS
 62
              30
100
AcDbVertex
100
AcDb2dVertex
 10
4248.838062843819
 20
806.91494267624353
 30
0.0
  0
VERTEX
  5
31C
100
AcDbEntity
  8
IMPORTED
  6
CONTINUOUS
 62
              30
100
AcDbVertex
100
AcDb2dVertex
 10
4248.838062843819
 20
806.91494267624353
 30
0.0
 42
-0.4040264539158543
 70
               2
 50
78.861842169313647
  0
VERTEX
  5
31D
100
AcDbEntity
  8
IMPORTED
  6
CONTINUOUS
 62
              30
100
AcDbVertex
100
AcDb2dVertex
 10
4247.3905044029407
 20
815.12419342160661
 30
0.0
  0
VERTEX
  5
31E
100
AcDbEntity
  8
IMPORTED
  6
CONTINUOUS
 62
              30
100
AcDbVertex
100
AcDb2dVertex
 10
4247.3905044029407
 20
815.12419342160661
 30
0.0
  0
VERTEX
  5
31F
100
AcDbEntity
  8
IMPORTED
  6
CONTINUOUS
 62
              30
100
AcDbVertex
100
AcDb2dVertex
 10
4492.3110639453334
 20
1178.238287028026
 30
0.0
  0
VERTEX
  5
320
100
AcDbEntity
  8
IMPORTED
  6
CONTINUOUS
 62
              30
100
AcDbVertex
100
AcDb2dVertex
 10
4492.3110639453334
 20
1178.238287028026
 30
0.0
 42
-0.4244705653344809
 70
               2
 50
-38.64671926852008
  0
VERTEX
  5
321
100
AcDbEntity
  8
IMPORTED
  6
CONTINUOUS
 62
              30
100
AcDbVertex
100
AcDb2dVertex
 10
4500.811979580194
 20
1179.7372669841916
 30
0.0
  0
SEQEND
  5
322
100
AcDbEntity
  8
IMPORTED
  6
CONTINUOUS
 62
              30
  0
POLYLINE
  5
323
100
AcDbEntity
  8
IMPORTED
  6
CONTINUOUS
 62
              30
100
AcDb2dPolyline
 66
               1
 10
0.0
 20
0.0
 30
0.0
 70
             129
  0
VERTEX
  5
324
100
AcDbEntity
  8
IMPORTED
  6
CONTINUOUS
 62
              30
100
AcDbVertex
100
AcDb2dVertex
 10
4613.3800436544825
 20
1097.2013631809564
 30
0.0
  0
VERTEX
  5
325
100
AcDbEntity
  8
IMPORTED
  6
CONTINUOUS
 62
              30
100
AcDbVertex
100
AcDb2dVertex
 10
4706.9714440270109
 20
1018.6698149563797
 30
0.0
  0
VERTEX
  5
326
100
AcDbEntity
  8
IMPORTED
  6
CONTINUOUS
 62
              30
100
AcDbVertex
100
AcDb2dVertex
 10
4706.9714440270109
 20
1018.6698149563797
 30
0.0
 42
-0.4244777815594694
 70
               2
 50
68.284153236065706
  0
VERTEX
  5
327
100
AcDbEntity
  8
IMPORTED
  6
CONTINUOUS
 62
              30
100
AcDbVertex
100
AcDb2dVertex
 10
4707.5736506128151
 20
1010.0587566312947
 30
0.0
  0
VERTEX
  5
328
100
AcDbEntity
  8
IMPORTED
  6
CONTINUOUS
 62
              30
100
AcDbVertex
100
AcDb2dVertex
 10
4707.5736506128151
 20
1010.0587566312947
 30
0.0
  0
VERTEX
  5
329
100
AcDbEntity
  8
IMPORTED
  6
CONTINUOUS
 62
              30
100
AcDbVertex
100
AcDb2dVertex
 10
4414.5010045120544
 20
684.56476667817856
 30
0.0
  0
VERTEX
  5
32A
100
AcDbEntity
  8
IMPORTED
  6
CONTINUOUS
 62
              30
100
AcDbVertex
100
AcDb2dVertex
 10
4414.5010045120544
 20
684.56476667817856
 30
0.0
 42
-0.404029487527191
 70
               2
 50
-51.588374544342422
  0
VERTEX
  5
32B
100
AcDbEntity
  8
IMPORTED
  6
CONTINUOUS
 62
              30
100
AcDbVertex
100
AcDb2dVertex
 10
4406.1853821573523
 20
683.98324988221498
 30
0.0
  0
VERTEX
  5
32C
100
AcDbEntity
  8
IMPORTED
  6
CONTINUOUS
 62
              30
100
AcDbVertex
100
AcDb2dVertex
 10
4406.1853821573523
 20
683.98324988221498
 30
0.0
  0
VERTEX
  5
32D
100
AcDbEntity
  8
IMPORTED
  6
CONTINUOUS
 62
              30
100
AcDbVertex
100
AcDb2dVertex
 10
4336.0131591124455
 20
742.86397117692991
 30
0.0
  0
VERTEX
  5
32E
100
AcDbEntity
  8
IMPORTED
  6
CONTINUOUS
 62
              30
100
AcDbVertex
100
AcDb2dVertex
 10
4336.0131397654668
 20
742.86398741049709
 30
0.0
 42
-0.4040263276015722
 70
               2
 50
68.284450717974181
  0
VERTEX
  5
32F
100
AcDbEntity
  8
IMPORTED
  6
CONTINUOUS
 62
              30
100
AcDbVertex
100
AcDb2dVertex
 10
4335.1416826516788
 20
751.15421201039351
 30
0.0
  0
VERTEX
  5
330
100
AcDbEntity
  8
IMPORTED
  6
CONTINUOUS
 62
              30
100
AcDbVertex
100
AcDb2dVertex
 10
4335.1416848052777
 20
751.15421476695462
 30
0.0
  0
VERTEX
  5
331
100
AcDbEntity
  8
IMPORTED
  6
CONTINUOUS
 62
              30
100
AcDbVertex
100
AcDb2dVertex
 10
4335.1416848052777
 20
751.15421476695462
 30
0.0
  0
VERTEX
  5
332
100
AcDbEntity
  8
IMPORTED
  6
CONTINUOUS
 62
              30
100
AcDbVertex
100
AcDb2dVertex
 10
4604.7952401809762
 20
1096.2990816498993
 30
0.0
  0
VERTEX
  5
333
100
AcDbEntity
  8
IMPORTED
  6
CONTINUOUS
 62
              30
100
AcDbVertex
100
AcDb2dVertex
 10
4604.7952401809762
 20
1096.2990816498993
 30
0.0
 42
-0.4244774287388699
 70
               2
 50
-44.764148358264947
  0
VERTEX
  5
334
100
AcDbEntity
  8
IMPORTED
  6
CONTINUOUS
 62
              30
100
AcDbVertex
100
AcDb2dVertex
 10
4613.3800436544825
 20
1097.2013631809564
 30
0.0
  0
SEQEND
  5
335
100
AcDbEntity
  8
IMPORTED
  6
CONTINUOUS
 62
              30
  0
POLYLINE
  5
336
100
AcDbEntity
  8
IMPORTED
  6
CONTINUOUS
 62
              30
100
AcDb2dPolyline
 66
               1
 10
0.0
 20
0.0
 30
0.0
 70
             129
  0
VERTEX
  5
337
100
AcDbEntity
  8
IMPORTED
  6
CONTINUOUS
 62
              30
100
AcDbVertex
100
AcDb2dVertex
 10
4807.8016532439706
 20
922.14526737083588
 30
0.0
  0
VERTEX
  5
338
100
AcDbEntity
  8
IMPORTED
  6
CONTINUOUS
 62
              30
100
AcDbVertex
100
AcDb2dVertex
 10
4719.9162811223523
 20
1007.0142867669297
 30
0.0
  0
VERTEX
  5
339
100
AcDbEntity
  8
IMPORTED
  6
CONTINUOUS
 62
              30
100
AcDbVertex
100
AcDb2dVertex
 10
4719.9162811223523
 20
1007.0142867669297
 30
0.0
 42
0.4244723162700962
 70
               2
 50
59.333550422756367
  0
VERTEX
  5
33A
100
AcDbEntity
  8
IMPORTED
  6
CONTINUOUS
 62
              30
100
AcDbVertex
100
AcDb2dVertex
 10
4711.2894951873168
 20
1006.7129214055037
 30
0.0
  0
VERTEX
  5
33B
100
AcDbEntity
  8
IMPORTED
  6
CONTINUOUS
 62
              30
100
AcDbVertex
100
AcDb2dVertex
 10
4711.2894951873168
 20
1006.7129214055037
 30
0.0
  0
VERTEX
  5
33C
100
AcDbEntity
  8
IMPORTED
  6
CONTINUOUS
 62
              30
100
AcDbVertex
100
AcDb2dVertex
 10
4418.2167624839967
 20
681.21888145242065
 30
0.0
  0
VERTEX
  5
33D
100
AcDbEntity
  8
IMPORTED
  6
CONTINUOUS
 62
              30
100
AcDbVertex
100
AcDb2dVertex
 10
4418.2167624839967
 20
681.21888145242065
 30
0.0
 42
0.4040287669068264
 70
               2
 50
-51.588880074446301
  0
VERTEX
  5
33E
100
AcDbEntity
  8
IMPORTED
  6
CONTINUOUS
 62
              30
100
AcDbVertex
100
AcDb2dVertex
 10
4418.5077554894988
 20
672.88806116443277
 30
0.0
  0
VERTEX
  5
33F
100
AcDbEntity
  8
IMPORTED
  6
CONTINUOUS
 62
              30
100
AcDbVertex
100
AcDb2dVertex
 10
4418.5077554894988
 20
672.88806116443277
 30
0.0
  0
VERTEX
  5
340
100
AcDbEntity
  8
IMPORTED
  6
CONTINUOUS
 62
              30
100
AcDbVertex
100
AcDb2dVertex
 10
4484.4017994457081
 20
609.25576190708045
 30
0.0
  0
VERTEX
  5
341
100
AcDbEntity
  8
IMPORTED
  6
CONTINUOUS
 62
              30
100
AcDbVertex
100
AcDb2dVertex
 10
4484.4017994457081
 20
609.25576190708045
 30
0.0
 42
0.4040278339196675
 70
               2
 50
59.331751433782912
  0
VERTEX
  5
342
100
AcDbEntity
  8
IMPORTED
  6
CONTINUOUS
 62
              30
100
AcDbVertex
100
AcDb2dVertex
 10
4492.7376734381842
 20
609.25580144539128
 30
0.0
  0
VERTEX
  5
343
100
AcDbEntity
  8
IMPORTED
  6
CONTINUOUS
 62
              30
100
AcDbVertex
100
AcDb2dVertex
 10
4492.7376734381842
 20
609.25580144539128
 30
0.0
  0
VERTEX
  5
344
100
AcDbEntity
  8
IMPORTED
  6
CONTINUOUS
 62
              30
100
AcDbVertex
100
AcDb2dVertex
 10
4807.8016843069463
 20
913.51320786229235
 30
0.0
  0
VERTEX
  5
345
100
AcDbEntity
  8
IMPORTED
  6
CONTINUOUS
 62
              30
100
AcDbVertex
100
AcDb2dVertex
 10
4807.8016843069463
 20
913.51320786229235
 30
0.0
 42
0.424477054108065
 70
               2
 50
-59.331539562185398
  0
VERTEX
  5
346
100
AcDbEntity
  8
IMPORTED
  6
CONTINUOUS
 62
              30
100
AcDbVertex
100
AcDb2dVertex
 10
4807.8016532439706
 20
922.14526737083588
 30
0.0
  0
SEQEND
  5
347
100
AcDbEntity
  8
IMPORTED
  6
CONTINUOUS
 62
              30
  0
POLYLINE
  5
348
100
AcDbEntity
  8
IMPORTED
  6
CONTINUOUS
 62
              30
100
AcDb2dPolyline
 66
               1
 10
0.0
 20
0.0
 30
0.0
 70
             129
  0
VERTEX
  5
349
100
AcDbEntity
  8
IMPORTED
  6
CONTINUOUS
 62
              30
100
AcDbVertex
100
AcDb2dVertex
 10
4901.6531551836752
 20
818.82259353033055
 30
0.0
  0
VERTEX
  5
34A
100
AcDbEntity
  8
IMPORTED
  6
CONTINUOUS
 62
              30
100
AcDbVertex
100
AcDb2dVertex
 10
4819.9020393213013
 20
909.61537099338921
 30
0.0
  0
VERTEX
  5
34B
100
AcDbEntity
  8
IMPORTED
  6
CONTINUOUS
 62
              30
100
AcDbVertex
100
AcDb2dVertex
 10
4819.9020248379211
 20
909.61538707827049
 30
0.0
 42
0.4244744277927515
 70
               2
 50
51.591088272155119
  0
VERTEX
  5
34C
100
AcDbEntity
  8
IMPORTED
  6
CONTINUOUS
 62
              30
100
AcDbVertex
100
AcDb2dVertex
 10
4811.2752063025537
 20
909.91650332239249
 30
0.0
  0
VERTEX
  5
34D
100
AcDbEntity
  8
IMPORTED
  6
CONTINUOUS
 62
              30
100
AcDbVertex
100
AcDb2dVertex
 10
4811.2752004678168
 20
909.9164976876782
 30
0.0
  0
VERTEX
  5
34E
100
AcDbEntity
  8
IMPORTED
  6
CONTINUOUS
 62
              30
100
AcDbVertex
100
AcDb2dVertex
 10
4811.2752004678168
 20
909.9164976876782
 30
0.0
  0
VERTEX
  5
34F
100
AcDbEntity
  8
IMPORTED
  6
CONTINUOUS
 62
              30
100
AcDbVertex
100
AcDb2dVertex
 10
4496.2111895990547
 20
605.65909127077725
 30
0.0
  0
VERTEX
  5
350
100
AcDbEntity
  8
IMPORTED
  6
CONTINUOUS
 62
              30
100
AcDbVertex
100
AcDb2dVertex
 10
4496.2111895990547
 20
605.65909127077725
 30
0.0
 42
0.4040301438744454
 70
               2
 50
-59.332495679424945
  0
VERTEX
  5
351
100
AcDbEntity
  8
IMPORTED
  6
CONTINUOUS
 62
              30
100
AcDbVertex
100
AcDb2dVertex
 10
4495.920255801022
 20
597.32819799483354
 30
0.0
  0
VERTEX
  5
352
100
AcDbEntity
  8
IMPORTED
  6
CONTINUOUS
 62
              30
100
AcDbVertex
100
AcDb2dVertex
 10
4495.920255801022
 20
597.32819799483354
 30
0.0
  0
VERTEX
  5
353
100
AcDbEntity
  8
IMPORTED
  6
CONTINUOUS
 62
              30
100
AcDbVertex
100
AcDb2dVertex
 10
4557.2149630596577
 20
529.2543823981722
 30
0.0
  0
VERTEX
  5
354
100
AcDbEntity
  8
IMPORTED
  6
CONTINUOUS
 62
              30
100
AcDbVertex
100
AcDb2dVertex
 10
4557.2149630596577
 20
529.2543823981722
 30
0.0
 42
0.4040281278854686
 70
               2
 50
51.589937031975083
  0
VERTEX
  5
355
100
AcDbEntity
  8
IMPORTED
  6
CONTINUOUS
 62
              30
100
AcDbVertex
100
AcDb2dVertex
 10
4565.5305411982463
 20
528.67297501000132
 30
0.0
  0
VERTEX
  5
356
100
AcDbEntity
  8
IMPORTED
  6
CONTINUOUS
 62
              30
100
AcDbVertex
100
AcDb2dVertex
 10
4565.5305411982463
 20
528.67297501000132
 30
0.0
  0
VERTEX
  5
357
100
AcDbEntity
  8
IMPORTED
  6
CONTINUOUS
 62
              30
100
AcDbVertex
100
AcDb2dVertex
 10
4901.0509972733398
 20
810.21155616303145
 30
0.0
  0
VERTEX
  5
358
100
AcDbEntity
  8
IMPORTED
  6
CONTINUOUS
 62
              30
100
AcDbVertex
100
AcDb2dVertex
 10
4901.0509972733398
 20
810.21155616303145
 30
0.0
 42
0.424474874369403
 70
               2
 50
-68.282713455782442
  0
VERTEX
  5
359
100
AcDbEntity
  8
IMPORTED
  6
CONTINUOUS
 62
              30
100
AcDbVertex
100
AcDb2dVertex
 10
4901.6531551836752
 20
818.82259353033055
 30
0.0
  0
SEQEND
  5
35A
100
AcDbEntity
  8
IMPORTED
  6
CONTINUOUS
 62
              30
  0
POLYLINE
  5
35B
100
AcDbEntity
  8
IMPORTED
  6
CONTINUOUS
 62
              30
100
AcDb2dPolyline
 66
               1
 10
0.0
 20
0.0
 30
0.0
 70
             129
  0
VERTEX
  5
35C
100
AcDbEntity
  8
IMPORTED
  6
CONTINUOUS
 62
              30
100
AcDbVertex
100
AcDb2dVertex
 10
4988.068586162075
 20
709.20457108006235
 30
0.0
  0
VERTEX
  5
35D
100
AcDbEntity
  8
IMPORTED
  6
CONTINUOUS
 62
              30
100
AcDbVertex
100
AcDb2dVertex
 10
4912.8498537326423
 20
805.47892967314533
 30
0.0
  0
VERTEX
  5
35E
100
AcDbEntity
  8
IMPORTED
  6
CONTINUOUS
 62
              30
100
AcDbVertex
100
AcDb2dVertex
 10
4912.8498537326423
 20
805.47892967314533
 30
0.0
 42
0.4244758811984844
 70
               2
 50
44.764251518708036
  0
VERTEX
  5
35F
100
AcDbEntity
  8
IMPORTED
  6
CONTINUOUS
 62
              30
100
AcDbVertex
100
AcDb2dVertex
 10
4904.2650656696587
 20
806.38122264311687
 30
0.0
  0
VERTEX
  5
360
100
AcDbEntity
  8
IMPORTED
  6
CONTINUOUS
 62
              30
100
AcDbVertex
100
AcDb2dVertex
 10
4904.2650656696587
 20
806.38122264311687
 30
0.0
  0
VERTEX
  5
361
100
AcDbEntity
  8
IMPORTED
  6
CONTINUOUS
 62
              30
100
AcDbVertex
100
AcDb2dVertex
 10
4568.7445729919727
 20
524.84250488756038
 30
0.0
  0
VERTEX
  5
362
100
AcDbEntity
  8
IMPORTED
  6
CONTINUOUS
 62
              30
100
AcDbVertex
100
AcDb2dVertex
 10
4568.7445387368734
 20
524.84247614353956
 30
0.0
 42
0.4040241667759248
 70
               2
 50
-68.281075339079564
  0
VERTEX
  5
363
100
AcDbEntity
  8
IMPORTED
  6
CONTINUOUS
 62
              30
100
AcDbVertex
100
AcDb2dVertex
 10
4567.8732559651135
 20
516.55226546544054
 30
0.0
  0
VERTEX
  5
364
100
AcDbEntity
  8
IMPORTED
  6
CONTINUOUS
 62
              30
100
AcDbVertex
100
AcDb2dVertex
 10
4567.8732551572102
 20
516.55226649950282
 30
0.0
  0
VERTEX
  5
365
100
AcDbEntity
  8
IMPORTED
  6
CONTINUOUS
 62
              30
100
AcDbVertex
100
AcDb2dVertex
 10
4567.8732551572102
 20
516.55226649950282
 30
0.0
  0
VERTEX
  5
366
100
AcDbEntity
  8
IMPORTED
  6
CONTINUOUS
 62
              30
100
AcDbVertex
100
AcDb2dVertex
 10
4624.2701452898855
 20
444.36851816365413
 30
0.0
  0
VERTEX
  5
367
100
AcDbEntity
  8
IMPORTED
  6
CONTINUOUS
 62
              30
100
AcDbVertex
100
AcDb2dVertex
 10
4624.2701452898855
 20
444.36851816365413
 30
0.0
 42
0.4040262449568981
 70
               2
 50
44.764409452174149
  0
VERTEX
  5
368
100
AcDbEntity
  8
IMPORTED
  6
CONTINUOUS
 62
              30
100
AcDbVertex
100
AcDb2dVertex
 10
4632.5249425195198
 20
443.20838603857771
 30
0.0
  0
VERTEX
  5
369
100
AcDbEntity
  8
IMPORTED
  6
CONTINUOUS
 62
              30
100
AcDbVertex
100
AcDb2dVertex
 10
4632.5249425195198
 20
443.20838603857771
 30
0.0
  0
VERTEX
  5
36A
100
AcDbEntity
  8
IMPORTED
  6
CONTINUOUS
 62
              30
100
AcDbVertex
100
AcDb2dVertex
 10
4986.8672774939623
 20
700.6564935368998
 30
0.0
  0
VERTEX
  5
36B
100
AcDbEntity
  8
IMPORTED
  6
CONTINUOUS
 62
              30
100
AcDbVertex
100
AcDb2dVertex
 10
4986.867289883945
 20
700.6565025388943
 30
0.0
 42
0.4244721719878462
 70
               2
 50
-78.859599931437344
  0
VERTEX
  5
36C
100
AcDbEntity
  8
IMPORTED
  6
CONTINUOUS
 62
              30
100
AcDbVertex
100
AcDb2dVertex
 10
4988.0686102720347
 20
709.20454022063996
 30
0.0
  0
VERTEX
  5
36D
100
AcDbEntity
  8
IMPORTED
  6
CONTINUOUS
 62
              30
100
AcDbVertex
100
AcDb2dVertex
 10
4988.068586162075
 20
709.20457108006235
 30
0.0
  0
SEQEND
  5
36E
100
AcDbEntity
  8
IMPORTED
  6
CONTINUOUS
 62
              30
  0
LINE
  5
36F
100
AcDbEntity
  8
IMPORTED
  6
CONTINUOUS
 62
              30
100
AcDbLine
 10
4896.7377348460413
 20
665.51545183398002
 30
0.0
 11
4898.5947146087201
 21
663.13906625689026
 31
0.0
  0
LINE
  5
370
100
AcDbEntity
  8
IMPORTED
  6
CONTINUOUS
 62
              30
100
AcDbLine
 10
4892.867281495196
 20
670.46827843693472
 30
0.0
 11
4895.3301430448846
 21
667.31667407771238
 31
0.0
  0
LINE
  5
371
100
AcDbEntity
  8
IMPORTED
  6
CONTINUOUS
 62
              30
100
AcDbLine
 10
4889.6026233288012
 20
674.64583625778994
 30
0.0
 11
4891.4596896940393
 21
672.26950068066708
 31
0.0
  0
LINE
  5
372
100
AcDbEntity
  8
IMPORTED
  6
CONTINUOUS
 62
              30
100
AcDbLine
 10
4890.721569545467
 20
666.25355858517833
 30
0.0
 11
4888.3452473657189
 21
664.39626901485394
 31
0.0
  0
LINE
  5
373
100
AcDbEntity
  8
IMPORTED
  6
CONTINUOUS
 62
              30
100
AcDbLine
 10
4895.6743595458292
 20
670.12387533349693
 30
0.0
 11
4892.522978391693
 21
667.66102718118327
 31
0.0
  0
LINE
  5
374
100
AcDbEntity
  8
IMPORTED
  6
CONTINUOUS
 62
              30
100
AcDbLine
 10
4899.852003969243
 20
673.38858349985924
 30
0.0
 11
4897.4757183920874
 21
671.53143053206122
 31
0.0
  0
CIRCLE
  5
375
100
AcDbEntity
  8
IMPORTED
  6
CONTINUOUS
 62
              30
100
AcDbCircle
 10
4894.0986689687606
 20
668.8924512573401
 30
0.0
 40
3.9997586177168141
  0
LINE
  5
376
100
AcDbEntity
  8
IMPORTED
  6
CONTINUOUS
 62
              30
100
AcDbLine
 10
4853.6411534008193
 20
720.67597343843363
 30
0.0
 11
4855.4981331634981
 21
718.29958786134398
 31
0.0
  0
LINE
  5
377
100
AcDbEntity
  8
IMPORTED
  6
CONTINUOUS
 62
              30
100
AcDbLine
 10
4849.770700049974
 20
725.62880004138844
 30
0.0
 11
4852.2335615996626
 21
722.47719568216598
 31
0.0
  0
LINE
  5
378
100
AcDbEntity
  8
IMPORTED
  6
CONTINUOUS
 62
              30
100
AcDbLine
 10
4846.5060418835792
 20
729.80635786224377
 30
0.0
 11
4848.3631082488173
 21
727.4300222851208
 31
0.0
  0
LINE
  5
379
100
AcDbEntity
  8
IMPORTED
  6
CONTINUOUS
 62
              30
100
AcDbLine
 10
4847.624988100245
 20
721.41408018963216
 30
0.0
 11
4845.248665920496
 21
719.55679061930778
 31
0.0
  0
LINE
  5
37A
100
AcDbEntity
  8
IMPORTED
  6
CONTINUOUS
 62
              30
100
AcDbLine
 10
4852.5777781006072
 20
725.28439693795065
 30
0.0
 11
4849.42639694647
 21
722.82154878563688
 31
0.0
  0
LINE
  5
37B
100
AcDbEntity
  8
IMPORTED
  6
CONTINUOUS
 62
              30
100
AcDbLine
 10
4856.755422524021
 20
728.54910510431284
 30
0.0
 11
4854.3791369468654
 21
726.69195213651494
 31
0.0
  0
CIRCLE
  5
37C
100
AcDbEntity
  8
IMPORTED
  6
CONTINUOUS
 62
              30
100
AcDbCircle
 10
4851.0020875235386
 20
724.05297286179393
 30
0.0
 40
3.9997586177169553
  0
LINE
  5
37D
100
AcDbEntity
  8
IMPORTED
  6
CONTINUOUS
 62
              30
100
AcDbLine
 10
4807.9345812270421
 20
775.17093214814645
 30
0.0
 11
4805.9235149877559
 21
777.41840330506989
 31
0.0
  0
LINE
  5
37E
100
AcDbEntity
  8
IMPORTED
  6
CONTINUOUS
 62
              30
100
AcDbLine
 10
4812.1263067620484
 20
770.48684585419619
 30
0.0
 11
4809.4590634786073
 21
773.46744972538363
 31
0.0
  0
LINE
  5
37F
100
AcDbEntity
  8
IMPORTED
  6
CONTINUOUS
 62
              30
100
AcDbLine
 10
4815.661732047748
 20
766.53570567201666
 30
0.0
 11
4813.6507024110551
 21
768.78331343146647
 31
0.0
  0
LINE
  5
380
100
AcDbEntity
  8
IMPORTED
  6
CONTINUOUS
 62
              30
100
AcDbLine
 10
4807.5988824606757
 20
769.1189755952405
 30
0.0
 11
4805.3512380986331
 21
767.10780935602031
 31
0.0
  0
LINE
  5
381
100
AcDbEntity
  8
IMPORTED
  6
CONTINUOUS
 62
              30
100
AcDbLine
 10
4812.282932152033
 20
773.310564527721
 30
0.0
 11
4809.3023148834709
 21
770.64354444936589
 31
0.0
  0
LINE
  5
382
100
AcDbEntity
  8
IMPORTED
  6
CONTINUOUS
 62
              30
100
AcDbLine
 10
4816.2339723342784
 20
776.84616301853976
 30
0.0
 11
4813.9863645748283
 21
774.83513338184616
 31
0.0
  0
CIRCLE
  5
383
100
AcDbEntity
  8
IMPORTED
  6
CONTINUOUS
 62
              30
100
AcDbCircle
 10
4810.792623517752
 20
771.97705448854322
 30
0.0
 40
3.9997850404738537
  0
LINE
  5
384
100
AcDbEntity
  8
IMPORTED
  6
CONTINUOUS
 62
              30
100
AcDbLine
 10
4761.0950575453153
 20
827.19081922846397
 30
0.0
 11
4759.083991306029
 21
829.4382903853874
 31
0.0
  0
LINE
  5
385
100
AcDbEntity
  8
IMPORTED
  6
CONTINUOUS
 62
              30
100
AcDbLine
 10
4765.2867830803225
 20
822.50673293451371
 30
0.0
 11
4762.6195397968813
 21
825.48733680570137
 31
0.0
  0
LINE
  5
386
100
AcDbEntity
  8
IMPORTED
  6
CONTINUOUS
 62
              30
100
AcDbLine
 10
4768.8222083660221
 20
818.55559275233418
 30
0.0
 11
4766.8111787293283
 21
820.80320051178421
 31
0.0
  0
LINE
  5
387
100
AcDbEntity
  8
IMPORTED
  6
CONTINUOUS
 62
              30
100
AcDbLine
 10
4760.7593587789488
 20
821.13886267555824
 30
0.0
 11
4758.5117144169071
 21
819.12769643633783
 31
0.0
  0
LINE
  5
388
100
AcDbEntity
  8
IMPORTED
  6
CONTINUOUS
 62
              30
100
AcDbLine
 10
4765.4434084703071
 20
825.33045160803852
 30
0.0
 11
4762.4627912017449
 21
822.66343152968318
 31
0.0
  0
LINE
  5
389
100
AcDbEntity
  8
IMPORTED
  6
CONTINUOUS
 62
              30
100
AcDbLine
 10
4769.3944486525525
 20
828.8660500988575
 30
0.0
 11
4767.1468408931023
 21
826.85502046216368
 31
0.0
  0
CIRCLE
  5
38A
100
AcDbEntity
  8
IMPORTED
  6
CONTINUOUS
 62
              30
100
AcDbCircle
 10
4763.953099836026
 20
823.99694156886096
 30
0.0
 40
3.9997850404741064
  0
LINE
  5
38B
100
AcDbEntity
  8
IMPORTED
  6
CONTINUOUS
 62
              30
100
AcDbLine
 10
4717.2749631742217
 20
872.12409549626364
 30
0.0
 11
4715.1056968633084
 21
874.21937717478227
 31
0.0
  0
LINE
  5
38C
100
AcDbEntity
  8
IMPORTED
  6
CONTINUOUS
 62
              30
100
AcDbLine
 10
4721.7962041095871
 20
867.75727187097527
 30
0.0
 11
4718.9191219700424
 21
870.53612724906043
 31
0.0
  0
LINE
  5
38D
100
AcDbEntity
  8
IMPORTED
  6
CONTINUOUS
 62
              30
100
AcDbLine
 10
4725.6095060111693
 20
864.07383534276005
 30
0.0
 11
4723.4403763027822
 21
866.16908041868624
 31
0.0
  0
LINE
  5
38E
100
AcDbEntity
  8
IMPORTED
  6
CONTINUOUS
 62
              30
100
AcDbLine
 10
4717.3802121996805
 20
866.06379479063526
 30
0.0
 11
4715.2846573161087
 21
863.89460168490677
 31
0.0
  0
LINE
  5
38F
100
AcDbEntity
  8
IMPORTED
  6
CONTINUOUS
 62
              30
100
AcDbLine
 10
4721.7470858249353
 20
870.58494912344122
 30
0.0
 11
4718.9681170495423
 21
867.70826339410132
 31
0.0
  0
LINE
  5
390
100
AcDbEntity
  8
IMPORTED
  6
CONTINUOUS
 62
              30
100
AcDbLine
 10
4725.4305089557756
 20
874.39847423010929
 30
0.0
 11
4723.3351272773234
 21
872.22938112431461
 31
0.0
  0
CIRCLE
  5
391
100
AcDbEntity
  8
IMPORTED
  6
CONTINUOUS
 62
              30
100
AcDbCircle
 10
4720.3576014372393
 20
869.14660625877127
 30
0.0
 40
3.9997934671679531
  0
LINE
  5
392
100
AcDbEntity
  8
IMPORTED
  6
CONTINUOUS
 62
              30
100
AcDbLine
 10
4666.920834962918
 20
920.7498552880611
 30
0.0
 11
4664.7515686520046
 21
922.8451369665795
 31
0.0
  0
LINE
  5
393
100
AcDbEntity
  8
IMPORTED
  6
CONTINUOUS
 62
              30
100
AcDbLine
 10
4671.4420758982833
 20
916.38303166277251
 30
0.0
 11
4668.5649937587386
 21
919.16188704085766
 31
0.0
  0
LINE
  5
394
100
AcDbEntity
  8
IMPORTED
  6
CONTINUOUS
 62
              30
100
AcDbLine
 10
4675.2553777998655
 20
912.69959513455751
 30
0.0
 11
4673.0862480914784
 21
914.79484021048347
 31
0.0
  0
LINE
  5
395
100
AcDbEntity
  8
IMPORTED
  6
CONTINUOUS
 62
              30
100
AcDbLine
 10
4667.0260839883767
 20
914.68955458243249
 30
0.0
 11
4664.9305291048058
 21
912.52036147670401
 31
0.0
  0
LINE
  5
396
100
AcDbEntity
  8
IMPORTED
  6
CONTINUOUS
 62
              30
100
AcDbLine
 10
4671.3929576136316
 20
919.21070891523823
 30
0.0
 11
4668.6139888382386
 21
916.33402318589833
 31
0.0
  0
LINE
  5
397
100
AcDbEntity
  8
IMPORTED
  6
CONTINUOUS
 62
              30
100
AcDbLine
 10
4675.0763807444728
 20
923.02423402190652
 30
0.0
 11
4672.9809990660206
 21
920.85514091611185
 31
0.0
  0
CIRCLE
  5
398
100
AcDbEntity
  8
IMPORTED
  6
CONTINUOUS
 62
              30
100
AcDbCircle
 10
4670.0034732259355
 20
917.77236605056851
 30
0.0
 40
3.9997934671681521
  0
LINE
  5
399
100
AcDbEntity
  8
IMPORTED
  6
CONTINUOUS
 62
              30
100
AcDbLine
 10
4626.6501933536119
 20
957.02129195322163
 30
0.0
 11
4628.9664822414898
 21
955.08975975367275
 31
0.0
  0
LINE
  5
39A
100
AcDbEntity
  8
IMPORTED
  6
CONTINUOUS
 62
              30
100
AcDbLine
 10
4621.8226518144957
 20
961.04684367790605
 30
0.0
 11
4624.8946194839591
 21
958.4852367295689
 31
0.0
  0
LINE
  5
39B
100
AcDbEntity
  8
IMPORTED
  6
CONTINUOUS
 62
              30
100
AcDbLine
 10
4617.7506158518472
 20
964.44222065386839
 30
0.0
 11
4620.0668547397581
 21
962.51077505687886
 31
0.0
  0
LINE
  5
39C
100
AcDbEntity
  8
IMPORTED
  6
CONTINUOUS
 62
              30
100
AcDbLine
 10
4620.6137141935924
 20
956.47438249941933
 30
0.0
 11
4618.682281993978
 21
954.15792040642282
 31
0.0
  0
LINE
  5
39D
100
AcDbEntity
  8
IMPORTED
  6
CONTINUOUS
 62
              30
100
AcDbLine
 10
4624.6392159183106
 20
961.30201064109497
 30
0.0
 11
4622.0778821750264
 21
958.22996976644617
 31
0.0
  0
LINE
  5
39E
100
AcDbEntity
  8
IMPORTED
  6
CONTINUOUS
 62
              30
100
AcDbLine
 10
4628.0347294967987
 20
965.37401000115142
 30
0.0
 11
4626.1033338997768
 21
963.05768451068116
 31
0.0
  0
CIRCLE
  5
39F
100
AcDbEntity
  8
IMPORTED
  6
CONTINUOUS
 62
              30
100
AcDbCircle
 10
4623.3585490466685
 20
959.76599020377057
 30
0.0
 40
3.999815128227552
  0
LINE
  5
3A0
100
AcDbEntity
  8
IMPORTED
  6
CONTINUOUS
 62
              30
100
AcDbLine
 10
4573.0267669102832
 20
1002.016041235521
 30
0.0
 11
4575.343055798161
 21
1000.0845090359721
 31
0.0
  0
LINE
  5
3A1
100
AcDbEntity
  8
IMPORTED
  6
CONTINUOUS
 62
              30
100
AcDbLine
 10
4568.1992253711669
 20
1006.0415929602054
 30
0.0
 11
4571.2711930406313
 21
1003.4799860118685
 31
0.0
  0
LINE
  5
3A2
100
AcDbEntity
  8
IMPORTED
  6
CONTINUOUS
 62
              30
100
AcDbLine
 10
4564.1271894085185
 20
1009.4369699361678
 30
0.0
 11
4566.4434282964285
 21
1007.5055243391782
 31
0.0
  0
LINE
  5
3A3
100
AcDbEntity
  8
IMPORTED
  6
CONTINUOUS
 62
              30
100
AcDbLine
 10
4566.9902877502645
 20
1001.4691317817189
 30
0.0
 11
4565.0588555506492
 21
999.1526696887222
 31
0.0
  0
LINE
  5
3A4
100
AcDbEntity
  8
IMPORTED
  6
CONTINUOUS
 62
              30
100
AcDbLine
 10
4571.0157894749818
 20
1006.2967599233943
 30
0.0
 11
4568.4544557316976
 21
1003.2247190487453
 31
0.0
  0
LINE
  5
3A5
100
AcDbEntity
  8
IMPORTED
  6
CONTINUOUS
 62
              30
100
AcDbLine
 10
4574.41130305347
 20
1010.3687592834506
 30
0.0
 11
4572.479907456448
 21
1008.0524337929805
 31
0.0
  0
CIRCLE
  5
3A6
100
AcDbEntity
  8
IMPORTED
  6
CONTINUOUS
 62
              30
100
AcDbCircle
 10
4569.7351226033397
 20
1004.76073948607
 30
0.0
 40
3.9998151282279237
  0
LINE
  5
3A7
100
AcDbEntity
  8
IMPORTED
  6
CONTINUOUS
 62
              30
100
AcDbLine
 10
4516.969462377273
 20
1045.7921911519234
 30
0.0
 11
4514.5296328961349
 21
1047.5651018780936
 31
0.0
  0
LINE
  5
3A8
100
AcDbEntity
  8
IMPORTED
  6
CONTINUOUS
 62
              30
100
AcDbLine
 10
4522.0543585017085
 20
1042.0970883301202
 30
0.0
 11
4518.8185824772609
 21
1044.4484195955126
 31
0.0
  0
LINE
  5
3A9
100
AcDbEntity
  8
IMPORTED
  6
CONTINUOUS
 62
              30
100
AcDbLine
 10
4526.3432348776496
 20
1038.980132842486
 30
0.0
 11
4523.9035786016302
 21
1040.7531435685903
 31
0.0
  0
LINE
  5
3AA
100
AcDbEntity
  8
IMPORTED
  6
CONTINUOUS
 62
              30
100
AcDbLine
 10
4517.9170100951596
 20
1039.805386042992
 30
0.0
 11
4516.1437761639691
 21
1037.3657163695984
 31
0.0
  0
LINE
  5
3AB
100
AcDbEntity
  8
IMPORTED
  6
CONTINUOUS
 62
              30
100
AcDbLine
 10
4521.6121995195226
 20
1044.8903321673945
 30
0.0
 11
4519.2606682542619
 21
1041.6549025531851
 31
0.0
  0
LINE
  5
3AC
100
AcDbEntity
  8
IMPORTED
  6
CONTINUOUS
 62
              30
100
AcDbLine
 10
4524.7290550072221
 20
1049.1793817484549
 30
0.0
 11
4522.9559076785918
 21
1046.7397620750282
 31
0.0
  0
CIRCLE
  5
3AD
100
AcDbEntity
  8
IMPORTED
  6
CONTINUOUS
 62
              30
100
AcDbCircle
 10
4520.4364338868918
 20
1043.27261736029
 30
0.0
 40
3.9997872355915254
  0
LINE
  5
3AE
100
AcDbEntity
  8
IMPORTED
  6
CONTINUOUS
 62
              30
100
AcDbLine
 10
4460.3380893854755
 20
1086.9368552856117
 30
0.0
 11
4457.8982599043375
 21
1088.709766011782
 31
0.0
  0
LINE
  5
3AF
100
AcDbEntity
  8
IMPORTED
  6
CONTINUOUS
 62
              30
100
AcDbLine
 10
4465.422985509912
 20
1083.2417524638083
 30
0.0
 11
4462.1872094854643
 21
1085.5930837292008
 31
0.0
  0
LINE
  5
3B0
100
AcDbEntity
  8
IMPORTED
  6
CONTINUOUS
 62
              30
100
AcDbLine
 10
4469.7118618858531
 20
1080.1247969761744
 30
0.0
 11
4467.2722056098337
 21
1081.8978077022784
 31
0.0
  0
LINE
  5
3B1
100
AcDbEntity
  8
IMPORTED
  6
CONTINUOUS
 62
              30
100
AcDbLine
 10
4461.2856371033631
 20
1080.9500501766802
 30
0.0
 11
4459.5124031721725
 21
1078.5103805032866
 31
0.0
  0
LINE
  5
3B2
100
AcDbEntity
  8
IMPORTED
  6
CONTINUOUS
 62
              30
100
AcDbLine
 10
4464.9808265277261
 20
1086.0349963010829
 30
0.0
 11
4462.6292952624653
 21
1082.7995666868735
 31
0.0
  0
LINE
  5
3B3
100
AcDbEntity
  8
IMPORTED
  6
CONTINUOUS
 62
              30
100
AcDbLine
 10
4468.0976820154256
 20
1090.3240458821433
 30
0.0
 11
4466.3245346867952
 21
1087.8844262087164
 31
0.0
  0
CIRCLE
  5
3B4
100
AcDbEntity
  8
IMPORTED
  6
CONTINUOUS
 62
              30
100
AcDbCircle
 10
4463.8050608950953
 20
1084.4172814939782
 30
0.0
 40
3.9997872355913131
  0
LINE
  5
3B5
100
AcDbEntity
  8
IMPORTED
  6
CONTINUOUS
 62
              30
100
AcDbLine
 10
4408.3149890849527
 20
1121.6847509958795
 30
0.0
 11
4405.7622357369883
 21
1123.2908515296122
 31
0.0
  0
LINE
  5
3B6
100
AcDbEntity
  8
IMPORTED
  6
CONTINUOUS
 62
              30
100
AcDbLine
 10
4413.6353197396757
 20
1118.3374637458207
 30
0.0
 11
4410.2497877262758
 21
1120.4675799037436
 31
0.0
  0
LINE
  5
3B7
100
AcDbEntity
  8
IMPORTED
  6
CONTINUOUS
 62
              30
100
AcDbLine
 10
4418.1228351263717
 20
1115.5140555174255
 30
0.0
 11
4415.5703049834929
 21
1117.1201694485328
 31
0.0
  0
LINE
  5
3B8
100
AcDbEntity
  8
IMPORTED
  6
CONTINUOUS
 62
              30
100
AcDbLine
 10
4409.6603379592534
 20
1115.7747339716725
 30
0.0
 11
4408.0541008229939
 21
1113.2220172263005
 31
0.0
  0
LINE
  5
3B9
100
AcDbEntity
  8
IMPORTED
  6
CONTINUOUS
 62
              30
100
AcDbLine
 10
4413.0075752093453
 20
1121.0951512289557
 30
0.0
 11
4410.8774956540146
 21
1117.7097558180822
 31
0.0
  0
LINE
  5
3BA
100
AcDbEntity
  8
IMPORTED
  6
CONTINUOUS
 62
              30
100
AcDbLine
 10
4415.8309334377736
 20
1125.5827532182109
 30
0.0
 11
4414.2248195066659
 21
1123.0302230753323
 31
0.0
  0
CIRCLE
  5
3BB
100
AcDbEntity
  8
IMPORTED
  6
CONTINUOUS
 62
              30
100
AcDbCircle
 10
4411.94253543168
 20
1119.4024535235187
 30
0.0
 40
3.9998086366722267
  0
LINE
  5
3BC
100
AcDbEntity
  8
IMPORTED
  6
CONTINUOUS
 62
              30
100
AcDbLine
 10
4348.9514139865541
 20
1158.7787263599039
 30
0.0
 11
4346.3986606385897
 21
1160.3848268936363
 31
0.0
  0
LINE
  5
3BD
100
AcDbEntity
  8
IMPORTED
  6
CONTINUOUS
 62
              30
100
AcDbLine
 10
4354.271744641278
 20
1155.4314391098449
 30
0.0
 11
4350.8862126278782
 21
1157.561555267768
 31
0.0
  0
LINE
  5
3BE
100
AcDbEntity
  8
IMPORTED
  6
CONTINUOUS
 62
              30
100
AcDbLine
 10
4358.7592600279731
 20
1152.6080308814496
 30
0.0
 11
4356.2067298850952
 21
1154.2141448125569
 31
0.0
  0
LINE
  5
3BF
100
AcDbEntity
  8
IMPORTED
  6
CONTINUOUS
 62
              30
100
AcDbLine
 10
4350.2967628608549
 20
1152.8687093356968
 30
0.0
 11
4348.6905257245962
 21
1150.3159925903249
 31
0.0
  0
LINE
  5
3C0
100
AcDbEntity
  8
IMPORTED
  6
CONTINUOUS
 62
              30
100
AcDbLine
 10
4353.6440001109468
 20
1158.1891265929798
 30
0.0
 11
4351.5139205556161
 21
1154.8037311821065
 31
0.0
  0
LINE
  5
3C1
100
AcDbEntity
  8
IMPORTED
  6
CONTINUOUS
 62
              30
100
AcDbLine
 10
4356.4673583393751
 20
1162.6767285822352
 30
0.0
 11
4354.8612444082682
 21
1160.1241984393564
 31
0.0
  0
CIRCLE
  5
3C2
100
AcDbEntity
  8
IMPORTED
  6
CONTINUOUS
 62
              30
100
AcDbCircle
 10
4352.5789603332814
 20
1156.4964288875431
 30
0.0
 40
3.9998086366724439
  0
LINE
  5
3C3
100
AcDbEntity
  8
IMPORTED
  6
CONTINUOUS
 62
              30
100
AcDbLine
 10
4224.866980992605
 20
941.52097247908114
 30
0.0
 11
4222.3142276446406
 21
943.12707301281398
 31
0.0
  0
LINE
  5
3C4
100
AcDbEntity
  8
IMPORTED
  6
CONTINUOUS
 62
              30
100
AcDbLine
 10
4230.187311647328
 20
938.17368522902234
 30
0.0
 11
4226.8017796339282
 21
940.30380138694522
 31
0.0
  0
LINE
  5
3C5
100
AcDbEntity
  8
IMPORTED
  6
CONTINUOUS
 62
              30
100
AcDbLine
 10
4234.674827034024
 20
935.3502770006271
 30
0.0
 11
4232.1222968911452
 21
936.9563909317344
 31
0.0
  0
LINE
  5
3C6
100
AcDbEntity
  8
IMPORTED
  6
CONTINUOUS
 62
              30
100
AcDbLine
 10
4226.2123298669057
 20
935.61095545487433
 30
0.0
 11
4224.6060927306462
 21
933.05823870950235
 31
0.0
  0
LINE
  5
3C7
100
AcDbEntity
  8
IMPORTED
  6
CONTINUOUS
 62
              30
100
AcDbLine
 10
4229.5595671169976
 20
940.93137271215755
 30
0.0
 11
4227.429487561667
 21
937.54597730128398
 31
0.0
  0
LINE
  5
3C8
100
AcDbEntity
  8
IMPORTED
  6
CONTINUOUS
 62
              30
100
AcDbLine
 10
4232.382925345426
 20
945.41897470141248
 30
0.0
 11
4230.7768114143182
 21
942.86644455853389
 31
0.0
  0
CIRCLE
  5
3C9
100
AcDbEntity
  8
IMPORTED
  6
CONTINUOUS
 62
              30
100
AcDbCircle
 10
4228.4945273393323
 20
939.23867500672031
 30
0.0
 40
3.9998086366722267
  0
LINE
  5
3CA
100
AcDbEntity
  8
IMPORTED
  6
CONTINUOUS
 62
              30
100
AcDbLine
 10
4267.3559239979322
 20
914.97113066900533
 30
0.0
 11
4264.8031706499678
 21
916.57723120273795
 31
0.0
  0
LINE
  5
3CB
100
AcDbEntity
  8
IMPORTED
  6
CONTINUOUS
 62
              30
100
AcDbLine
 10
4272.6762546526552
 20
911.62384341894631
 30
0.0
 11
4269.2907226392563
 21
913.75395957686942
 31
0.0
  0
LINE
  5
3CC
100
AcDbEntity
  8
IMPORTED
  6
CONTINUOUS
 62
              30
100
AcDbLine
 10
4277.1637700393512
 20
908.80043519055107
 30
0.0
 11
4274.6112398964724
 21
910.40654912165837
 31
0.0
  0
LINE
  5
3CD
100
AcDbEntity
  8
IMPORTED
  6
CONTINUOUS
 62
              30
100
AcDbLine
 10
4268.7012728722329
 20
909.0611136447983
 30
0.0
 11
4267.0950357359734
 21
906.50839689942632
 31
0.0
  0
LINE
  5
3CE
100
AcDbEntity
  8
IMPORTED
  6
CONTINUOUS
 62
              30
100
AcDbLine
 10
4272.0485101223248
 20
914.38153090208129
 30
0.0
 11
4269.9184305669942
 21
910.99613549120795
 31
0.0
  0
LINE
  5
3CF
100
AcDbEntity
  8
IMPORTED
  6
CONTINUOUS
 62
              30
100
AcDbLine
 10
4274.8718683507532
 20
918.86913289133645
 30
0.0
 11
4273.2657544196454
 21
916.31660274845808
 31
0.0
  0
CIRCLE
  5
3D0
100
AcDbEntity
  8
IMPORTED
  6
CONTINUOUS
 62
              30
100
AcDbCircle
 10
4270.9834703446595
 20
912.68883319664451
 30
0.0
 40
3.9998086366724439
  0
LINE
  5
3D1
100
AcDbEntity
  8
IMPORTED
  6
CONTINUOUS
 62
              30
100
AcDbLine
 10
4321.4831002237197
 20
878.80426681225777
 30
0.0
 11
4319.0432707425816
 21
880.5771775384278
 31
0.0
  0
LINE
  5
3D2
100
AcDbEntity
  8
IMPORTED
  6
CONTINUOUS
 62
              30
100
AcDbLine
 10
4326.5679963481552
 20
875.10916399045436
 30
0.0
 11
4323.3322203237076
 21
877.46049525584681
 31
0.0
  0
LINE
  5
3D3
100
AcDbEntity
  8
IMPORTED
  6
CONTINUOUS
 62
              30
100
AcDbLine
 10
4330.8568727240963
 20
871.9922085028204
 30
0.0
 11
4328.4172164480779
 21
873.76521922892448
 31
0.0
  0
LINE
  5
3D4
100
AcDbEntity
  8
IMPORTED
  6
CONTINUOUS
 62
              30
100
AcDbLine
 10
4322.4306479416064
 20
872.81746170332644
 30
0.0
 11
4320.6574140104167
 21
870.37779202993261
 31
0.0
  0
LINE
  5
3D5
100
AcDbEntity
  8
IMPORTED
  6
CONTINUOUS
 62
              30
100
AcDbLine
 10
4326.1258373659693
 20
877.90240782772889
 30
0.0
 11
4323.7743061007095
 21
874.66697821351954
 31
0.0
  0
LINE
  5
3D6
100
AcDbEntity
  8
IMPORTED
  6
CONTINUOUS
 62
              30
100
AcDbLine
 10
4329.2426928536697
 20
882.19145740878912
 30
0.0
 11
4327.4695455250385
 21
879.75183773536264
 31
0.0
  0
CIRCLE
  5
3D7
100
AcDbEntity
  8
IMPORTED
  6
CONTINUOUS
 62
              30
100
AcDbCircle
 10
4324.9500717333394
 20
876.28469302062422
 30
0.0
 40
3.9997872355915254
  0
LINE
  5
3D8
100
AcDbEntity
  8
IMPORTED
  6
CONTINUOUS
 62
              30
100
AcDbLine
 10
4361.9341476445188
 20
849.41496259592259
 30
0.0
 11
4359.4943181633807
 21
851.18787332209286
 31
0.0
  0
LINE
  5
3D9
100
AcDbEntity
  8
IMPORTED
  6
CONTINUOUS
 62
              30
100
AcDbLine
 10
4367.0190437689544
 20
845.71985977411896
 30
0.0
 11
4363.7832677445067
 21
848.07119103951163
 31
0.0
  0
LINE
  5
3DA
100
AcDbEntity
  8
IMPORTED
  6
CONTINUOUS
 62
              30
100
AcDbLine
 10
4371.3079201448954
 20
842.60290428648523
 30
0.0
 11
4368.8682638688761
 21
844.3759150125893
 31
0.0
  0
LINE
  5
3DB
100
AcDbEntity
  8
IMPORTED
  6
CONTINUOUS
 62
              30
100
AcDbLine
 10
4362.8816953624055
 20
843.42815748699104
 30
0.0
 11
4361.1084614312149
 21
840.98848781359766
 31
0.0
  0
LINE
  5
3DC
100
AcDbEntity
  8
IMPORTED
  6
CONTINUOUS
 62
              30
100
AcDbLine
 10
4366.5768847867676
 20
848.51310361139372
 30
0.0
 11
4364.2253535215077
 21
845.27767399718414
 31
0.0
  0
LINE
  5
3DD
100
AcDbEntity
  8
IMPORTED
  6
CONTINUOUS
 62
              30
100
AcDbLine
 10
4369.6937402744679
 20
852.80215319245417
 30
0.0
 11
4367.9205929458376
 21
850.36253351902724
 31
0.0
  0
CIRCLE
  5
3DE
100
AcDbEntity
  8
IMPORTED
  6
CONTINUOUS
 62
              30
100
AcDbCircle
 10
4365.4011191541376
 20
846.89538880428904
 30
0.0
 40
3.9997872355915254
  0
LINE
  5
3DF
100
AcDbEntity
  8
IMPORTED
  6
CONTINUOUS
 62
              30
100
AcDbLine
 10
4419.9914685351314
 20
804.07628093605945
 30
0.0
 11
4422.3077574230092
 21
802.14474873651045
 31
0.0
  0
LINE
  5
3E0
100
AcDbEntity
  8
IMPORTED
  6
CONTINUOUS
 62
              30
100
AcDbLine
 10
4415.1639269960151
 20
808.10183266074364
 30
0.0
 11
4418.2358946654795
 21
805.54022571240671
 31
0.0
  0
LINE
  5
3E1
100
AcDbEntity
  8
IMPORTED
  6
CONTINUOUS
 62
              30
100
AcDbLine
 10
4411.0918910333667
 20
811.49720963670575
 30
0.0
 11
4413.4081299212776
 21
809.56576403971644
 31
0.0
  0
LINE
  5
3E2
100
AcDbEntity
  8
IMPORTED
  6
CONTINUOUS
 62
              30
100
AcDbLine
 10
4413.9549893751127
 20
803.52937148225715
 30
0.0
 11
4412.0235571754974
 21
801.21290938926052
 31
0.0
  0
LINE
  5
3E3
100
AcDbEntity
  8
IMPORTED
  6
CONTINUOUS
 62
              30
100
AcDbLine
 10
4417.98049109983
 20
808.35699962393278
 30
0.0
 11
4415.4191573565458
 21
805.28495874928353
 31
0.0
  0
LINE
  5
3E4
100
AcDbEntity
  8
IMPORTED
  6
CONTINUOUS
 62
              30
100
AcDbLine
 10
4421.3760046783191
 20
812.42899898398878
 30
0.0
 11
4419.4446090812962
 21
810.11267349351874
 31
0.0
  0
CIRCLE
  5
3E5
100
AcDbEntity
  8
IMPORTED
  6
CONTINUOUS
 62
              30
100
AcDbCircle
 10
4416.6998242281879
 20
806.82097918660816
 30
0.0
 40
3.9998151282277381
  0
LINE
  5
3E6
100
AcDbEntity
  8
IMPORTED
  6
CONTINUOUS
 62
              30
100
AcDbLine
 10
4458.3719541664714
 20
771.87149386841179
 30
0.0
 11
4460.6882430543492
 21
769.93996166886291
 31
0.0
  0
LINE
  5
3E7
100
AcDbEntity
  8
IMPORTED
  6
CONTINUOUS
 62
              30
100
AcDbLine
 10
4453.5444126273551
 20
775.89704559309598
 30
0.0
 11
4456.6163802968194
 21
773.33543864475905
 31
0.0
  0
LINE
  5
3E8
100
AcDbEntity
  8
IMPORTED
  6
CONTINUOUS
 62
              30
100
AcDbLine
 10
4449.4723766647066
 20
779.29242256905832
 30
0.0
 11
4451.7886155526176
 21
777.36097697206878
 31
0.0
  0
LINE
  5
3E9
100
AcDbEntity
  8
IMPORTED
  6
CONTINUOUS
 62
              30
100
AcDbLine
 10
4452.3354750064527
 20
771.32458441460949
 30
0.0
 11
4450.4040428068374
 21
769.00812232161297
 31
0.0
  0
LINE
  5
3EA
100
AcDbEntity
  8
IMPORTED
  6
CONTINUOUS
 62
              30
100
AcDbLine
 10
4456.36097673117
 20
776.15221255628512
 30
0.0
 11
4453.7996429878858
 21
773.0801716816361
 31
0.0
  0
LINE
  5
3EB
100
AcDbEntity
  8
IMPORTED
  6
CONTINUOUS
 62
              30
100
AcDbLine
 10
4459.7564903096581
 20
780.22421191634135
 30
0.0
 11
4457.8250947126362
 21
777.90788642587108
 31
0.0
  0
CIRCLE
  5
3EC
100
AcDbEntity
  8
IMPORTED
  6
CONTINUOUS
 62
              30
100
AcDbCircle
 10
4455.0803098595279
 20
774.6161921189605
 30
0.0
 40
3.9998151282279237
  0
LINE
  5
3ED
100
AcDbEntity
  8
IMPORTED
  6
CONTINUOUS
 62
              30
100
AcDbLine
 10
4500.4507543980062
 20
733.96763283230325
 30
0.0
 11
4498.2814880870919
 21
736.06291451082211
 31
0.0
  0
LINE
  5
3EE
100
AcDbEntity
  8
IMPORTED
  6
CONTINUOUS
 62
              30
100
AcDbLine
 10
4504.9719953333715
 20
729.60080920701523
 30
0.0
 11
4502.0949131938269
 21
732.37966458510039
 31
0.0
  0
LINE
  5
3EF
100
AcDbEntity
  8
IMPORTED
  6
CONTINUOUS
 62
              30
100
AcDbLine
 10
4508.7852972349538
 20
725.91737267880001
 30
0.0
 11
4506.6161675265666
 21
728.01261775472597
 31
0.0
  0
LINE
  5
3F0
100
AcDbEntity
  8
IMPORTED
  6
CONTINUOUS
 62
              30
100
AcDbLine
 10
4500.5560034234641
 20
727.90733212667499
 30
0.0
 11
4498.4604485398932
 21
725.73813902094651
 31
0.0
  0
LINE
  5
3F1
100
AcDbEntity
  8
IMPORTED
  6
CONTINUOUS
 62
              30
100
AcDbLine
 10
4504.9228770487198
 20
732.42848645948072
 30
0.0
 11
4502.1439082733268
 21
729.55180073014105
 31
0.0
  0
LINE
  5
3F2
100
AcDbEntity
  8
IMPORTED
  6
CONTINUOUS
 62
              30
100
AcDbLine
 10
4508.606300179561
 20
736.24201156614913
 30
0.0
 11
4506.5109185011079
 21
734.07291846035446
 31
0.0
  0
CIRCLE
  5
3F3
100
AcDbEntity
  8
IMPORTED
  6
CONTINUOUS
 62
              30
100
AcDbCircle
 10
4503.5333926610228
 20
730.990143594811
 30
0.0
 40
3.9997934671682622
  0
LINE
  5
3F4
100
AcDbEntity
  8
IMPORTED
  6
CONTINUOUS
 62
              30
100
AcDbLine
 10
4536.4179532576391
 20
699.23458031626876
 30
0.0
 11
4534.2486869467257
 21
701.32986199478739
 31
0.0
  0
LINE
  5
3F5
100
AcDbEntity
  8
IMPORTED
  6
CONTINUOUS
 62
              30
100
AcDbLine
 10
4540.9391941930044
 20
694.86775669098029
 30
0.0
 11
4538.0621120534597
 21
697.64661206906544
 31
0.0
  0
LINE
  5
3F6
100
AcDbEntity
  8
IMPORTED
  6
CONTINUOUS
 62
              30
100
AcDbLine
 10
4544.7524960945866
 20
691.18432016276518
 30
0.0
 11
4542.5833663861995
 21
693.27956523869125
 31
0.0
  0
LINE
  5
3F7
100
AcDbEntity
  8
IMPORTED
  6
CONTINUOUS
 62
              30
100
AcDbLine
 10
4536.5232022830978
 20
693.17427961064004
 30
0.0
 11
4534.4276473995269
 21
691.00508650491145
 31
0.0
  0
LINE
  5
3F8
100
AcDbEntity
  8
IMPORTED
  6
CONTINUOUS
 62
              30
100
AcDbLine
 10
4540.8900759083535
 20
697.69543394344623
 30
0.0
 11
4538.1111071329597
 21
694.81874821410634
 31
0.0
  0
LINE
  5
3F9
100
AcDbEntity
  8
IMPORTED
  6
CONTINUOUS
 62
              30
100
AcDbLine
 10
4544.5734990391938
 20
701.50895905011441
 30
0.0
 11
4542.4781173607416
 21
699.33986594431974
 31
0.0
  0
CIRCLE
  5
3FA
100
AcDbEntity
  8
IMPORTED
  6
CONTINUOUS
 62
              30
100
AcDbCircle
 10
4539.5005915206566
 20
696.25709107877628
 30
0.0
 40
3.9997934671681521
  0
LINE
  5
3FB
100
AcDbEntity
  8
IMPORTED
  6
CONTINUOUS
 62
              30
100
AcDbLine
 10
4581.9330134227894
 20
652.55133537246854
 30
0.0
 11
4579.9219471835031
 21
654.79880652939198
 31
0.0
  0
LINE
  5
3FC
100
AcDbEntity
  8
IMPORTED
  6
CONTINUOUS
 62
              30
100
AcDbLine
 10
4586.1247389577966
 20
647.86724907851828
 30
0.0
 11
4583.4574956743554
 21
650.84785294970595
 31
0.0
  0
LINE
  5
3FD
100
AcDbEntity
  8
IMPORTED
  6
CONTINUOUS
 62
              30
100
AcDbLine
 10
4589.6601642434962
 20
643.91610889633898
 30
0.0
 11
4587.6491346068024
 21
646.16371665578868
 31
0.0
  0
LINE
  5
3FE
100
AcDbEntity
  8
IMPORTED
  6
CONTINUOUS
 62
              30
100
AcDbLine
 10
4581.5973146564229
 20
646.49937881956282
 30
0.0
 11
4579.3496702943803
 21
644.48821258034241
 31
0.0
  0
LINE
  5
3FF
100
AcDbEntity
  8
IMPORTED
  6
CONTINUOUS
 62
              30
100
AcDbLine
 10
4586.2813643477803
 20
650.69096775204309
 30
0.0
 11
4583.3007470792181
 21
648.02394767368799
 31
0.0
  0
LINE
  5
400
100
AcDbEntity
  8
IMPORTED
  6
CONTINUOUS
 62
              30
100
AcDbLine
 10
4590.2324045300265
 20
654.22656624286208
 30
0.0
 11
4587.9847967705764
 21
652.21553660616826
 31
0.0
  0
CIRCLE
  5
401
100
AcDbEntity
  8
IMPORTED
  6
CONTINUOUS
 62
              30
100
AcDbCircle
 10
4584.7910557135001
 20
649.35745771286554
 30
0.0
 40
3.999785040474154
  0
LINE
  5
402
100
AcDbEntity
  8
IMPORTED
  6
CONTINUOUS
 62
              30
100
AcDbLine
 10
4615.4579724472514
 20
615.31856561492543
 30
0.0
 11
4613.4469062079643
 21
617.56603677184887
 31
0.0
  0
LINE
  5
403
100
AcDbEntity
  8
IMPORTED
  6
CONTINUOUS
 62
              30
100
AcDbLine
 10
4619.6496979822577
 20
610.63447932097517
 30
0.0
 11
4616.9824546988166
 21
613.61508319216284
 31
0.0
  0
LINE
  5
404
100
AcDbEntity
  8
IMPORTED
  6
CONTINUOUS
 62
              30
100
AcDbLine
 10
4623.1851232679583
 20
606.68333913879542
 30
0.0
 11
4621.1740936312635
 21
608.93094689824568
 31
0.0
  0
LINE
  5
405
100
AcDbEntity
  8
IMPORTED
  6
CONTINUOUS
 62
              30
100
AcDbLine
 10
4615.122273680885
 20
609.26660906201948
 30
0.0
 11
4612.8746293188424
 21
607.25544282279907
 31
0.0
  0
LINE
  5
406
100
AcDbEntity
  8
IMPORTED
  6
CONTINUOUS
 62
              30
100
AcDbLine
 10
4619.8063233722423
 20
613.45819799449976
 30
0.0
 11
4616.8257061036802
 21
610.79117791614465
 31
0.0
  0
LINE
  5
407
100
AcDbEntity
  8
IMPORTED
  6
CONTINUOUS
 62
              30
100
AcDbLine
 10
4623.7573635544877
 20
616.99379648531897
 30
0.0
 11
4621.5097557950376
 21
614.98276684862492
 31
0.0
  0
CIRCLE
  5
408
100
AcDbEntity
  8
IMPORTED
  6
CONTINUOUS
 62
              30
100
AcDbCircle
 10
4618.3160147379613
 20
612.1246879553222
 30
0.0
 40
3.9997850404738537
  0
LINE
  5
409
100
AcDbEntity
  8
IMPORTED
  6
CONTINUOUS
 62
              30
100
AcDbLine
 10
4662.7960878769982
 20
558.87928918326008
 30
0.0
 11
4664.6530676396778
 21
556.50290360617043
 31
0.0
  0
LINE
  5
40A
100
AcDbEntity
  8
IMPORTED
  6
CONTINUOUS
 62
              30
100
AcDbLine
 10
4658.9256345261538
 20
563.83211578621467
 30
0.0
 11
4661.3884960758414
 21
560.68051142699233
 31
0.0
  0
LINE
  5
40B
100
AcDbEntity
  8
IMPORTED
  6
CONTINUOUS
 62
              30
100
AcDbLine
 10
4655.660976359758
 20
568.00967360706977
 30
0.0
 11
4657.518042724997
 21
565.63333802994703
 31
0.0
  0
LINE
  5
40C
100
AcDbEntity
  8
IMPORTED
  6
CONTINUOUS
 62
              30
100
AcDbLine
 10
4656.7799225764238
 20
559.6173959344585
 30
0.0
 11
4654.4036003966758
 21
557.760106364134
 31
0.0
  0
LINE
  5
40D
100
AcDbEntity
  8
IMPORTED
  6
CONTINUOUS
 62
              30
100
AcDbLine
 10
4661.7327125767861
 20
563.48771268277687
 30
0.0
 11
4658.5813314226498
 21
561.02486453046333
 31
0.0
  0
LINE
  5
40E
100
AcDbEntity
  8
IMPORTED
  6
CONTINUOUS
 62
              30
100
AcDbLine
 10
4665.9103570002007
 20
566.75242084913918
 30
0.0
 11
4663.5340714230451
 21
564.89526788134106
 31
0.0
  0
CIRCLE
  5
40F
100
AcDbEntity
  8
IMPORTED
  6
CONTINUOUS
 62
              30
100
AcDbCircle
 10
4660.1570219997175
 20
562.25628860662005
 30
0.0
 40
3.9997586177167097
  0
LINE
  5
410
100
AcDbEntity
  8
IMPORTED
  6
CONTINUOUS
 62
              30
100
AcDbLine
 10
4693.5796668304856
 20
519.4789286049047
 30
0.0
 11
4695.4366465931653
 21
517.10254302781493
 31
0.0
  0
LINE
  5
411
100
AcDbEntity
  8
IMPORTED
  6
CONTINUOUS
 62
              30
100
AcDbLine
 10
4689.7092134796403
 20
524.43175520785917
 30
0.0
 11
4692.1720750293289
 21
521.28015084863694
 31
0.0
  0
LINE
  5
412
100
AcDbEntity
  8
IMPORTED
  6
CONTINUOUS
 62
              30
100
AcDbLine
 10
4686.4445553132455
 20
528.60931302871438
 30
0.0
 11
4688.3016216784836
 21
526.23297745159152
 31
0.0
  0
LINE
  5
413
100
AcDbEntity
  8
IMPORTED
  6
CONTINUOUS
 62
              30
100
AcDbLine
 10
4687.5635015299113
 20
520.217035356103
 30
0.0
 11
4685.1871793501632
 21
518.3597457857785
 31
0.0
  0
LINE
  5
414
100
AcDbEntity
  8
IMPORTED
  6
CONTINUOUS
 62
              30
100
AcDbLine
 10
4692.5162915302735
 20
524.08735210442137
 30
0.0
 11
4689.3649103761363
 21
521.62450395210783
 31
0.0
  0
LINE
  5
415
100
AcDbEntity
  8
IMPORTED
  6
CONTINUOUS
 62
              30
100
AcDbLine
 10
4696.6939359536882
 20
527.3520602707838
 30
0.0
 11
4694.3176503765317
 21
525.49490730298567
 31
0.0
  0
CIRCLE
  5
416
100
AcDbEntity
  8
IMPORTED
  6
CONTINUOUS
 62
              30
100
AcDbCircle
 10
4690.9406009532049
 20
522.85592802826466
 30
0.0
 40
3.9997586177168141
  0
POLYLINE
  5
417
100
AcDbEntity
  8
IMPORTED
  6
CONTINUOUS
 62
              30
100
AcDb2dPolyline
 66
               1
 10
0.0
 20
0.0
 30
0.0
 70
             129
  0
VERTEX
  5
418
100
AcDbEntity
  8
IMPORTED
  6
CONTINUOUS
 62
              30
100
AcDbVertex
100
AcDb2dVertex
 10
4998.3072764417802
 20
695.1124260901654
 30
0.0
  0
VERTEX
  5
419
100
AcDbEntity
  8
IMPORTED
  6
CONTINUOUS
 62
              30
100
AcDbVertex
100
AcDb2dVertex
 10
5066.6270187139689
 20
593.82586829012121
 30
0.0
  0
VERTEX
  5
41A
100
AcDbEntity
  8
IMPORTED
  6
CONTINUOUS
 62
              30
100
AcDbVertex
100
AcDb2dVertex
 10
5066.6270187139689
 20
593.82586829012121
 30
0.0
 42
-0.4244738413752363
 70
               2
 50
38.646981591389846
  0
VERTEX
  5
41B
100
AcDbEntity
  8
IMPORTED
  6
CONTINUOUS
 62
              30
100
AcDbVertex
100
AcDb2dVertex
 10
5064.8323527593602
 20
585.38231600974962
 30
0.0
  0
VERTEX
  5
41C
100
AcDbEntity
  8
IMPORTED
  6
CONTINUOUS
 62
              30
100
AcDbVertex
100
AcDb2dVertex
 10
5064.8323527593602
 20
585.38231600974962
 30
0.0
  0
VERTEX
  5
41D
100
AcDbEntity
  8
IMPORTED
  6
CONTINUOUS
 62
              30
100
AcDbVertex
100
AcDb2dVertex
 10
4693.3945550787248
 20
353.2790417748605
 30
0.0
  0
VERTEX
  5
41E
100
AcDbEntity
  8
IMPORTED
  6
CONTINUOUS
 62
              30
100
AcDbVertex
100
AcDb2dVertex
 10
4693.3945281573906
 20
353.27902495263726
 30
0.0
 42
-0.4040244605763711
 70
               2
 50
-91.692921815579183
  0
VERTEX
  5
41F
100
AcDbEntity
  8
IMPORTED
  6
CONTINUOUS
 62
              30
100
AcDbVertex
100
AcDb2dVertex
 10
4685.2408118138383
 20
355.01214619503344
 30
0.0
  0
VERTEX
  5
420
100
AcDbEntity
  8
IMPORTED
  6
CONTINUOUS
 62
              30
100
AcDbVertex
100
AcDb2dVertex
 10
4685.2408015687779
 20
355.012161383842
 30
0.0
  0
VERTEX
  5
421
100
AcDbEntity
  8
IMPORTED
  6
CONTINUOUS
 62
              30
100
AcDbVertex
100
AcDb2dVertex
 10
4685.2408015687779
 20
355.012161383842
 30
0.0
  0
VERTEX
  5
422
100
AcDbEntity
  8
IMPORTED
  6
CONTINUOUS
 62
              30
100
AcDbVertex
100
AcDb2dVertex
 10
4634.0165586053736
 20
430.9540225229797
 30
0.0
  0
VERTEX
  5
423
100
AcDbEntity
  8
IMPORTED
  6
CONTINUOUS
 62
              30
100
AcDbVertex
100
AcDb2dVertex
 10
4634.0165545415348
 20
430.95402854782276
 30
0.0
 42
-0.4040250150325133
 70
               2
 50
38.646789941917461
  0
VERTEX
  5
424
100
AcDbEntity
  8
IMPORTED
  6
CONTINUOUS
 62
              30
100
AcDbVertex
100
AcDb2dVertex
 10
4635.4640188400008
 20
439.16327843731358
 30
0.0
  0
VERTEX
  5
425
100
AcDbEntity
  8
IMPORTED
  6
CONTINUOUS
 62
              30
100
AcDbVertex
100
AcDb2dVertex
 10
4635.4640490568745
 20
439.16330039151455
 30
0.0
  0
VERTEX
  5
426
100
AcDbEntity
  8
IMPORTED
  6
CONTINUOUS
 62
              30
100
AcDbVertex
100
AcDb2dVertex
 10
4635.4640490568745
 20
439.16330039151455
 30
0.0
  0
VERTEX
  5
427
100
AcDbEntity
  8
IMPORTED
  6
CONTINUOUS
 62
              30
100
AcDbVertex
100
AcDb2dVertex
 10
4989.806384031318
 20
696.61140788983653
 30
0.0
  0
VERTEX
  5
428
100
AcDbEntity
  8
IMPORTED
  6
CONTINUOUS
 62
              30
100
AcDbVertex
100
AcDb2dVertex
 10
4989.806384031318
 20
696.61140788983653
 30
0.0
 42
-0.4244726091853491
 70
               2
 50
-78.862348760818676
  0
VERTEX
  5
429
100
AcDbEntity
  8
IMPORTED
  6
CONTINUOUS
 62
              30
100
AcDbVertex
100
AcDb2dVertex
 10
4998.3072764417802
 20
695.1124260901654
 30
0.0
  0
SEQEND
  5
42A
100
AcDbEntity
  8
IMPORTED
  6
CONTINUOUS
 62
              30
  0
POLYLINE
  5
42B
100
AcDbEntity
  8
IMPORTED
  6
CONTINUOUS
 62
              30
100
AcDb2dPolyline
 66
               1
 10
0.0
 20
0.0
 30
0.0
 70
             129
  0
VERTEX
  5
42C
100
AcDbEntity
  8
IMPORTED
  6
CONTINUOUS
 62
              30
100
AcDbVertex
100
AcDb2dVertex
 10
5075.8575833168034
 20
579.05364812817845
 30
0.0
  0
VERTEX
  5
42D
100
AcDbEntity
  8
IMPORTED
  6
CONTINUOUS
 62
              30
100
AcDbVertex
100
AcDb2dVertex
 10
5136.9454723606104
 20
473.24802732535125
 30
0.0
  0
VERTEX
  5
42E
100
AcDbEntity
  8
IMPORTED
  6
CONTINUOUS
 62
              30
100
AcDbVertex
100
AcDb2dVertex
 10
5136.9454723606104
 20
473.24802732535125
 30
0.0
 42
-0.4244786136061591
 70
               2
 50
33.081142802012131
  0
VERTEX
  5
42F
100
AcDbEntity
  8
IMPORTED
  6
CONTINUOUS
 62
              30
100
AcDbVertex
100
AcDb2dVertex
 10
5134.5662576542099
 20
464.95034350208778
 30
0.0
  0
VERTEX
  5
430
100
AcDbEntity
  8
IMPORTED
  6
CONTINUOUS
 62
              30
100
AcDbVertex
100
AcDb2dVertex
 10
5134.5662576542099
 20
464.95034350208778
 30
0.0
  0
VERTEX
  5
431
100
AcDbEntity
  8
IMPORTED
  6
CONTINUOUS
 62
              30
100
AcDbVertex
100
AcDb2dVertex
 10
4747.8425602698653
 20
259.32244752754178
 30
0.0
  0
VERTEX
  5
432
100
AcDbEntity
  8
IMPORTED
  6
CONTINUOUS
 62
              30
100
AcDbVertex
100
AcDb2dVertex
 10
4747.8425602698653
 20
259.32244752754178
 30
0.0
 42
-0.4040282535145314
 70
               2
 50
-107.75597554344535
  0
VERTEX
  5
433
100
AcDbEntity
  8
IMPORTED
  6
CONTINUOUS
 62
              30
100
AcDbVertex
100
AcDb2dVertex
 10
4739.8296044435738
 20
261.62009871427381
 30
0.0
  0
VERTEX
  5
434
100
AcDbEntity
  8
IMPORTED
  6
CONTINUOUS
 62
              30
100
AcDbVertex
100
AcDb2dVertex
 10
4739.8296044435738
 20
261.62009871427381
 30
0.0
  0
VERTEX
  5
435
100
AcDbEntity
  8
IMPORTED
  6
CONTINUOUS
 62
              30
100
AcDbVertex
100
AcDb2dVertex
 10
4694.027615103475
 20
340.95034125675801
 30
0.0
  0
VERTEX
  5
436
100
AcDbEntity
  8
IMPORTED
  6
CONTINUOUS
 62
              30
100
AcDbVertex
100
AcDb2dVertex
 10
4694.027615103475
 20
340.95034125675801
 30
0.0
 42
-0.4040252567837334
 70
               2
 50
33.080606826136368
  0
VERTEX
  5
437
100
AcDbEntity
  8
IMPORTED
  6
CONTINUOUS
 62
              30
100
AcDbVertex
100
AcDb2dVertex
 10
4696.0441382908557
 20
349.03862521843701
 30
0.0
  0
VERTEX
  5
438
100
AcDbEntity
  8
IMPORTED
  6
CONTINUOUS
 62
              30
100
AcDbVertex
100
AcDb2dVertex
 10
4696.0441382908557
 20
349.03862521843701
 30
0.0
  0
VERTEX
  5
439
100
AcDbEntity
  8
IMPORTED
  6
CONTINUOUS
 62
              30
100
AcDbVertex
100
AcDb2dVertex
 10
5067.481935971492
 20
581.141899453326
 30
0.0
  0
VERTEX
  5
43A
100
AcDbEntity
  8
IMPORTED
  6
CONTINUOUS
 62
              30
100
AcDbVertex
100
AcDb2dVertex
 10
5067.481935971492
 20
581.141899453326
 30
0.0
 42
-0.424477170592134
 70
               2
 50
-91.690864067390535
  0
VERTEX
  5
43B
100
AcDbEntity
  8
IMPORTED
  6
CONTINUOUS
 62
              30
100
AcDbVertex
100
AcDb2dVertex
 10
5075.8575833168034
 20
579.05364812817845
 30
0.0
  0
SEQEND
  5
43C
100
AcDbEntity
  8
IMPORTED
  6
CONTINUOUS
 62
              30
  0
LINE
  5
43D
100
AcDbEntity
  8
IMPORTED
  6
CONTINUOUS
 62
              30
100
AcDbLine
 10
4818.917821950904
 20
326.35350031818302
 30
0.0
 11
4820.4261173643717
 21
323.74185372729198
 31
0.0
  0
LINE
  5
43E
100
AcDbEntity
  8
IMPORTED
  6
CONTINUOUS
 62
              30
100
AcDbLine
 10
4815.7744044130359
 20
331.79686400092771
 30
0.0
 11
4817.7746495013198
 21
328.33313482750827
 31
0.0
  0
LINE
  5
43F
100
AcDbEntity
  8
IMPORTED
  6
CONTINUOUS
 62
              30
100
AcDbLine
 10
4813.1227633448652
 20
336.38804510121003
 30
0.0
 11
4814.6310953609254
 21
333.77653511284552
 31
0.0
  0
LINE
  5
440
100
AcDbEntity
  8
IMPORTED
  6
CONTINUOUS
 62
              30
100
AcDbLine
 10
4813.0628912586162
 20
327.92174102308445
 30
0.0
 11
4810.4512580650999
 21
326.41322240453098
 31
0.0
  0
LINE
  5
441
100
AcDbEntity
  8
IMPORTED
  6
CONTINUOUS
 62
              30
100
AcDbLine
 10
4818.5061183388352
 20
331.06519516354479
 30
0.0
 11
4815.0427623704018
 21
329.06470366495728
 31
0.0
  0
LINE
  5
442
100
AcDbEntity
  8
IMPORTED
  6
CONTINUOUS
 62
              30
100
AcDbLine
 10
4823.0974860416109
 20
333.71671302656364
 30
0.0
 11
4820.4860260532132
 21
332.20829440794409
 31
0.0
  0
CIRCLE
  5
443
100
AcDbEntity
  8
IMPORTED
  6
CONTINUOUS
 62
              30
100
AcDbCircle
 10
4816.7744403546185
 20
330.06494941425103
 30
0.0
 40
3.9997769937835002
  0
LINE
  5
444
100
AcDbEntity
  8
IMPORTED
  6
CONTINUOUS
 62
              30
100
AcDbLine
 10
4793.9173054634275
 20
369.65470325354488
 30
0.0
 11
4795.4256008768953
 21
367.04305666265384
 31
0.0
  0
LINE
  5
445
100
AcDbEntity
  8
IMPORTED
  6
CONTINUOUS
 62
              30
100
AcDbLine
 10
4790.7738879255594
 20
375.09806693628968
 30
0.0
 11
4792.7741330138433
 21
371.63433776287013
 31
0.0
  0
LINE
  5
446
100
AcDbEntity
  8
IMPORTED
  6
CONTINUOUS
 62
              30
100
AcDbLine
 10
4788.1222468573887
 20
379.68924803657205
 30
0.0
 11
4789.6305788734489
 21
377.07773804820738
 31
0.0
  0
LINE
  5
447
100
AcDbEntity
  8
IMPORTED
  6
CONTINUOUS
 62
              30
100
AcDbLine
 10
4788.0623747711397
 20
371.22294395844631
 30
0.0
 11
4785.4507415776234
 21
369.71442533989295
 31
0.0
  0
LINE
  5
448
100
AcDbEntity
  8
IMPORTED
  6
CONTINUOUS
 62
              30
100
AcDbLine
 10
4793.5056018513587
 20
374.36639809890664
 30
0.0
 11
4790.0422458829253
 21
372.36590660031914
 31
0.0
  0
LINE
  5
449
100
AcDbEntity
  8
IMPORTED
  6
CONTINUOUS
 62
              30
100
AcDbLine
 10
4798.0969695541344
 20
377.0179159619255
 30
0.0
 11
4795.4855095657367
 21
375.50949734330595
 31
0.0
  0
CIRCLE
  5
44A
100
AcDbEntity
  8
IMPORTED
  6
CONTINUOUS
 62
              30
100
AcDbCircle
 10
4791.773923867142
 20
373.36615234961289
 30
0.0
 40
3.9997769937835002
  0
LINE
  5
44B
100
AcDbEntity
  8
IMPORTED
  6
CONTINUOUS
 62
              30
100
AcDbLine
 10
4759.6312063243431
 20
425.11121869785359
 30
0.0
 11
4761.3252479482326
 21
422.61605023930576
 31
0.0
  0
LINE
  5
44C
100
AcDbEntity
  8
IMPORTED
  6
CONTINUOUS
 62
              30
100
AcDbLine
 10
4756.100105276545
 20
430.31146990430852
 30
0.0
 11
4758.3470638163608
 21
427.0024205060148
 31
0.0
  0
LINE
  5
44D
100
AcDbEntity
  8
IMPORTED
  6
CONTINUOUS
 62
              30
100
AcDbLine
 10
4753.1217479395546
 20
434.69774017108375
 30
0.0
 11
4754.8159127685949
 21
432.2027583150292
 31
0.0
  0
LINE
  5
44E
100
AcDbEntity
  8
IMPORTED
  6
CONTINUOUS
 62
              30
100
AcDbLine
 10
4753.6775848340922
 20
426.24939663245607
 30
0.0
 11
4751.1826163754122
 21
424.55500859832944
 31
0.0
  0
LINE
  5
44F
100
AcDbEntity
  8
IMPORTED
  6
CONTINUOUS
 62
              30
100
AcDbLine
 10
4758.8778860405137
 20
429.78041107769525
 30
0.0
 11
4755.5691098472726
 21
427.53337933269415
 31
0.0
  0
LINE
  5
450
100
AcDbEntity
  8
IMPORTED
  6
CONTINUOUS
 62
              30
100
AcDbLine
 10
4763.2642929098156
 20
432.75873181209306
 30
0.0
 11
4760.7693610537281
 21
431.0644803804928
 31
0.0
  0
CIRCLE
  5
451
100
AcDbEntity
  8
IMPORTED
  6
CONTINUOUS
 62
              30
100
AcDbCircle
 10
4757.2234979438936
 20
428.6568952051947
 30
0.0
 40
3.9998543598486158
  0
LINE
  5
452
100
AcDbEntity
  8
IMPORTED
  6
CONTINUOUS
 62
              30
100
AcDbLine
 10
4731.6142535821446
 20
466.64744246869452
 30
0.0
 11
4733.3082952060331
 21
464.15227401014647
 31
0.0
  0
LINE
  5
453
100
AcDbEntity
  8
IMPORTED
  6
CONTINUOUS
 62
              30
100
AcDbLine
 10
4728.0831525343456
 20
471.84769367514934
 30
0.0
 11
4730.3301110741613
 21
468.53864427685562
 31
0.0
  0
LINE
  5
454
100
AcDbEntity
  8
IMPORTED
  6
CONTINUOUS
 62
              30
100
AcDbLine
 10
4725.1047951973551
 20
476.23396394192457
 30
0.0
 11
4726.7989600263963
 21
473.73898208586991
 31
0.0
  0
LINE
  5
455
100
AcDbEntity
  8
IMPORTED
  6
CONTINUOUS
 62
              30
100
AcDbLine
 10
4725.6606320918927
 20
467.78562040329689
 30
0.0
 11
4723.1656636332127
 21
466.09123236917026
 31
0.0
  0
LINE
  5
456
100
AcDbEntity
  8
IMPORTED
  6
CONTINUOUS
 62
              30
100
AcDbLine
 10
4730.8609332983142
 20
471.31663484853607
 30
0.0
 11
4727.552157105074
 21
469.06960310353509
 31
0.0
  0
LINE
  5
457
100
AcDbEntity
  8
IMPORTED
  6
CONTINUOUS
 62
              30
100
AcDbLine
 10
4735.2473401676161
 20
474.29495558293377
 30
0.0
 11
4732.7524083115286
 21
472.60070415133362
 31
0.0
  0
CIRCLE
  5
458
100
AcDbEntity
  8
IMPORTED
  6
CONTINUOUS
 62
              30
100
AcDbCircle
 10
4729.2065452016941
 20
470.19311897603552
 30
0.0
 40
3.9998543598484715
  0
LINE
  5
459
100
AcDbEntity
  8
IMPORTED
  6
CONTINUOUS
 62
              30
100
AcDbLine
 10
5040.4232306942749
 20
442.69467059199826
 30
0.0
 11
5041.9315261077427
 21
440.08302400110722
 31
0.0
  0
LINE
  5
45A
100
AcDbEntity
  8
IMPORTED
  6
CONTINUOUS
 62
              30
100
AcDbLine
 10
5037.2798131564077
 20
448.13803427474306
 30
0.0
 11
5039.2800582446907
 21
444.67430510132351
 31
0.0
  0
LINE
  5
45B
100
AcDbEntity
  8
IMPORTED
  6
CONTINUOUS
 62
              30
100
AcDbLine
 10
5034.6281720882371
 20
452.72921537502532
 30
0.0
 11
5036.1365041042973
 21
450.11770538666076
 31
0.0
  0
LINE
  5
45C
100
AcDbEntity
  8
IMPORTED
  6
CONTINUOUS
 62
              30
100
AcDbLine
 10
5034.5683000019881
 20
444.26291129689969
 30
0.0
 11
5031.9566668084717
 21
442.75439267834622
 31
0.0
  0
LINE
  5
45D
100
AcDbEntity
  8
IMPORTED
  6
CONTINUOUS
 62
              30
100
AcDbLine
 10
5040.0115270822062
 20
447.40636543736002
 30
0.0
 11
5036.5481711137736
 21
445.40587393877252
 31
0.0
  0
LINE
  5
45E
100
AcDbEntity
  8
IMPORTED
  6
CONTINUOUS
 62
              30
100
AcDbLine
 10
5044.6028947849818
 20
450.05788330037888
 30
0.0
 11
5041.9914347965841
 21
448.54946468175933
 31
0.0
  0
CIRCLE
  5
45F
100
AcDbEntity
  8
IMPORTED
  6
CONTINUOUS
 62
              30
100
AcDbCircle
 10
5038.2798490979894
 20
446.40611968806627
 30
0.0
 40
3.9997769937834451
  0
LINE
  5
460
100
AcDbEntity
  8
IMPORTED
  6
CONTINUOUS
 62
              30
100
AcDbLine
 10
5005.4228208168352
 20
503.3162122142727
 30
0.0
 11
5006.931116230302
 21
500.70456562338165
 31
0.0
  0
LINE
  5
461
100
AcDbEntity
  8
IMPORTED
  6
CONTINUOUS
 62
              30
100
AcDbLine
 10
5002.279403278967
 20
508.75957589701738
 30
0.0
 11
5004.27964836725
 21
505.29584672359795
 31
0.0
  0
LINE
  5
462
100
AcDbEntity
  8
IMPORTED
  6
CONTINUOUS
 62
              30
100
AcDbLine
 10
4999.6277622107964
 20
513.35075699729987
 30
0.0
 11
5001.1360942268566
 21
510.73924700893519
 31
0.0
  0
LINE
  5
463
100
AcDbEntity
  8
IMPORTED
  6
CONTINUOUS
 62
              30
100
AcDbLine
 10
4999.5678901245474
 20
504.88445291917412
 30
0.0
 11
4996.956256931031
 21
503.37593430062066
 31
0.0
  0
LINE
  5
464
100
AcDbEntity
  8
IMPORTED
  6
CONTINUOUS
 62
              30
100
AcDbLine
 10
5005.0111172047655
 20
508.02790705963446
 30
0.0
 11
5001.5477612363329
 21
506.02741556104706
 31
0.0
  0
LINE
  5
465
100
AcDbEntity
  8
IMPORTED
  6
CONTINUOUS
 62
              30
100
AcDbLine
 10
5009.6024849075411
 20
510.67942492265331
 30
0.0
 11
5006.9910249191435
 21
509.17100630403377
 31
0.0
  0
CIRCLE
  5
466
100
AcDbEntity
  8
IMPORTED
  6
CONTINUOUS
 62
              30
100
AcDbCircle
 10
5003.2794392205487
 20
507.0276613103407
 30
0.0
 40
3.9997769937834451
  0
LINE
  5
467
100
AcDbEntity
  8
IMPORTED
  6
CONTINUOUS
 62
              30
100
AcDbLine
 10
4972.4247019589966
 20
556.70487851390965
 30
0.0
 11
4974.1187435828851
 21
554.20971005536194
 31
0.0
  0
LINE
  5
468
100
AcDbEntity
  8
IMPORTED
  6
CONTINUOUS
 62
              30
100
AcDbLine
 10
4968.8936009111976
 20
561.90512972036458
 30
0.0
 11
4971.1405594510143
 21
558.59608032207086
 31
0.0
  0
LINE
  5
469
100
AcDbEntity
  8
IMPORTED
  6
CONTINUOUS
 62
              30
100
AcDbLine
 10
4965.915243574208
 20
566.29139998713981
 30
0.0
 11
4967.6094084032484
 21
563.79641813108526
 31
0.0
  0
LINE
  5
46A
100
AcDbEntity
  8
IMPORTED
  6
CONTINUOUS
 62
              30
100
AcDbLine
 10
4966.4710804687456
 20
557.84305644851213
 30
0.0
 11
4963.9761120100648
 21
556.14866841438561
 31
0.0
  0
LINE
  5
46B
100
AcDbEntity
  8
IMPORTED
  6
CONTINUOUS
 62
              30
100
AcDbLine
 10
4971.6713816751671
 20
561.37407089375131
 30
0.0
 11
4968.362605481926
 21
559.12703914875033
 31
0.0
  0
LINE
  5
46C
100
AcDbEntity
  8
IMPORTED
  6
CONTINUOUS
 62
              30
100
AcDbLine
 10
4976.0577885444682
 20
564.35239162814912
 30
0.0
 11
4973.5628566883806
 21
562.65814019654886
 31
0.0
  0
CIRCLE
  5
46D
100
AcDbEntity
  8
IMPORTED
  6
CONTINUOUS
 62
              30
100
AcDbCircle
 10
4970.0169935785461
 20
560.25055502125088
 30
0.0
 40
3.9998543598485274
  0
LINE
  5
46E
100
AcDbEntity
  8
IMPORTED
  6
CONTINUOUS
 62
              30
100
AcDbLine
 10
4933.2808256493254
 20
614.73731438612788
 30
0.0
 11
4934.9748672732139
 21
612.24214592758028
 31
0.0
  0
LINE
  5
46F
100
AcDbEntity
  8
IMPORTED
  6
CONTINUOUS
 62
              30
100
AcDbLine
 10
4929.7497246015264
 20
619.93756559258293
 30
0.0
 11
4931.9966831413421
 21
616.62851619428932
 31
0.0
  0
LINE
  5
470
100
AcDbEntity
  8
IMPORTED
  6
CONTINUOUS
 62
              30
100
AcDbLine
 10
4926.7713672645359
 20
624.32383585935816
 30
0.0
 11
4928.4655320935772
 21
621.82885400330372
 31
0.0
  0
LINE
  5
471
100
AcDbEntity
  8
IMPORTED
  6
CONTINUOUS
 62
              30
100
AcDbLine
 10
4927.3272041590735
 20
615.87549232073059
 30
0.0
 11
4924.8322357003935
 21
614.18110428660395
 31
0.0
  0
LINE
  5
472
100
AcDbEntity
  8
IMPORTED
  6
CONTINUOUS
 62
              30
100
AcDbLine
 10
4932.527505365495
 20
619.40650676596954
 30
0.0
 11
4929.2187291722548
 21
617.15947502096844
 31
0.0
  0
LINE
  5
473
100
AcDbEntity
  8
IMPORTED
  6
CONTINUOUS
 62
              30
100
AcDbLine
 10
4936.913912234797
 20
622.38482750036758
 30
0.0
 11
4934.4189803787094
 21
620.69057606876743
 31
0.0
  0
CIRCLE
  5
474
100
AcDbEntity
  8
IMPORTED
  6
CONTINUOUS
 62
              30
100
AcDbCircle
 10
4930.8731172688749
 20
618.28299089346922
 30
0.0
 40
3.9998543598486909
  0
ARC
  5
475
100
AcDbEntity
  8
IMPORTED
  6
STYLE_05
 62
              30
100
AcDbCircle
 10
3375.3350971997825
 20
-473.29825314152163
 30
0.0
 40
1625.0000307313574
100
AcDbArc
 50
20.0894838893437
 51
59.672267327917631
  0
ARC
  5
476
100
AcDbEntity
  8
IMPORTED
  6
STYLE_05
 62
              30
100
AcDbCircle
 10
3375.3350971997825
 20
-473.29825314152163
 30
0.0
 40
1675.0001187480152
100
AcDbArc
 50
20.235137950781432
 51
59.678931613878682
  0
ARC
  5
477
100
AcDbEntity
  8
IMPORTED
  6
STYLE_05
 62
              30
100
AcDbCircle
 10
3375.3350971997825
 20
-473.29825314152163
 30
0.0
 40
1875.0001083947766
100
AcDbArc
 50
20.224162550048128
 51
59.698006973268058
  0
ARC
  5
478
100
AcDbEntity
  8
IMPORTED
  6
STYLE_05
 62
              30
100
AcDbCircle
 10
3375.3350971997825
 20
-473.29825314152163
 30
0.0
 40
1925.0000106593548
100
AcDbArc
 50
20.133963703057493
 51
59.702354914330257
  0
POLYLINE
  5
479
100
AcDbEntity
  8
IMPORTED
  6
STYLE_05
 62
              30
100
AcDb2dPolyline
 66
               1
 10
0.0
 20
0.0
 30
0.0
 70
             129
  0
VERTEX
  5
47A
100
AcDbEntity
  8
IMPORTED
  6
STYLE_05
 62
              30
100
AcDbVertex
100
AcDb2dVertex
 10
4898.4037917048954
 20
-303.93288474489634
 30
0.0
  0
VERTEX
  5
47B
100
AcDbEntity
  8
IMPORTED
  6
STYLE_05
 62
              30
100
AcDbVertex
100
AcDb2dVertex
 10
4836.030202148595
 20
-10.488640809405609
 30
0.0
  0
VERTEX
  5
47C
100
AcDbEntity
  8
IMPORTED
  6
STYLE_05
 62
              30
100
AcDbVertex
100
AcDb2dVertex
 10
5325.1039298402138
 20
93.467296250254179
 30
0.0
  0
VERTEX
  5
47D
100
AcDbEntity
  8
IMPORTED
  6
STYLE_05
 62
              30
100
AcDbVertex
100
AcDb2dVertex
 10
5387.4775193965152
 20
-199.9769476852363
 30
0.0
  0
VERTEX
  5
47E
100
AcDbEntity
  8
IMPORTED
  6
STYLE_05
 62
              30
100
AcDbVertex
100
AcDb2dVertex
 10
4898.4037917048954
 20
-303.93288474489634
 30
0.0
  0
SEQEND
  5
47F
100
AcDbEntity
  8
IMPORTED
  6
STYLE_05
 62
              30
  0
POLYLINE
  5
480
100
AcDbEntity
  8
IMPORTED
  6
STYLE_05
 62
              30
100
AcDb2dPolyline
 66
               1
 10
0.0
 20
0.0
 30
0.0
 70
             129
  0
VERTEX
  5
481
100
AcDbEntity
  8
IMPORTED
  6
STYLE_05
 62
              30
100
AcDbVertex
100
AcDb2dVertex
 10
4859.8919643404233
 20
-363.23586755975145
 30
0.0
  0
VERTEX
  5
482
100
AcDbEntity
  8
IMPORTED
  6
STYLE_05
 62
              30
100
AcDbVertex
100
AcDb2dVertex
 10
4776.7272193337403
 20
28.023186555066687
 30
0.0
  0
VERTEX
  5
483
100
AcDbEntity
  8
IMPORTED
  6
STYLE_05
 62
              30
100
AcDbVertex
100
AcDb2dVertex
 10
5363.6157572046859
 20
152.77027906510941
 30
0.0
  0
VERTEX
  5
484
100
AcDbEntity
  8
IMPORTED
  6
STYLE_05
 62
              30
100
AcDbVertex
100
AcDb2dVertex
 10
5446.7805022113707
 20
-238.48877504970872
 30
0.0
  0
VERTEX
  5
485
100
AcDbEntity
  8
IMPORTED
  6
STYLE_05
 62
              30
100
AcDbVertex
100
AcDb2dVertex
 10
4859.8919643404233
 20
-363.23586755975145
 30
0.0
  0
SEQEND
  5
486
100
AcDbEntity
  8
IMPORTED
  6
STYLE_05
 62
              30
  0
LINE
  5
487
100
AcDbEntity
  8
IMPORTED
  6
CONTINUOUS
 62
              30
100
AcDbLine
 10
4845.516738784494
 20
276.35538173578334
 30
0.0
 11
4844.2028323966688
 21
279.07013665179892
 31
0.0
  0
LINE
  5
488
100
AcDbEntity
  8
IMPORTED
  6
CONTINUOUS
 62
              30
100
AcDbLine
 10
4848.2548567979084
 20
270.69741743449833
 30
0.0
 11
4846.5124447695071
 21
274.29776664023979
 31
0.0
  0
LINE
  5
489
100
AcDbEntity
  8
IMPORTED
  6
CONTINUOUS
 62
              30
100
AcDbLine
 10
4850.5642959656288
 20
265.92494742300528
 30
0.0
 11
4849.250526180329
 21
268.63966573642836
 31
0.0
  0
LINE
  5
48A
100
AcDbEntity
  8
IMPORTED
  6
CONTINUOUS
 62
              30
100
AcDbLine
 10
4843.5257378801416
 20
270.63049343566172
 30
0.0
 11
4840.8108329642255
 21
269.31684685551454
 31
0.0
  0
LINE
  5
48B
100
AcDbEntity
  8
IMPORTED
  6
CONTINUOUS
 62
              30
100
AcDbLine
 10
4849.1837021814263
 20
273.36861144907624
 30
0.0
 11
4845.5834261808704
 21
271.62647262572796
 31
0.0
  0
LINE
  5
48C
100
AcDbEntity
  8
IMPORTED
  6
CONTINUOUS
 62
              30
100
AcDbLine
 10
4853.9562087955119
 20
275.67818721932269
 30
0.0
 11
4851.241440482122
 21
274.3645040365829
 31
0.0
  0
CIRCLE
  5
48D
100
AcDbEntity
  8
IMPORTED
  6
CONTINUOUS
 62
              30
100
AcDbCircle
 10
4847.3835641811484
 20
272.49754203740213
 30
0.0
 40
3.9997561388166103
  0
LINE
  5
48E
100
AcDbEntity
  8
IMPORTED
  6
CONTINUOUS
 62
              30
100
AcDbLine
 10
4867.4803458255474
 20
231.32426027510718
 30
0.0
 11
4866.1664394377212
 21
234.03901519112281
 31
0.0
  0
LINE
  5
48F
100
AcDbEntity
  8
IMPORTED
  6
CONTINUOUS
 62
              30
100
AcDbLine
 10
4870.2184638389617
 20
225.66629597382223
 30
0.0
 11
4868.4760518105604
 21
229.26664517956362
 31
0.0
  0
LINE
  5
490
100
AcDbEntity
  8
IMPORTED
  6
CONTINUOUS
 62
              30
100
AcDbLine
 10
4872.5279030066813
 20
220.8938259623292
 30
0.0
 11
4871.2141332213823
 21
223.60854427575225
 31
0.0
  0
LINE
  5
491
100
AcDbEntity
  8
IMPORTED
  6
CONTINUOUS
 62
              30
100
AcDbLine
 10
4865.489344921195
 20
225.59937197498562
 30
0.0
 11
4862.7744400052788
 21
224.28572539483844
 31
0.0
  0
LINE
  5
492
100
AcDbEntity
  8
IMPORTED
  6
CONTINUOUS
 62
              30
100
AcDbLine
 10
4871.1473092224796
 20
228.33748998840019
 30
0.0
 11
4867.5470332219238
 21
226.59535116505185
 31
0.0
  0
LINE
  5
493
100
AcDbEntity
  8
IMPORTED
  6
CONTINUOUS
 62
              30
100
AcDbLine
 10
4875.9198158365652
 20
230.64706575864653
 30
0.0
 11
4873.2050475231754
 21
229.33338257590685
 31
0.0
  0
CIRCLE
  5
494
100
AcDbEntity
  8
IMPORTED
  6
CONTINUOUS
 62
              30
100
AcDbCircle
 10
4869.3471712222017
 20
227.46642057672602
 30
0.0
 40
3.9997561388163883
  0
LINE
  5
495
100
AcDbEntity
  8
IMPORTED
  6
CONTINUOUS
 62
              30
100
AcDbLine
 10
4894.2172822853909
 20
171.97007845046878
 30
0.0
 11
4893.087764022177
 21
174.76646374993408
 31
0.0
  0
LINE
  5
496
100
AcDbEntity
  8
IMPORTED
  6
CONTINUOUS
 62
              30
100
AcDbLine
 10
4896.5714980252069
 20
166.14185242616247
 30
0.0
 11
4895.073475590465
 21
169.85050641716893
 31
0.0
  0
LINE
  5
497
100
AcDbEntity
  8
IMPORTED
  6
CONTINUOUS
 62
              30
100
AcDbLine
 10
4898.5570363883762
 20
161.2257950934634
 30
0.0
 11
4897.4276547276886
 21
164.02214379033629
 31
0.0
  0
LINE
  5
498
100
AcDbEntity
  8
IMPORTED
  6
CONTINUOUS
 62
              30
100
AcDbLine
 10
4891.8485511764402
 20
166.39083829669414
 30
0.0
 11
4889.0519292745148
 21
165.26152984119176
 31
0.0
  0
LINE
  5
499
100
AcDbEntity
  8
IMPORTED
  6
CONTINUOUS
 62
              30
100
AcDbLine
 10
4897.6766905981867
 20
168.74500403654361
 30
0.0
 11
4893.9681098123656
 21
167.24725480685402
 31
0.0
  0
LINE
  5
49A
100
AcDbEntity
  8
IMPORTED
  6
CONTINUOUS
 62
              30
100
AcDbLine
 10
4902.5927845334791
 20
170.73067900223882
 30
0.0
 11
4899.7963858366393
 21
169.60138394411089
 31
0.0
  0
CIRCLE
  5
49B
100
AcDbEntity
  8
IMPORTED
  6
CONTINUOUS
 62
              30
100
AcDbCircle
 10
4895.8224002052766
 20
167.99612942169881
 30
0.0
 40
3.9997586177168918
  0
LINE
  5
49C
100
AcDbEntity
  8
IMPORTED
  6
CONTINUOUS
 62
              30
100
AcDbLine
 10
4912.9478268208586
 20
125.61078586942511
 30
0.0
 11
4911.8183085576447
 21
128.40717116889044
 31
0.0
  0
LINE
  5
49D
100
AcDbEntity
  8
IMPORTED
  6
CONTINUOUS
 62
              30
100
AcDbLine
 10
4915.3020425606746
 20
119.78255984511884
 30
0.0
 11
4913.8040201259328
 21
123.4912138361253
 31
0.0
  0
LINE
  5
49E
100
AcDbEntity
  8
IMPORTED
  6
CONTINUOUS
 62
              30
100
AcDbLine
 10
4917.287580923844
 20
114.86650251241977
 30
0.0
 11
4916.1581992631563
 21
117.66285120929263
 31
0.0
  0
LINE
  5
49F
100
AcDbEntity
  8
IMPORTED
  6
CONTINUOUS
 62
              30
100
AcDbLine
 10
4910.5790957119079
 20
120.03154571565051
 30
0.0
 11
4907.7824738099825
 21
118.90223726014801
 31
0.0
  0
LINE
  5
4A0
100
AcDbEntity
  8
IMPORTED
  6
CONTINUOUS
 62
              30
100
AcDbLine
 10
4916.4072351336554
 20
122.38571145549983
 30
0.0
 11
4912.6986543478333
 21
120.88796222581038
 31
0.0
  0
LINE
  5
4A1
100
AcDbEntity
  8
IMPORTED
  6
CONTINUOUS
 62
              30
100
AcDbLine
 10
4921.3233290689468
 20
124.37138642119518
 30
0.0
 11
4918.526930372107
 21
123.24209136306715
 31
0.0
  0
CIRCLE
  5
4A2
100
AcDbEntity
  8
IMPORTED
  6
CONTINUOUS
 62
              30
100
AcDbCircle
 10
4914.5529447407444
 20
121.63683684065515
 30
0.0
 40
3.9997586177169158
  0
LINE
  5
4A3
100
AcDbEntity
  8
IMPORTED
  6
CONTINUOUS
 62
              30
100
AcDbLine
 10
4938.1577392701111
 20
56.395681280101826
 30
0.0
 11
4939.0985210796225
 21
53.530397134176184
 31
0.0
  0
LINE
  5
4A4
100
AcDbEntity
  8
IMPORTED
  6
CONTINUOUS
 62
              30
100
AcDbLine
 10
4936.1969322693903
 20
62.367903325197389
 30
0.0
 11
4937.4446863980947
 21
58.567526790654838
 31
0.0
  0
LINE
  5
4A5
100
AcDbEntity
  8
IMPORTED
  6
CONTINUOUS
 62
              30
100
AcDbLine
 10
4934.5428743827779
 20
67.405019584301698
 30
0.0
 11
4935.4837427948478
 21
64.539785438342847
 31
0.0
  0
LINE
  5
4A6
100
AcDbEntity
  8
IMPORTED
  6
CONTINUOUS
 62
              30
100
AcDbLine
 10
4932.7485706521293
 20
59.130840025446346
 30
0.0
 11
4929.8832133010183
 21
58.189785010882716
 31
0.0
  0
LINE
  5
4A7
100
AcDbEntity
  8
IMPORTED
  6
CONTINUOUS
 62
              30
100
AcDbLine
 10
4938.7207426972573
 20
61.091733628726374
 30
0.0
 11
4934.9206527651422
 21
59.843683089751394
 31
0.0
  0
LINE
  5
4A8
100
AcDbEntity
  8
IMPORTED
  6
CONTINUOUS
 62
              30
100
AcDbLine
 10
4943.758045558855
 20
62.745668310187625
 30
0.0
 11
4940.8927748103033
 21
61.804663295590885
 31
0.0
  0
CIRCLE
  5
4A9
100
AcDbEntity
  8
IMPORTED
  6
CONTINUOUS
 62
              30
100
AcDbCircle
 10
4936.8206977312002
 20
60.467708359238955
 30
0.0
 40
3.9997399165445224
  0
LINE
  5
4AA
100
AcDbEntity
  8
IMPORTED
  6
CONTINUOUS
 62
              30
100
AcDbLine
 10
4953.6405406719341
 20
8.7460452029848739
 30
0.0
 11
4954.5813224814447
 21
5.880761057059118
 31
0.0
  0
LINE
  5
4AB
100
AcDbEntity
  8
IMPORTED
  6
CONTINUOUS
 62
              30
100
AcDbLine
 10
4951.6797336712134
 20
14.718267248080309
 30
0.0
 11
4952.9274877999178
 21
10.917890713537759
 31
0.0
  0
LINE
  5
4AC
100
AcDbEntity
  8
IMPORTED
  6
CONTINUOUS
 62
              30
100
AcDbLine
 10
4950.0256757846
 20
19.755383507184604
 30
0.0
 11
4950.9665441966708
 21
16.890149361225866
 31
0.0
  0
LINE
  5
4AD
100
AcDbEntity
  8
IMPORTED
  6
CONTINUOUS
 62
              30
100
AcDbLine
 10
4948.2313720539514
 20
11.481203948329266
 30
0.0
 11
4945.3660147028404
 21
10.540148933765749
 31
0.0
  0
LINE
  5
4AE
100
AcDbEntity
  8
IMPORTED
  6
CONTINUOUS
 62
              30
100
AcDbLine
 10
4954.2035440990803
 20
13.442097551609294
 30
0.0
 11
4950.4034541669653
 21
12.194047012634428
 31
0.0
  0
LINE
  5
4AF
100
AcDbEntity
  8
IMPORTED
  6
CONTINUOUS
 62
              30
100
AcDbLine
 10
4959.240846960678
 20
15.096032233070531
 30
0.0
 11
4956.3755762121264
 21
14.155027218473919
 31
0.0
  0
CIRCLE
  5
4B0
100
AcDbEntity
  8
IMPORTED
  6
CONTINUOUS
 62
              30
100
AcDbCircle
 10
4952.3034991330223
 20
12.818072282121875
 30
0.0
 40
3.9997399165445224
  0
LINE
  5
4B1
100
AcDbEntity
  8
IMPORTED
  6
CONTINUOUS
 62
              30
100
AcDbLine
 10
4971.3127681628666
 20
-54.012598922654803
 30
0.0
 11
4972.0426499355854
 21
-56.938793449314431
 31
0.0
  0
LINE
  5
4B2
100
AcDbEntity
  8
IMPORTED
  6
CONTINUOUS
 62
              30
100
AcDbLine
 10
4969.7913898872339
 20
-47.913689839676778
 30
0.0
 11
4970.7595784111572
 21
-51.794644489262652
 31
0.0
  0
LINE
  5
4B3
100
AcDbEntity
  8
IMPORTED
  6
CONTINUOUS
 62
              30
100
AcDbLine
 10
4968.5080951577202
 20
-42.76955427699923
 30
0.0
 11
4969.2381501355585
 21
-45.695648803724936
 31
0.0
  0
LINE
  5
4B4
100
AcDbEntity
  8
IMPORTED
  6
CONTINUOUS
 62
              30
100
AcDbLine
 10
4966.1169340897804
 20
-50.89134627428453
 30
0.0
 11
4963.1905797553763
 21
-51.621551252023124
 31
0.0
  0
LINE
  5
4B5
100
AcDbEntity
  8
IMPORTED
  6
CONTINUOUS
 62
              30
100
AcDbLine
 10
4972.2157565701991
 20
-49.37001799861892
 30
0.0
 11
4968.3349885231064
 21
-50.338329727694855
 31
0.0
  0
LINE
  5
4B6
100
AcDbEntity
  8
IMPORTED
  6
CONTINUOUS
 62
              30
100
AcDbLine
 10
4977.3600287354029
 20
-48.086759871698092
 30
0.0
 11
4974.4338976060844
 21
-48.816951452062227
 31
0.0
  0
CIRCLE
  5
4B7
100
AcDbEntity
  8
IMPORTED
  6
CONTINUOUS
 62
              30
100
AcDbCircle
 10
4970.2753725466528
 20
-49.854173863156944
 30
0.0
 40
3.9998276962887851
  0
LINE
  5
4B8
100
AcDbEntity
  8
IMPORTED
  6
CONTINUOUS
 62
              30
100
AcDbLine
 10
4983.4095437507522
 20
-102.527465533997
 30
0.0
 11
4984.1394255234709
 21
-105.45366006065663
 31
0.0
  0
LINE
  5
4B9
100
AcDbEntity
  8
IMPORTED
  6
CONTINUOUS
 62
              30
100
AcDbLine
 10
4981.8881654751194
 20
-96.428556451018864
 30
0.0
 11
4982.8563539990437
 21
-100.30951110060474
 31
0.0
  0
LINE
  5
4BA
100
AcDbEntity
  8
IMPORTED
  6
CONTINUOUS
 62
              30
100
AcDbLine
 10
4980.6048707456066
 20
-91.284420888341316
 30
0.0
 11
4981.334925723444
 21
-94.210515415067135
 31
0.0
  0
LINE
  5
4BB
100
AcDbEntity
  8
IMPORTED
  6
CONTINUOUS
 62
              30
100
AcDbLine
 10
4978.213709677666
 20
-99.406212885626616
 30
0.0
 11
4975.2873553432619
 21
-100.13641786336521
 31
0.0
  0
LINE
  5
4BC
100
AcDbEntity
  8
IMPORTED
  6
CONTINUOUS
 62
              30
100
AcDbLine
 10
4984.3125321580847
 20
-97.884884609961006
 30
0.0
 11
4980.4317641109928
 21
-98.853196339037055
 31
0.0
  0
LINE
  5
4BD
100
AcDbEntity
  8
IMPORTED
  6
CONTINUOUS
 62
              30
100
AcDbLine
 10
4989.4568043232885
 20
-96.601626483040292
 30
0.0
 11
4986.5306731939709
 21
-97.331818063404427
 31
0.0
  0
CIRCLE
  5
4BE
100
AcDbEntity
  8
IMPORTED
  6
CONTINUOUS
 62
              30
100
AcDbCircle
 10
4982.3721481345383
 20
-98.36904047449903
 30
0.0
 40
3.9998276962888966
  0
LINE
  5
4BF
100
AcDbEntity
  8
IMPORTED
  6
CONTINUOUS
 62
              30
100
AcDbLine
 10
4995.1967373367743
 20
-157.92052481740953
 30
0.0
 11
4994.6820414933463
 21
-154.94884330541018
 31
0.0
  0
LINE
  5
4C0
100
AcDbEntity
  8
IMPORTED
  6
CONTINUOUS
 62
              30
100
AcDbLine
 10
4996.269191897698
 20
-164.11407510902362
 30
0.0
 11
4995.586762048858
 21
-160.17286907261635
 31
0.0
  0
LINE
  5
4C1
100
AcDbEntity
  8
IMPORTED
  6
CONTINUOUS
 62
              30
100
AcDbLine
 10
4997.1737392480918
 20
-169.3382008761636
 30
0.0
 11
4996.6591800071892
 21
-166.36655596675692
 31
0.0
  0
LINE
  5
4C2
100
AcDbEntity
  8
IMPORTED
  6
CONTINUOUS
 62
              30
100
AcDbLine
 10
4991.7049064947159
 20
-162.8748983298174
 30
0.0
 11
4988.7330749828152
 21
-163.38933436556718
 31
0.0
  0
LINE
  5
4C3
100
AcDbEntity
  8
IMPORTED
  6
CONTINUOUS
 62
              30
100
AcDbLine
 10
4997.8984567863299
 20
-161.8024437688936
 30
0.0
 11
4993.9573239551073
 21
-162.48460041268018
 31
0.0
  0
LINE
  5
4C4
100
AcDbEntity
  8
IMPORTED
  6
CONTINUOUS
 62
              30
100
AcDbLine
 10
5003.1226191560618
 20
-160.89775981597373
 30
0.0
 11
5000.1509242466882
 21
-161.41223245431584
 31
0.0
  0
CIRCLE
  5
4C5
100
AcDbEntity
  8
IMPORTED
  6
CONTINUOUS
 62
              30
100
AcDbCircle
 10
4995.9278903707182
 20
-162.14352209078689
 30
0.0
 40
3.9998151282277732
  0
LINE
  5
4C6
100
AcDbEntity
  8
IMPORTED
  6
CONTINUOUS
 62
              30
100
AcDbLine
 10
5003.897190200134
 20
-207.26118716067813
 30
0.0
 11
5003.382494356706
 21
-204.2895056486789
 31
0.0
  0
LINE
  5
4C7
100
AcDbEntity
  8
IMPORTED
  6
CONTINUOUS
 62
              30
100
AcDbLine
 10
5004.9696447610577
 20
-213.45473745229222
 30
0.0
 11
5004.2872149122186
 21
-209.51353141588496
 31
0.0
  0
LINE
  5
4C8
100
AcDbEntity
  8
IMPORTED
  6
CONTINUOUS
 62
              30
100
AcDbLine
 10
5005.8741921114515
 20
-218.6788632194322
 30
0.0
 11
5005.3596328705498
 21
-215.70721831002552
 31
0.0
  0
LINE
  5
4C9
100
AcDbEntity
  8
IMPORTED
  6
CONTINUOUS
 62
              30
100
AcDbLine
 10
5000.4053593580757
 20
-212.21556067308612
 30
0.0
 11
4997.4335278461758
 21
-212.72999670883578
 31
0.0
  0
LINE
  5
4CA
100
AcDbEntity
  8
IMPORTED
  6
CONTINUOUS
 62
              30
100
AcDbLine
 10
5006.5989096496896
 20
-211.1431061121622
 30
0.0
 11
5002.657776818467
 21
-211.82526275594878
 31
0.0
  0
LINE
  5
4CB
100
AcDbEntity
  8
IMPORTED
  6
CONTINUOUS
 62
              30
100
AcDbLine
 10
5011.8230720194224
 20
-210.23842215924233
 30
0.0
 11
5008.8513771100488
 21
-210.75289479758445
 31
0.0
  0
CIRCLE
  5
4CC
100
AcDbEntity
  8
IMPORTED
  6
CONTINUOUS
 62
              30
100
AcDbCircle
 10
5004.6283432340788
 20
-211.48418443405561
 30
0.0
 40
3.9998151282277772
  0
LINE
  5
4CD
100
AcDbEntity
  8
IMPORTED
  6
CONTINUOUS
 62
              30
100
AcDbLine
 10
5014.1340401925163
 20
-280.20958358331006
 30
0.0
 11
5014.4496454926229
 21
-283.20903010134373
 31
0.0
  0
LINE
  5
4CE
100
AcDbEntity
  8
IMPORTED
  6
CONTINUOUS
 62
              30
100
AcDbLine
 10
5013.4763535102429
 20
-273.95843245108165
 30
0.0
 11
5013.8948982754846
 21
-277.93617603878158
 31
0.0
  0
LINE
  5
4CF
100
AcDbEntity
  8
IMPORTED
  6
CONTINUOUS
 62
              30
100
AcDbLine
 10
5012.921383088019
 20
-268.68559178589396
 30
0.0
 11
5013.237074990685
 21
-271.68498830396072
 31
0.0
  0
LINE
  5
4D0
100
AcDbEntity
  8
IMPORTED
  6
CONTINUOUS
 62
              30
100
AcDbLine
 10
5009.4231416506955
 20
-276.39566364069515
 30
0.0
 11
5006.4237085300365
 21
-276.71149214588797
 31
0.0
  0
LINE
  5
4D1
100
AcDbEntity
  8
IMPORTED
  6
CONTINUOUS
 62
              30
100
AcDbLine
 10
5015.6743793854839
 20
-275.7379269584552
 30
0.0
 11
5011.696649195158
 21
-276.15669492878249
 31
0.0
  0
LINE
  5
4D2
100
AcDbEntity
  8
IMPORTED
  6
CONTINUOUS
 62
              30
100
AcDbLine
 10
5020.9472700506385
 20
-275.18304313879037
 30
0.0
 11
5017.9478369299786
 21
-275.49887164398319
 31
0.0
  0
CIRCLE
  5
4D3
100
AcDbEntity
  8
IMPORTED
  6
CONTINUOUS
 62
              30
100
AcDbCircle
 10
5013.6855142903205
 20
-275.94731094361885
 30
0.0
 40
3.9997872355913611
  0
LINE
  5
4D4
100
AcDbEntity
  8
IMPORTED
  6
CONTINUOUS
 62
              30
100
AcDbLine
 10
5019.3611187963079
 20
-329.93578416459059
 30
0.0
 11
5019.6767240964145
 21
-332.93523068262414
 31
0.0
  0
LINE
  5
4D5
100
AcDbEntity
  8
IMPORTED
  6
CONTINUOUS
 62
              30
100
AcDbLine
 10
5018.7034321140354
 20
-323.68463303236217
 30
0.0
 11
5019.1219768792762
 21
-327.66237662006233
 31
0.0
  0
LINE
  5
4D6
100
AcDbEntity
  8
IMPORTED
  6
CONTINUOUS
 62
              30
100
AcDbLine
 10
5018.1484616918106
 20
-318.4117923671746
 30
0.0
 11
5018.4641535944775
 21
-321.41118888524136
 31
0.0
  0
LINE
  5
4D7
100
AcDbEntity
  8
IMPORTED
  6
CONTINUOUS
 62
              30
100
AcDbLine
 10
5014.650220254488
 20
-326.12186422197578
 30
0.0
 11
5011.650787133829
 21
-326.4376927271685
 31
0.0
  0
LINE
  5
4D8
100
AcDbEntity
  8
IMPORTED
  6
CONTINUOUS
 62
              30
100
AcDbLine
 10
5020.9014579892755
 20
-325.46412753973573
 30
0.0
 11
5016.9237277989505
 21
-325.88289551006301
 31
0.0
  0
LINE
  5
4D9
100
AcDbEntity
  8
IMPORTED
  6
CONTINUOUS
 62
              30
100
AcDbLine
 10
5026.1743486544301
 20
-324.90924372007089
 30
0.0
 11
5023.1749155337711
 21
-325.2250722252636
 31
0.0
  0
CIRCLE
  5
4DA
100
AcDbEntity
  8
IMPORTED
  6
CONTINUOUS
 62
              30
100
AcDbCircle
 10
5018.912592894113
 20
-325.67351152489937
 30
0.0
 40
3.9997872355913611
  0
LINE
  5
4DB
100
AcDbEntity
  8
IMPORTED
  6
CONTINUOUS
 62
              30
100
AcDbLine
 10
5023.6198467977511
 20
-394.89476200252818
 30
0.0
 11
5023.7343916866739
 21
-397.90856160575697
 31
0.0
  0
LINE
  5
4DC
100
AcDbEntity
  8
IMPORTED
  6
CONTINUOUS
 62
              30
100
AcDbLine
 10
5023.3811311270638
 20
-388.61349008924765
 30
0.0
 11
5023.5330967753398
 21
-392.61050501313059
 31
0.0
  0
LINE
  5
4DD
100
AcDbEntity
  8
IMPORTED
  6
CONTINUOUS
 62
              30
100
AcDbLine
 10
5023.1796996132034
 20
-383.31539689402882
 30
0.0
 11
5023.2942445021263
 21
-386.32919649725761
 31
0.0
  0
LINE
  5
4DE
100
AcDbEntity
  8
IMPORTED
  6
CONTINUOUS
 62
              30
100
AcDbLine
 10
5019.1742994998958
 20
-390.77464379517903
 30
0.0
 11
5016.1604266914819
 21
-390.88946188915509
 31
0.0
  0
LINE
  5
4DF
100
AcDbEntity
  8
IMPORTED
  6
CONTINUOUS
 62
              30
100
AcDbLine
 10
5025.4554348106503
 20
-390.53589152189886
 30
0.0
 11
5021.458656489227
 21
-390.68806697788693
 31
0.0
  0
LINE
  5
4E0
100
AcDbEntity
  8
IMPORTED
  6
CONTINUOUS
 62
              30
100
AcDbLine
 10
5030.7535780058361
 20
-390.33454661059784
 30
0.0
 11
5027.7398284025739
 21
-390.44917810208028
 31
0.0
  0
CIRCLE
  5
4E1
100
AcDbEntity
  8
IMPORTED
  6
CONTINUOUS
 62
              30
100
AcDbCircle
 10
5023.4570456499387
 20
-390.6119792498929
 30
0.0
 40
3.9998086366724088
  0
LINE
  5
4E2
100
AcDbEntity
  8
IMPORTED
  6
CONTINUOUS
 62
              30
100
AcDbLine
 10
5025.3689307689356
 20
-444.96609807249706
 30
0.0
 11
5025.4834756578584
 21
-447.97989767572574
 31
0.0
  0
LINE
  5
4E3
100
AcDbEntity
  8
IMPORTED
  6
CONTINUOUS
 62
              30
100
AcDbLine
 10
5025.1302150982483
 20
-438.68482615921619
 30
0.0
 11
5025.2821807465243
 21
-442.68184108309936
 31
0.0
  0
LINE
  5
4E4
100
AcDbEntity
  8
IMPORTED
  6
CONTINUOUS
 62
              30
100
AcDbLine
 10
5024.928783584387
 20
-433.38673296399747
 30
0.0
 11
5025.0433284733099
 21
-436.40053256722626
 31
0.0
  0
LINE
  5
4E5
100
AcDbEntity
  8
IMPORTED
  6
CONTINUOUS
 62
              30
100
AcDbLine
 10
5020.9233834710803
 20
-440.8459798651478
 30
0.0
 11
5017.9095106626664
 21
-440.96079795912362
 31
0.0
  0
LINE
  5
4E6
100
AcDbEntity
  8
IMPORTED
  6
CONTINUOUS
 62
              30
100
AcDbLine
 10
5027.2045187818348
 20
-440.60722759186763
 30
0.0
 11
5023.2077404604115
 21
-440.7594030478557
 31
0.0
  0
LINE
  5
4E7
100
AcDbEntity
  8
IMPORTED
  6
CONTINUOUS
 62
              30
100
AcDbLine
 10
5032.5026619770197
 20
-440.40588268056638
 30
0.0
 11
5029.4889123737585
 21
-440.52051417204905
 31
0.0
  0
CIRCLE
  5
4E8
100
AcDbEntity
  8
IMPORTED
  6
CONTINUOUS
 62
              30
100
AcDbCircle
 10
5025.2061296211232
 20
-440.68331531986166
 30
0.0
 40
3.9998086366724088
  0
LINE
  5
4E9
100
AcDbEntity
  8
IMPORTED
  6
CONTINUOUS
 62
              30
100
AcDbLine
 10
5275.5620124560628
 20
-446.13112350917254
 30
0.0
 11
5275.6765573449866
 21
-449.14492311240144
 31
0.0
  0
LINE
  5
4EA
100
AcDbEntity
  8
IMPORTED
  6
CONTINUOUS
 62
              30
100
AcDbLine
 10
5275.3232967853755
 20
-439.84985159589189
 30
0.0
 11
5275.4752624336525
 21
-443.84686651977518
 31
0.0
  0
LINE
  5
4EB
100
AcDbEntity
  8
IMPORTED
  6
CONTINUOUS
 62
              30
100
AcDbLine
 10
5275.1218652715152
 20
-434.55175840067307
 30
0.0
 11
5275.236410160438
 21
-437.56555800390174
 31
0.0
  0
LINE
  5
4EC
100
AcDbEntity
  8
IMPORTED
  6
CONTINUOUS
 62
              30
100
AcDbLine
 10
5271.1164651582076
 20
-442.01100530182327
 30
0.0
 11
5268.1025923497937
 21
-442.1258233957991
 31
0.0
  0
LINE
  5
4ED
100
AcDbEntity
  8
IMPORTED
  6
CONTINUOUS
 62
              30
100
AcDbLine
 10
5277.3976004689621
 20
-441.7722530285431
 30
0.0
 11
5273.4008221475387
 21
-441.92442848453118
 31
0.0
  0
LINE
  5
4EE
100
AcDbEntity
  8
IMPORTED
  6
CONTINUOUS
 62
              30
100
AcDbLine
 10
5282.6957436641478
 20
-441.57090811724208
 30
0.0
 11
5279.6819940608857
 21
-441.68553960872475
 31
0.0
  0
CIRCLE
  5
4EF
100
AcDbEntity
  8
IMPORTED
  6
CONTINUOUS
 62
              30
100
AcDbCircle
 10
5275.3992113082504
 20
-441.84834075653714
 30
0.0
 40
3.9998086366724781
  0
LINE
  5
4F0
100
AcDbEntity
  8
IMPORTED
  6
CONTINUOUS
 62
              30
100
AcDbLine
 10
5273.1184489860852
 20
-376.17370025253592
 30
0.0
 11
5273.232993875009
 21
-379.18749985576471
 31
0.0
  0
LINE
  5
4F1
100
AcDbEntity
  8
IMPORTED
  6
CONTINUOUS
 62
              30
100
AcDbLine
 10
5272.879733315398
 20
-369.89242833925539
 30
0.0
 11
5273.0316989636749
 21
-373.88944326313845
 31
0.0
  0
LINE
  5
4F2
100
AcDbEntity
  8
IMPORTED
  6
CONTINUOUS
 62
              30
100
AcDbLine
 10
5272.6783018015376
 20
-364.59433514403645
 30
0.0
 11
5272.7928466904605
 21
-367.60813474726513
 31
0.0
  0
LINE
  5
4F3
100
AcDbEntity
  8
IMPORTED
  6
CONTINUOUS
 62
              30
100
AcDbLine
 10
5268.67290168823
 20
-372.05358204518677
 30
0.0
 11
5265.6590288798161
 21
-372.16840013916271
 31
0.0
  0
LINE
  5
4F4
100
AcDbEntity
  8
IMPORTED
  6
CONTINUOUS
 62
              30
100
AcDbLine
 10
5274.9540369989845
 20
-371.8148297719066
 30
0.0
 11
5270.9572586775621
 21
-371.96700522789456
 31
0.0
  0
LINE
  5
4F5
100
AcDbEntity
  8
IMPORTED
  6
CONTINUOUS
 62
              30
100
AcDbLine
 10
5280.2521801941703
 20
-371.61348486060547
 30
0.0
 11
5277.2384305909081
 21
-371.72811635208802
 31
0.0
  0
CIRCLE
  5
4F6
100
AcDbEntity
  8
IMPORTED
  6
CONTINUOUS
 62
              30
100
AcDbCircle
 10
5272.9556478382729
 20
-371.89091749990064
 30
0.0
 40
3.9998086366725127
  0
LINE
  5
4F7
100
AcDbEntity
  8
IMPORTED
  6
CONTINUOUS
 62
              30
100
AcDbLine
 10
5269.0365069490872
 20
-313.74652642809849
 30
0.0
 11
5269.3521122491948
 21
-316.74597294613216
 31
0.0
  0
LINE
  5
4F8
100
AcDbEntity
  8
IMPORTED
  6
CONTINUOUS
 62
              30
100
AcDbLine
 10
5268.3788202668147
 20
-307.49537529587019
 30
0.0
 11
5268.7973650320564
 21
-311.47311888357012
 31
0.0
  0
LINE
  5
4F9
100
AcDbEntity
  8
IMPORTED
  6
CONTINUOUS
 62
              30
100
AcDbLine
 10
5267.8238498445908
 20
-302.2225346306825
 30
0.0
 11
5268.1395417472568
 21
-305.22193114874926
 31
0.0
  0
LINE
  5
4FA
100
AcDbEntity
  8
IMPORTED
  6
CONTINUOUS
 62
              30
100
AcDbLine
 10
5264.3256084072673
 20
-309.93260648548369
 30
0.0
 11
5261.3261752866083
 21
-310.24843499067651
 31
0.0
  0
LINE
  5
4FB
100
AcDbEntity
  8
IMPORTED
  6
CONTINUOUS
 62
              30
100
AcDbLine
 10
5270.5768461420548
 20
-309.27486980324375
 30
0.0
 11
5266.5991159517298
 21
-309.69363777357103
 31
0.0
  0
LINE
  5
4FC
100
AcDbEntity
  8
IMPORTED
  6
CONTINUOUS
 62
              30
100
AcDbLine
 10
5275.8497368072094
 20
-308.71998598357891
 30
0.0
 11
5272.8503036865504
 21
-309.03581448877162
 31
0.0
  0
CIRCLE
  5
4FD
100
AcDbEntity
  8
IMPORTED
  6
CONTINUOUS
 62
              30
100
AcDbCircle
 10
5268.5879810468923
 20
-309.48425378840739
 30
0.0
 40
3.9997872355914241
  0
LINE
  5
4FE
100
AcDbEntity
  8
IMPORTED
  6
CONTINUOUS
 62
              30
100
AcDbLine
 10
5261.7188927882935
 20
-244.12999810153147
 30
0.0
 11
5262.0344980884001
 21
-247.12944461956513
 31
0.0
  0
LINE
  5
4FF
100
AcDbEntity
  8
IMPORTED
  6
CONTINUOUS
 62
              30
100
AcDbLine
 10
5261.0612061060201
 20
-237.87884696930305
 30
0.0
 11
5261.4797508712618
 21
-241.8565905570031
 31
0.0
  0
LINE
  5
500
100
AcDbEntity
  8
IMPORTED
  6
CONTINUOUS
 62
              30
100
AcDbLine
 10
5260.5062356837961
 20
-232.60600630411548
 30
0.0
 11
5260.8219275864622
 21
-235.60540282218213
 31
0.0
  0
LINE
  5
501
100
AcDbEntity
  8
IMPORTED
  6
CONTINUOUS
 62
              30
100
AcDbLine
 10
5257.0079942464727
 20
-240.31607815891655
 30
0.0
 11
5254.0085611258137
 21
-240.63190666410938
 31
0.0
  0
LINE
  5
502
100
AcDbEntity
  8
IMPORTED
  6
CONTINUOUS
 62
              30
100
AcDbLine
 10
5263.2592319812611
 20
-239.65834147667661
 30
0.0
 11
5259.2815017909352
 21
-240.07710944700389
 31
0.0
  0
LINE
  5
503
100
AcDbEntity
  8
IMPORTED
  6
CONTINUOUS
 62
              30
100
AcDbLine
 10
5268.5321226464157
 20
-239.10345765701177
 30
0.0
 11
5265.5326895257558
 21
-239.4192861622046
 31
0.0
  0
CIRCLE
  5
504
100
AcDbEntity
  8
IMPORTED
  6
CONTINUOUS
 62
              30
100
AcDbCircle
 10
5261.2703668860977
 20
-239.86772546184025
 30
0.0
 40
3.9997872355914064
  0
LINE
  5
505
100
AcDbEntity
  8
IMPORTED
  6
CONTINUOUS
 62
              30
100
AcDbLine
 10
5251.8354114853128
 20
-173.69505599902359
 30
0.0
 11
5251.3207156418848
 21
-170.72337448702436
 31
0.0
  0
LINE
  5
506
100
AcDbEntity
  8
IMPORTED
  6
CONTINUOUS
 62
              30
100
AcDbLine
 10
5252.9078660462364
 20
-179.8886062906378
 30
0.0
 11
5252.2254361973974
 21
-175.94740025423053
 31
0.0
  0
LINE
  5
507
100
AcDbEntity
  8
IMPORTED
  6
CONTINUOUS
 62
              30
100
AcDbLine
 10
5253.8124133966303
 20
-185.11273205777766
 30
0.0
 11
5253.2978541557286
 21
-182.1410871483711
 31
0.0
  0
LINE
  5
508
100
AcDbEntity
  8
IMPORTED
  6
CONTINUOUS
 62
              30
100
AcDbLine
 10
5248.3435806432544
 20
-178.64942951143158
 30
0.0
 11
5245.3717491313546
 21
-179.16386554718125
 31
0.0
  0
LINE
  5
509
100
AcDbEntity
  8
IMPORTED
  6
CONTINUOUS
 62
              30
100
AcDbLine
 10
5254.5371309348684
 20
-177.57697495050778
 30
0.0
 11
5250.5959981036458
 21
-178.25913159429436
 31
0.0
  0
LINE
  5
50A
100
AcDbEntity
  8
IMPORTED
  6
CONTINUOUS
 62
              30
100
AcDbLine
 10
5259.7612933046012
 20
-176.67229099758779
 30
0.0
 11
5256.7895983952276
 21
-177.18676363593002
 31
0.0
  0
CIRCLE
  5
50B
100
AcDbEntity
  8
IMPORTED
  6
CONTINUOUS
 62
              30
100
AcDbCircle
 10
5252.5665645192576
 20
-177.91805327240107
 30
0.0
 40
3.9998151282278216
  0
LINE
  5
50C
100
AcDbEntity
  8
IMPORTED
  6
CONTINUOUS
 62
              30
100
AcDbLine
 10
5239.6794287807452
 20
-104.75862613196242
 30
0.0
 11
5239.1647329373163
 21
-101.78694461996329
 31
0.0
  0
LINE
  5
50D
100
AcDbEntity
  8
IMPORTED
  6
CONTINUOUS
 62
              30
100
AcDbLine
 10
5240.7518833416689
 20
-110.95217642357662
 30
0.0
 11
5240.0694534928289
 21
-107.01097038716935
 31
0.0
  0
LINE
  5
50E
100
AcDbEntity
  8
IMPORTED
  6
CONTINUOUS
 62
              30
100
AcDbLine
 10
5241.6564306920618
 20
-116.1763021907166
 30
0.0
 11
5241.1418714511601
 21
-113.20465728130992
 31
0.0
  0
LINE
  5
50F
100
AcDbEntity
  8
IMPORTED
  6
CONTINUOUS
 62
              30
100
AcDbLine
 10
5236.1875979386859
 20
-109.7129996443704
 30
0.0
 11
5233.2157664267861
 21
-110.22743568012007
 31
0.0
  0
LINE
  5
510
100
AcDbEntity
  8
IMPORTED
  6
CONTINUOUS
 62
              30
100
AcDbLine
 10
5242.3811482303008
 20
-108.6405450834466
 30
0.0
 11
5238.4400153990782
 21
-109.32270172723318
 31
0.0
  0
LINE
  5
511
100
AcDbEntity
  8
IMPORTED
  6
CONTINUOUS
 62
              30
100
AcDbLine
 10
5247.6053106000327
 20
-107.73586113052662
 30
0.0
 11
5244.6336156906591
 21
-108.25033376886884
 31
0.0
  0
CIRCLE
  5
512
100
AcDbEntity
  8
IMPORTED
  6
CONTINUOUS
 62
              30
100
AcDbCircle
 10
5240.4105818146891
 20
-108.98162340533989
 30
0.0
 40
3.999815128227882
  0
LINE
  5
513
100
AcDbEntity
  8
IMPORTED
  6
CONTINUOUS
 62
              30
100
AcDbLine
 10
5228.4020116429319
 20
-51.747727326530281
 30
0.0
 11
5229.1318934156507
 21
-54.67392185318991
 31
0.0
  0
LINE
  5
514
100
AcDbEntity
  8
IMPORTED
  6
CONTINUOUS
 62
              30
100
AcDbLine
 10
5226.8806333672992
 20
-45.648818243552142
 30
0.0
 11
5227.8488218912235
 21
-49.529772893138016
 31
0.0
  0
LINE
  5
515
100
AcDbEntity
  8
IMPORTED
  6
CONTINUOUS
 62
              30
100
AcDbLine
 10
5225.5973386377864
 20
-40.504682680874708
 30
0.0
 11
5226.3273936156238
 21
-43.430777207600414
 31
0.0
  0
LINE
  5
516
100
AcDbEntity
  8
IMPORTED
  6
CONTINUOUS
 62
              30
100
AcDbLine
 10
5223.2061775698457
 20
-48.626474678160008
 30
0.0
 11
5220.2798232354417
 21
-49.356679655898603
 31
0.0
  0
LINE
  5
517
100
AcDbEntity
  8
IMPORTED
  6
CONTINUOUS
 62
              30
100
AcDbLine
 10
5229.3050000502644
 20
-47.105146402494398
 30
0.0
 11
5225.4242320031717
 21
-48.07345813157022
 31
0.0
  0
LINE
  5
518
100
AcDbEntity
  8
IMPORTED
  6
CONTINUOUS
 62
              30
100
AcDbLine
 10
5234.4492722154682
 20
-45.821888275573571
 30
0.0
 11
5231.5231410861506
 21
-46.552079855937706
 31
0.0
  0
CIRCLE
  5
519
100
AcDbEntity
  8
IMPORTED
  6
CONTINUOUS
 62
              30
100
AcDbCircle
 10
5227.3646160267181
 20
-47.589302267032309
 30
0.0
 40
3.999827696288949
  0
LINE
  5
51A
100
AcDbEntity
  8
IMPORTED
  6
CONTINUOUS
 62
              30
100
AcDbLine
 10
5211.4668817043657
 20
16.172829519050964
 30
0.0
 11
5212.1967634770845
 21
13.246634992391336
 31
0.0
  0
LINE
  5
51B
100
AcDbEntity
  8
IMPORTED
  6
CONTINUOUS
 62
              30
100
AcDbLine
 10
5209.9455034287339
 20
22.271738602029046
 30
0.0
 11
5210.9136919526572
 21
18.390783952443314
 31
0.0
  0
LINE
  5
51C
100
AcDbEntity
  8
IMPORTED
  6
CONTINUOUS
 62
              30
100
AcDbLine
 10
5208.6622086992202
 20
27.415874164706693
 30
0.0
 11
5209.3922636770576
 21
24.489779637980888
 31
0.0
  0
LINE
  5
51D
100
AcDbEntity
  8
IMPORTED
  6
CONTINUOUS
 62
              30
100
AcDbLine
 10
5206.2710476312805
 20
19.294082167421323
 30
0.0
 11
5203.3446932968764
 21
18.563877189682728
 31
0.0
  0
LINE
  5
51E
100
AcDbEntity
  8
IMPORTED
  6
CONTINUOUS
 62
              30
100
AcDbLine
 10
5212.3698701116991
 20
20.815410443086932
 30
0.0
 11
5208.4891020646064
 21
19.847098714010997
 31
0.0
  0
LINE
  5
51F
100
AcDbEntity
  8
IMPORTED
  6
CONTINUOUS
 62
              30
100
AcDbLine
 10
5217.5141422769029
 20
22.098668570007618
 30
0.0
 11
5214.5880111475844
 21
21.368476989643511
 31
0.0
  0
CIRCLE
  5
520
100
AcDbEntity
  8
IMPORTED
  6
CONTINUOUS
 62
              30
100
AcDbCircle
 10
5210.4294860881528
 20
20.331254578549022
 30
0.0
 40
3.999827696288845
  0
LINE
  5
521
100
AcDbEntity
  8
IMPORTED
  6
CONTINUOUS
 62
              30
100
AcDbLine
 10
5194.462723460003
 20
76.58874196313019
 30
0.0
 11
5195.4035052695144
 21
73.723457817204405
 31
0.0
  0
LINE
  5
522
100
AcDbEntity
  8
IMPORTED
  6
CONTINUOUS
 62
              30
100
AcDbLine
 10
5192.5019164592823
 20
82.560964008225667
 30
0.0
 11
5193.7496705879867
 21
78.76058747368306
 31
0.0
  0
LINE
  5
523
100
AcDbEntity
  8
IMPORTED
  6
CONTINUOUS
 62
              30
100
AcDbLine
 10
5190.8478585726698
 20
87.598080267329919
 30
0.0
 11
5191.7887269847397
 21
84.732846121371068
 31
0.0
  0
LINE
  5
524
100
AcDbEntity
  8
IMPORTED
  6
CONTINUOUS
 62
              30
100
AcDbLine
 10
5189.0535548420212
 20
79.323900708474568
 30
0.0
 11
5186.1881974909102
 21
78.382845693910994
 31
0.0
  0
LINE
  5
525
100
AcDbEntity
  8
IMPORTED
  6
CONTINUOUS
 62
              30
100
AcDbLine
 10
5195.0257268871492
 20
81.284794311754681
 30
0.0
 11
5191.2256369550341
 21
80.036743772779673
 31
0.0
  0
LINE
  5
526
100
AcDbEntity
  8
IMPORTED
  6
CONTINUOUS
 62
              30
100
AcDbLine
 10
5200.0630297487469
 20
82.938728993215832
 30
0.0
 11
5197.1977590001961
 21
81.997723978619248
 31
0.0
  0
CIRCLE
  5
527
100
AcDbEntity
  8
IMPORTED
  6
CONTINUOUS
 62
              30
100
AcDbCircle
 10
5193.1256819210921
 20
80.660769042267177
 30
0.0
 40
3.9997399165445873
  0
LINE
  5
528
100
AcDbEntity
  8
IMPORTED
  6
CONTINUOUS
 62
              30
100
AcDbLine
 10
5172.8309397732073
 20
143.16254262838893
 30
0.0
 11
5173.7717215827179
 21
140.29725848246318
 31
0.0
  0
LINE
  5
529
100
AcDbEntity
  8
IMPORTED
  6
CONTINUOUS
 62
              30
100
AcDbLine
 10
5170.8701327724866
 20
149.13476467348437
 30
0.0
 11
5172.117886901191
 21
145.33438813894182
 31
0.0
  0
LINE
  5
52A
100
AcDbEntity
  8
IMPORTED
  6
CONTINUOUS
 62
              30
100
AcDbLine
 10
5169.2160748858732
 20
154.17188093258866
 30
0.0
 11
5170.1569432979441
 21
151.30664678662993
 31
0.0
  0
LINE
  5
52B
100
AcDbEntity
  8
IMPORTED
  6
CONTINUOUS
 62
              30
100
AcDbLine
 10
5167.4217711552246
 20
145.89770137373333
 30
0.0
 11
5164.5564138041145
 21
144.9566463591697
 31
0.0
  0
LINE
  5
52C
100
AcDbEntity
  8
IMPORTED
  6
CONTINUOUS
 62
              30
100
AcDbLine
 10
5173.3939432003535
 20
147.85859497701335
 30
0.0
 11
5169.5938532682385
 21
146.61054443803849
 31
0.0
  0
LINE
  5
52D
100
AcDbEntity
  8
IMPORTED
  6
CONTINUOUS
 62
              30
100
AcDbLine
 10
5178.4312460619512
 20
149.51252965847459
 30
0.0
 11
5175.5659753133996
 21
148.57152464387798
 31
0.0
  0
CIRCLE
  5
52E
100
AcDbEntity
  8
IMPORTED
  6
CONTINUOUS
 62
              30
100
AcDbCircle
 10
5171.4938982342956
 20
147.23456970752594
 30
0.0
 40
3.9997399165445802
  0
LINE
  5
52F
100
AcDbEntity
  8
IMPORTED
  6
CONTINUOUS
 62
              30
100
AcDbLine
 10
5148.48921901825
 20
209.99249318454017
 30
0.0
 11
5147.3597007550361
 21
212.78887848400558
 31
0.0
  0
LINE
  5
530
100
AcDbEntity
  8
IMPORTED
  6
CONTINUOUS
 62
              30
100
AcDbLine
 10
5150.843434758066
 20
204.16426716023386
 30
0.0
 11
5149.3454123233241
 21
207.87292115124046
 31
0.0
  0
LINE
  5
531
100
AcDbEntity
  8
IMPORTED
  6
CONTINUOUS
 62
              30
100
AcDbLine
 10
5152.8289731212353
 20
199.24820982753494
 30
0.0
 11
5151.6995914605477
 21
202.04455852440779
 31
0.0
  0
LINE
  5
532
100
AcDbEntity
  8
IMPORTED
  6
CONTINUOUS
 62
              30
100
AcDbLine
 10
5146.1204879092993
 20
204.41325303076565
 30
0.0
 11
5143.3238660073739
 21
203.28394457526318
 31
0.0
  0
LINE
  5
533
100
AcDbEntity
  8
IMPORTED
  6
CONTINUOUS
 62
              30
100
AcDbLine
 10
5151.9486273310467
 20
206.767418770615
 30
0.0
 11
5148.2400465452247
 21
205.26966954092552
 31
0.0
  0
LINE
  5
534
100
AcDbEntity
  8
IMPORTED
  6
CONTINUOUS
 62
              30
100
AcDbLine
 10
5156.8647212663382
 20
208.75309373631032
 30
0.0
 11
5154.0683225694984
 21
207.62379867818231
 31
0.0
  0
CIRCLE
  5
535
100
AcDbEntity
  8
IMPORTED
  6
CONTINUOUS
 62
              30
100
AcDbCircle
 10
5150.0943369381357
 20
206.0185441557702
 30
0.0
 40
3.9997586177168518
  0
LINE
  5
536
100
AcDbEntity
  8
IMPORTED
  6
CONTINUOUS
 62
              30
100
AcDbLine
 10
5122.2661802583098
 20
274.89518155455033
 30
0.0
 11
5121.1366619950959
 21
277.69156685401578
 31
0.0
  0
LINE
  5
537
100
AcDbEntity
  8
IMPORTED
  6
CONTINUOUS
 62
              30
100
AcDbLine
 10
5124.6203959981267
 20
269.06695553024406
 30
0.0
 11
5123.1223735633839
 21
272.77560952125054
 31
0.0
  0
LINE
  5
538
100
AcDbEntity
  8
IMPORTED
  6
CONTINUOUS
 62
              30
100
AcDbLine
 10
5126.6059343612951
 20
264.15089819754508
 30
0.0
 11
5125.4765527006084
 21
266.94724689441796
 31
0.0
  0
LINE
  5
539
100
AcDbEntity
  8
IMPORTED
  6
CONTINUOUS
 62
              30
100
AcDbLine
 10
5119.89744914936
 20
269.31594140077584
 30
0.0
 11
5117.1008272474337
 21
268.18663294527335
 31
0.0
  0
LINE
  5
53A
100
AcDbEntity
  8
IMPORTED
  6
CONTINUOUS
 62
              30
100
AcDbLine
 10
5125.7255885711065
 20
271.67010714062519
 30
0.0
 11
5122.0170077852854
 21
270.17235791093572
 31
0.0
  0
LINE
  5
53B
100
AcDbEntity
  8
IMPORTED
  6
CONTINUOUS
 62
              30
100
AcDbLine
 10
5130.641682506398
 20
273.65578210632049
 30
0.0
 11
5127.8452838095582
 21
272.52648704819262
 31
0.0
  0
CIRCLE
  5
53C
100
AcDbEntity
  8
IMPORTED
  6
CONTINUOUS
 62
              30
100
AcDbCircle
 10
5123.8712981781955
 20
270.9212325257804
 30
0.0
 40
3.9997586177167834
  0
LINE
  5
53D
100
AcDbEntity
  8
IMPORTED
  6
CONTINUOUS
 62
              30
100
AcDbLine
 10
5096.5617461817019
 20
331.93101486599824
 30
0.0
 11
5095.2478397938767
 21
334.64576978201382
 31
0.0
  0
LINE
  5
53E
100
AcDbEntity
  8
IMPORTED
  6
CONTINUOUS
 62
              30
100
AcDbLine
 10
5099.2998641951162
 20
326.27305056471323
 30
0.0
 11
5097.5574521667158
 21
329.87339977045474
 31
0.0
  0
LINE
  5
53F
100
AcDbEntity
  8
IMPORTED
  6
CONTINUOUS
 62
              30
100
AcDbLine
 10
5101.6093033628367
 20
321.50058055322029
 30
0.0
 11
5100.2955335775378
 21
324.21529886664337
 31
0.0
  0
LINE
  5
540
100
AcDbEntity
  8
IMPORTED
  6
CONTINUOUS
 62
              30
100
AcDbLine
 10
5094.5707452773495
 20
326.20612656587673
 30
0.0
 11
5091.8558403614334
 21
324.89247998572955
 31
0.0
  0
LINE
  5
541
100
AcDbEntity
  8
IMPORTED
  6
CONTINUOUS
 62
              30
100
AcDbLine
 10
5100.2287095786351
 20
328.94424457929119
 30
0.0
 11
5096.6284335780783
 21
327.20210575594297
 31
0.0
  0
LINE
  5
542
100
AcDbEntity
  8
IMPORTED
  6
CONTINUOUS
 62
              30
100
AcDbLine
 10
5105.0012161927207
 20
331.25382034953759
 30
0.0
 11
5102.2864478793308
 21
329.94013716679785
 31
0.0
  0
CIRCLE
  5
543
100
AcDbEntity
  8
IMPORTED
  6
CONTINUOUS
 62
              30
100
AcDbCircle
 10
5098.4285715783562
 20
328.07317516761702
 30
0.0
 40
3.9997561388163643
  0
LINE
  5
544
100
AcDbEntity
  8
IMPORTED
  6
CONTINUOUS
 62
              30
100
AcDbLine
 10
5065.87530262379
 20
394.84634751056944
 30
0.0
 11
5064.5613962359648
 21
397.56110242658508
 31
0.0
  0
LINE
  5
545
100
AcDbEntity
  8
IMPORTED
  6
CONTINUOUS
 62
              30
100
AcDbLine
 10
5068.6134206372044
 20
389.18838320928455
 30
0.0
 11
5066.871008608804
 21
392.78873241502595
 31
0.0
  0
LINE
  5
546
100
AcDbEntity
  8
IMPORTED
  6
CONTINUOUS
 62
              30
100
AcDbLine
 10
5070.9228598049249
 20
384.4159131977915
 30
0.0
 11
5069.6090900196259
 21
387.13063151121457
 31
0.0
  0
LINE
  5
547
100
AcDbEntity
  8
IMPORTED
  6
CONTINUOUS
 62
              30
100
AcDbLine
 10
5063.8843017194386
 20
389.12145921044805
 30
0.0
 11
5061.1693968035215
 21
387.80781263030065
 31
0.0
  0
LINE
  5
548
100
AcDbEntity
  8
IMPORTED
  6
CONTINUOUS
 62
              30
100
AcDbLine
 10
5069.5422660207232
 20
391.8595772238624
 30
0.0
 11
5065.9419900201665
 21
390.11743840051406
 31
0.0
  0
LINE
  5
549
100
AcDbEntity
  8
IMPORTED
  6
CONTINUOUS
 62
              30
100
AcDbLine
 10
5074.3147726348088
 20
394.16915299410891
 30
0.0
 11
5071.6000043214181
 21
392.85546981136906
 31
0.0
  0
CIRCLE
  5
54A
100
AcDbEntity
  8
IMPORTED
  6
CONTINUOUS
 62
              30
100
AcDbCircle
 10
5067.7421280204444
 20
390.98850781218835
 30
0.0
 40
3.99975613881645
  0
CIRCLE
  5
54B
100
AcDbEntity
  8
IMPORTED
  6
STYLE_05
 62
              30
100
AcDbCircle
 10
4622.5203374004614
 20
913.33463620119983
 30
0.0
 40
7.4999999999999298
  0
CIRCLE
  5
54C
100
AcDbEntity
  8
IMPORTED
  6
STYLE_05
 62
              30
100
AcDbCircle
 10
4502.8198596324555
 20
778.89961478939858
 30
0.0
 40
7.4999999999999298
  0
POLYLINE
  5
54D
100
AcDbEntity
  8
IMPORTED
  6
STYLE_05
 62
              30
100
AcDb2dPolyline
 66
               1
 10
0.0
 20
0.0
 30
0.0
 70
             129
  0
VERTEX
  5
54E
100
AcDbEntity
  8
IMPORTED
  6
STYLE_05
 62
              30
100
AcDbVertex
100
AcDb2dVertex
 10
4575.2841099957386
 20
747.29332945598162
 30
0.0
  0
VERTEX
  5
54F
100
AcDbEntity
  8
IMPORTED
  6
STYLE_05
 62
              30
100
AcDbVertex
100
AcDb2dVertex
 10
4575.2840831453559
 20
747.29329963564555
 30
0.0
 42
-0.4142139337839436
 70
               2
 50
-51.589412265478678
  0
VERTEX
  5
550
100
AcDbEntity
  8
IMPORTED
  6
STYLE_05
 62
              30
100
AcDbVertex
100
AcDb2dVertex
 10
4469.3634930618464
 20
741.74236618300984
 30
0.0
  0
VERTEX
  5
551
100
AcDbEntity
  8
IMPORTED
  6
STYLE_05
 62
              30
100
AcDbVertex
100
AcDb2dVertex
 10
4469.3634862058143
 20
741.74237235623127
 30
0.0
  0
VERTEX
  5
552
100
AcDbEntity
  8
IMPORTED
  6
STYLE_05
 62
              30
100
AcDbVertex
100
AcDb2dVertex
 10
4469.3634862058143
 20
741.74237235623127
 30
0.0
  0
VERTEX
  5
553
100
AcDbEntity
  8
IMPORTED
  6
STYLE_05
 62
              30
100
AcDbVertex
100
AcDb2dVertex
 10
4469.3634862058143
 20
741.74237235623127
 30
0.0
  0
VERTEX
  5
554
100
AcDbEntity
  8
IMPORTED
  6
STYLE_05
 62
              30
100
AcDbVertex
100
AcDb2dVertex
 10
4469.3634862058143
 20
741.74237235623127
 30
0.0
 42
-0.4142147879069374
 70
               2
 50
63.633655388885629
  0
VERTEX
  5
555
100
AcDbEntity
  8
IMPORTED
  6
STYLE_05
 62
              30
100
AcDbVertex
100
AcDb2dVertex
 10
4463.8124425035548
 20
847.66294614610342
 30
0.0
  0
VERTEX
  5
556
100
AcDbEntity
  8
IMPORTED
  6
STYLE_05
 62
              30
100
AcDbVertex
100
AcDb2dVertex
 10
4463.8124425035548
 20
847.66294614610342
 30
0.0
  0
VERTEX
  5
557
100
AcDbEntity
  8
IMPORTED
  6
STYLE_05
 62
              30
100
AcDbVertex
100
AcDb2dVertex
 10
4550.7993258999231
 20
944.27179522897291
 30
0.0
  0
VERTEX
  5
558
100
AcDbEntity
  8
IMPORTED
  6
STYLE_05
 62
              30
100
AcDbVertex
100
AcDb2dVertex
 10
4550.7993258999231
 20
944.27179522897291
 30
0.0
  0
VERTEX
  5
559
100
AcDbEntity
  8
IMPORTED
  6
STYLE_05
 62
              30
100
AcDbVertex
100
AcDb2dVertex
 10
4550.7993258999231
 20
944.27179522897291
 30
0.0
 42
-0.4142130702837631
 70
               2
 50
-51.589412265554188
  0
VERTEX
  5
55A
100
AcDbEntity
  8
IMPORTED
  6
STYLE_05
 62
              30
100
AcDbVertex
100
AcDb2dVertex
 10
4656.7199862923044
 20
949.82288893128589
 30
0.0
  0
VERTEX
  5
55B
100
AcDbEntity
  8
IMPORTED
  6
STYLE_05
 62
              30
100
AcDbVertex
100
AcDb2dVertex
 10
4656.7199862923044
 20
949.82288893128589
 30
0.0
  0
VERTEX
  5
55C
100
AcDbEntity
  8
IMPORTED
  6
STYLE_05
 62
              30
100
AcDbVertex
100
AcDb2dVertex
 10
4656.7199862923044
 20
949.82288893128589
 30
0.0
  0
VERTEX
  5
55D
100
AcDbEntity
  8
IMPORTED
  6
STYLE_05
 62
              30
100
AcDbVertex
100
AcDb2dVertex
 10
4656.7199862923044
 20
949.82288893128589
 30
0.0
 42
-0.414213321015682
 70
               2
 50
63.633444486381585
  0
VERTEX
  5
55E
100
AcDbEntity
  8
IMPORTED
  6
STYLE_05
 62
              30
100
AcDbVertex
100
AcDb2dVertex
 10
4662.2711299946704
 20
843.90214193639486
 30
0.0
  0
VERTEX
  5
55F
100
AcDbEntity
  8
IMPORTED
  6
STYLE_05
 62
              30
100
AcDbVertex
100
AcDb2dVertex
 10
4662.2711299946704
 20
843.90214193639486
 30
0.0
  0
VERTEX
  5
560
100
AcDbEntity
  8
IMPORTED
  6
STYLE_05
 62
              30
100
AcDbVertex
100
AcDb2dVertex
 10
4575.2841099957386
 20
747.29332945598162
 30
0.0
  0
VERTEX
  5
561
100
AcDbEntity
  8
IMPORTED
  6
STYLE_05
 62
              30
100
AcDbVertex
100
AcDb2dVertex
 10
4575.2841099957386
 20
747.29332945598162
 30
0.0
  0
SEQEND
  5
562
100
AcDbEntity
  8
IMPORTED
  6
STYLE_05
 62
              30
  0
POLYLINE
  5
563
100
AcDbEntity
  8
IMPORTED
  6
STYLE_05
 62
              30
100
AcDb2dPolyline
 66
               1
 10
0.0
 20
0.0
 30
0.0
 70
             129
  0
VERTEX
  5
564
100
AcDbEntity
  8
IMPORTED
  6
STYLE_05
 62
              30
100
AcDbVertex
100
AcDb2dVertex
 10
4283.5440699406336
 20
761.03510788330266
 30
0.0
  0
VERTEX
  5
565
100
AcDbEntity
  8
IMPORTED
  6
STYLE_05
 62
              30
100
AcDbVertex
100
AcDb2dVertex
 10
4506.4874915275122
 20
560.29592450311088
 30
0.0
  0
VERTEX
  5
566
100
AcDbEntity
  8
IMPORTED
  6
STYLE_05
 62
              30
100
AcDbVertex
100
AcDb2dVertex
 10
4841.0527516269722
 20
931.86830601539623
 30
0.0
  0
VERTEX
  5
567
100
AcDbEntity
  8
IMPORTED
  6
STYLE_05
 62
              30
100
AcDbVertex
100
AcDb2dVertex
 10
4618.1093300400962
 20
1132.6074893955856
 30
0.0
  0
VERTEX
  5
568
100
AcDbEntity
  8
IMPORTED
  6
STYLE_05
 62
              30
100
AcDbVertex
100
AcDb2dVertex
 10
4283.5440699406336
 20
761.03510788330266
 30
0.0
  0
SEQEND
  5
569
100
AcDbEntity
  8
IMPORTED
  6
STYLE_05
 62
              30
  0
POLYLINE
  5
56A
100
AcDbEntity
  8
IMPORTED
  6
STYLE_05
 62
              30
100
AcDb2dPolyline
 66
               1
 10
0.0
 20
0.0
 30
0.0
 70
             129
  0
VERTEX
  5
56B
100
AcDbEntity
  8
IMPORTED
  6
STYLE_05
 62
              30
100
AcDbVertex
100
AcDb2dVertex
 10
4212.9302674782102
 20
757.3343620817426
 30
0.0
  0
VERTEX
  5
56C
100
AcDbEntity
  8
IMPORTED
  6
STYLE_05
 62
              30
100
AcDbVertex
100
AcDb2dVertex
 10
4510.1882373290719
 20
489.68212204068641
 30
0.0
  0
VERTEX
  5
56D
100
AcDbEntity
  8
IMPORTED
  6
STYLE_05
 62
              30
100
AcDbVertex
100
AcDb2dVertex
 10
4911.6665540893955
 20
935.56905181695583
 30
0.0
  0
VERTEX
  5
56E
100
AcDbEntity
  8
IMPORTED
  6
STYLE_05
 62
              30
100
AcDbVertex
100
AcDb2dVertex
 10
4614.4085842385366
 20
1203.2212918580099
 30
0.0
  0
VERTEX
  5
56F
100
AcDbEntity
  8
IMPORTED
  6
STYLE_05
 62
              30
100
AcDbVertex
100
AcDb2dVertex
 10
4212.9302674782102
 20
757.3343620817426
 30
0.0
  0
SEQEND
  5
570
100
AcDbEntity
  8
IMPORTED
  6
STYLE_05
 62
              30
  0
POLYLINE
  5
571
100
AcDbEntity
  8
IMPORTED
  6
CONTINUOUS
 62
              30
100
AcDb2dPolyline
 66
               1
 10
0.0
 20
0.0
 30
0.0
 70
             129
  0
VERTEX
  5
572
100
AcDbEntity
  8
IMPORTED
  6
CONTINUOUS
 62
              30
100
AcDbVertex
100
AcDb2dVertex
 10
4486.371013314204
 20
1189.4777662170104
 30
0.0
  0
VERTEX
  5
573
100
AcDbEntity
  8
IMPORTED
  6
CONTINUOUS
 62
              30
100
AcDbVertex
100
AcDb2dVertex
 10
4382.7609529116889
 20
1254.2197373456941
 30
0.0
  0
VERTEX
  5
574
100
AcDbEntity
  8
IMPORTED
  6
CONTINUOUS
 62
              30
100
AcDbVertex
100
AcDb2dVertex
 10
4382.7609529116889
 20
1254.2197373456941
 30
0.0
 42
0.4244770028417131
 70
               2
 50
91.692198116714138
  0
VERTEX
  5
575
100
AcDbEntity
  8
IMPORTED
  6
CONTINUOUS
 62
              30
100
AcDbVertex
100
AcDb2dVertex
 10
4374.3852831217346
 20
1252.1314247853618
 30
0.0
  0
VERTEX
  5
576
100
AcDbEntity
  8
IMPORTED
  6
CONTINUOUS
 62
              30
100
AcDbVertex
100
AcDb2dVertex
 10
4374.3852831217346
 20
1252.1314247853618
 30
0.0
  0
VERTEX
  5
577
100
AcDbEntity
  8
IMPORTED
  6
CONTINUOUS
 62
              30
100
AcDbVertex
100
AcDb2dVertex
 10
4155.3908836071296
 20
872.81708416281481
 30
0.0
  0
VERTEX
  5
578
100
AcDbEntity
  8
IMPORTED
  6
CONTINUOUS
 62
              30
100
AcDbVertex
100
AcDb2dVertex
 10
4155.3908836071296
 20
872.81708416281481
 30
0.0
 42
0.4040243828281714
 70
               2
 50
-33.079602062651716
  0
VERTEX
  5
579
100
AcDbEntity
  8
IMPORTED
  6
CONTINUOUS
 62
              30
100
AcDbVertex
100
AcDb2dVertex
 10
4157.4075139500765
 20
864.72877183267406
 30
0.0
  0
VERTEX
  5
57A
100
AcDbEntity
  8
IMPORTED
  6
CONTINUOUS
 62
              30
100
AcDbVertex
100
AcDb2dVertex
 10
4157.4075139500765
 20
864.72877183267406
 30
0.0
  0
VERTEX
  5
57B
100
AcDbEntity
  8
IMPORTED
  6
CONTINUOUS
 62
              30
100
AcDbVertex
100
AcDb2dVertex
 10
4235.0914143248037
 20
816.18704772011802
 30
0.0
  0
VERTEX
  5
57C
100
AcDbEntity
  8
IMPORTED
  6
CONTINUOUS
 62
              30
100
AcDbVertex
100
AcDb2dVertex
 10
4235.0914143248037
 20
816.18704772011802
 30
0.0
 42
0.404025816906459
 70
               2
 50
91.693198289740948
  0
VERTEX
  5
57D
100
AcDbEntity
  8
IMPORTED
  6
CONTINUOUS
 62
              30
100
AcDbVertex
100
AcDb2dVertex
 10
4243.2451277848977
 20
817.92019977077257
 30
0.0
  0
VERTEX
  5
57E
100
AcDbEntity
  8
IMPORTED
  6
CONTINUOUS
 62
              30
100
AcDbVertex
100
AcDb2dVertex
 10
4243.2451277848977
 20
817.92019977077257
 30
0.0
  0
VERTEX
  5
57F
100
AcDbEntity
  8
IMPORTED
  6
CONTINUOUS
 62
              30
100
AcDbVertex
100
AcDb2dVertex
 10
4488.1657739298489
 20
1181.0343433771588
 30
0.0
  0
VERTEX
  5
580
100
AcDbEntity
  8
IMPORTED
  6
CONTINUOUS
 62
              30
100
AcDbVertex
100
AcDb2dVertex
 10
4488.1657739298489
 20
1181.0343433771588
 30
0.0
 42
0.4244740781733458
 70
               2
 50
-38.645860951061863
  0
VERTEX
  5
581
100
AcDbEntity
  8
IMPORTED
  6
CONTINUOUS
 62
              30
100
AcDbVertex
100
AcDb2dVertex
 10
4486.371013314204
 20
1189.4777662170104
 30
0.0
  0
SEQEND
  5
582
100
AcDbEntity
  8
IMPORTED
  6
CONTINUOUS
 62
              30
  0
POLYLINE
  5
583
100
AcDbEntity
  8
IMPORTED
  6
CONTINUOUS
 62
              30
100
AcDb2dPolyline
 66
               1
 10
0.0
 20
0.0
 30
0.0
 70
             129
  0
VERTEX
  5
584
100
AcDbEntity
  8
IMPORTED
  6
CONTINUOUS
 62
              30
100
AcDbVertex
100
AcDb2dVertex
 10
4500.811979580194
 20
1179.7372669841916
 30
0.0
  0
VERTEX
  5
585
100
AcDbEntity
  8
IMPORTED
  6
CONTINUOUS
 62
              30
100
AcDbVertex
100
AcDb2dVertex
 10
4599.6535855773245
 20
1107.9254983058061
 30
0.0
  0
VERTEX
  5
586
100
AcDbEntity
  8
IMPORTED
  6
CONTINUOUS
 62
              30
100
AcDbVertex
100
AcDb2dVertex
 10
4599.6536252586038
 20
1107.9254694763767
 30
0.0
 42
-0.4244728197102781
 70
               2
 50
78.86281081746607
  0
VERTEX
  5
587
100
AcDbEntity
  8
IMPORTED
  6
CONTINUOUS
 62
              30
100
AcDbVertex
100
AcDb2dVertex
 10
4600.8551030393164
 20
1099.3774446756361
 30
0.0
  0
VERTEX
  5
588
100
AcDbEntity
  8
IMPORTED
  6
CONTINUOUS
 62
              30
100
AcDbVertex
100
AcDb2dVertex
 10
4600.8550891719497
 20
1099.3774269255412
 30
0.0
  0
VERTEX
  5
589
100
AcDbEntity
  8
IMPORTED
  6
CONTINUOUS
 62
              30
100
AcDbVertex
100
AcDb2dVertex
 10
4600.8550891719497
 20
1099.3774269255412
 30
0.0
  0
VERTEX
  5
58A
100
AcDbEntity
  8
IMPORTED
  6
CONTINUOUS
 62
              30
100
AcDbVertex
100
AcDb2dVertex
 10
4331.2013971937249
 20
754.23259664518935
 30
0.0
  0
VERTEX
  5
58B
100
AcDbEntity
  8
IMPORTED
  6
CONTINUOUS
 62
              30
100
AcDbVertex
100
AcDb2dVertex
 10
4331.2013971937249
 20
754.23259664518935
 30
0.0
 42
-0.4040298675715541
 70
               2
 50
-44.763022927653545
  0
VERTEX
  5
58C
100
AcDbEntity
  8
IMPORTED
  6
CONTINUOUS
 62
              30
100
AcDbVertex
100
AcDb2dVertex
 10
4322.9466730076438
 20
753.07240072133288
 30
0.0
  0
VERTEX
  5
58D
100
AcDbEntity
  8
IMPORTED
  6
CONTINUOUS
 62
              30
100
AcDbVertex
100
AcDb2dVertex
 10
4322.9466730076438
 20
753.07240072133288
 30
0.0
  0
VERTEX
  5
58E
100
AcDbEntity
  8
IMPORTED
  6
CONTINUOUS
 62
              30
100
AcDbVertex
100
AcDb2dVertex
 10
4248.838062843819
 20
806.91494267624353
 30
0.0
  0
VERTEX
  5
58F
100
AcDbEntity
  8
IMPORTED
  6
CONTINUOUS
 62
              30
100
AcDbVertex
100
AcDb2dVertex
 10
4248.838062843819
 20
806.91494267624353
 30
0.0
 42
-0.4040264539158543
 70
               2
 50
78.861842169313647
  0
VERTEX
  5
590
100
AcDbEntity
  8
IMPORTED
  6
CONTINUOUS
 62
              30
100
AcDbVertex
100
AcDb2dVertex
 10
4247.3905044029407
 20
815.12419342160661
 30
0.0
  0
VERTEX
  5
591
100
AcDbEntity
  8
IMPORTED
  6
CONTINUOUS
 62
              30
100
AcDbVertex
100
AcDb2dVertex
 10
4247.3905044029407
 20
815.12419342160661
 30
0.0
  0
VERTEX
  5
592
100
AcDbEntity
  8
IMPORTED
  6
CONTINUOUS
 62
              30
100
AcDbVertex
100
AcDb2dVertex
 10
4492.3110639453334
 20
1178.238287028026
 30
0.0
  0
VERTEX
  5
593
100
AcDbEntity
  8
IMPORTED
  6
CONTINUOUS
 62
              30
100
AcDbVertex
100
AcDb2dVertex
 10
4492.3110639453334
 20
1178.238287028026
 30
0.0
 42
-0.4244705653344809
 70
               2
 50
-38.64671926852008
  0
VERTEX
  5
594
100
AcDbEntity
  8
IMPORTED
  6
CONTINUOUS
 62
              30
100
AcDbVertex
100
AcDb2dVertex
 10
4500.811979580194
 20
1179.7372669841916
 30
0.0
  0
SEQEND
  5
595
100
AcDbEntity
  8
IMPORTED
  6
CONTINUOUS
 62
              30
  0
POLYLINE
  5
596
100
AcDbEntity
  8
IMPORTED
  6
CONTINUOUS
 62
              30
100
AcDb2dPolyline
 66
               1
 10
0.0
 20
0.0
 30
0.0
 70
             129
  0
VERTEX
  5
597
100
AcDbEntity
  8
IMPORTED
  6
CONTINUOUS
 62
              30
100
AcDbVertex
100
AcDb2dVertex
 10
4613.3800436544825
 20
1097.2013631809564
 30
0.0
  0
VERTEX
  5
598
100
AcDbEntity
  8
IMPORTED
  6
CONTINUOUS
 62
              30
100
AcDbVertex
100
AcDb2dVertex
 10
4706.9714440270109
 20
1018.6698149563797
 30
0.0
  0
VERTEX
  5
599
100
AcDbEntity
  8
IMPORTED
  6
CONTINUOUS
 62
              30
100
AcDbVertex
100
AcDb2dVertex
 10
4706.9714440270109
 20
1018.6698149563797
 30
0.0
 42
-0.4244777815594694
 70
               2
 50
68.284153236065706
  0
VERTEX
  5
59A
100
AcDbEntity
  8
IMPORTED
  6
CONTINUOUS
 62
              30
100
AcDbVertex
100
AcDb2dVertex
 10
4707.5736506128151
 20
1010.0587566312947
 30
0.0
  0
VERTEX
  5
59B
100
AcDbEntity
  8
IMPORTED
  6
CONTINUOUS
 62
              30
100
AcDbVertex
100
AcDb2dVertex
 10
4707.5736506128151
 20
1010.0587566312947
 30
0.0
  0
VERTEX
  5
59C
100
AcDbEntity
  8
IMPORTED
  6
CONTINUOUS
 62
              30
100
AcDbVertex
100
AcDb2dVertex
 10
4414.5010045120544
 20
684.56476667817856
 30
0.0
  0
VERTEX
  5
59D
100
AcDbEntity
  8
IMPORTED
  6
CONTINUOUS
 62
              30
100
AcDbVertex
100
AcDb2dVertex
 10
4414.5010045120544
 20
684.56476667817856
 30
0.0
 42
-0.404029487527191
 70
               2
 50
-51.588374544342422
  0
VERTEX
  5
59E
100
AcDbEntity
  8
IMPORTED
  6
CONTINUOUS
 62
              30
100
AcDbVertex
100
AcDb2dVertex
 10
4406.1853821573523
 20
683.98324988221498
 30
0.0
  0
VERTEX
  5
59F
100
AcDbEntity
  8
IMPORTED
  6
CONTINUOUS
 62
              30
100
AcDbVertex
100
AcDb2dVertex
 10
4406.1853821573523
 20
683.98324988221498
 30
0.0
  0
VERTEX
  5
5A0
100
AcDbEntity
  8
IMPORTED
  6
CONTINUOUS
 62
              30
100
AcDbVertex
100
AcDb2dVertex
 10
4336.0131591124455
 20
742.86397117692991
 30
0.0
  0
VERTEX
  5
5A1
100
AcDbEntity
  8
IMPORTED
  6
CONTINUOUS
 62
              30
100
AcDbVertex
100
AcDb2dVertex
 10
4336.0131397654668
 20
742.86398741049709
 30
0.0
 42
-0.4040263276015722
 70
               2
 50
68.284450717974181
  0
VERTEX
  5
5A2
100
AcDbEntity
  8
IMPORTED
  6
CONTINUOUS
 62
              30
100
AcDbVertex
100
AcDb2dVertex
 10
4335.1416826516788
 20
751.15421201039351
 30
0.0
  0
VERTEX
  5
5A3
100
AcDbEntity
  8
IMPORTED
  6
CONTINUOUS
 62
              30
100
AcDbVertex
100
AcDb2dVertex
 10
4335.1416848052777
 20
751.15421476695462
 30
0.0
  0
VERTEX
  5
5A4
100
AcDbEntity
  8
IMPORTED
  6
CONTINUOUS
 62
              30
100
AcDbVertex
100
AcDb2dVertex
 10
4335.1416848052777
 20
751.15421476695462
 30
0.0
  0
VERTEX
  5
5A5
100
AcDbEntity
  8
IMPORTED
  6
CONTINUOUS
 62
              30
100
AcDbVertex
100
AcDb2dVertex
 10
4604.7952401809762
 20
1096.2990816498993
 30
0.0
  0
VERTEX
  5
5A6
100
AcDbEntity
  8
IMPORTED
  6
CONTINUOUS
 62
              30
100
AcDbVertex
100
AcDb2dVertex
 10
4604.7952401809762
 20
1096.2990816498993
 30
0.0
 42
-0.4244774287388699
 70
               2
 50
-44.764148358264947
  0
VERTEX
  5
5A7
100
AcDbEntity
  8
IMPORTED
  6
CONTINUOUS
 62
              30
100
AcDbVertex
100
AcDb2dVertex
 10
4613.3800436544825
 20
1097.2013631809564
 30
0.0
  0
SEQEND
  5
5A8
100
AcDbEntity
  8
IMPORTED
  6
CONTINUOUS
 62
              30
  0
POLYLINE
  5
5A9
100
AcDbEntity
  8
IMPORTED
  6
CONTINUOUS
 62
              30
100
AcDb2dPolyline
 66
               1
 10
0.0
 20
0.0
 30
0.0
 70
             129
  0
VERTEX
  5
5AA
100
AcDbEntity
  8
IMPORTED
  6
CONTINUOUS
 62
              30
100
AcDbVertex
100
AcDb2dVertex
 10
4807.8016532439706
 20
922.14526737083588
 30
0.0
  0
VERTEX
  5
5AB
100
AcDbEntity
  8
IMPORTED
  6
CONTINUOUS
 62
              30
100
AcDbVertex
100
AcDb2dVertex
 10
4719.9162811223523
 20
1007.0142867669297
 30
0.0
  0
VERTEX
  5
5AC
100
AcDbEntity
  8
IMPORTED
  6
CONTINUOUS
 62
              30
100
AcDbVertex
100
AcDb2dVertex
 10
4719.9162811223523
 20
1007.0142867669297
 30
0.0
 42
0.4244723162700962
 70
               2
 50
59.333550422756367
  0
VERTEX
  5
5AD
100
AcDbEntity
  8
IMPORTED
  6
CONTINUOUS
 62
              30
100
AcDbVertex
100
AcDb2dVertex
 10
4711.2894951873168
 20
1006.7129214055037
 30
0.0
  0
VERTEX
  5
5AE
100
AcDbEntity
  8
IMPORTED
  6
CONTINUOUS
 62
              30
100
AcDbVertex
100
AcDb2dVertex
 10
4711.2894951873168
 20
1006.7129214055037
 30
0.0
  0
VERTEX
  5
5AF
100
AcDbEntity
  8
IMPORTED
  6
CONTINUOUS
 62
              30
100
AcDbVertex
100
AcDb2dVertex
 10
4418.2167624839967
 20
681.21888145242065
 30
0.0
  0
VERTEX
  5
5B0
100
AcDbEntity
  8
IMPORTED
  6
CONTINUOUS
 62
              30
100
AcDbVertex
100
AcDb2dVertex
 10
4418.2167624839967
 20
681.21888145242065
 30
0.0
 42
0.4040287669068264
 70
               2
 50
-51.588880074446301
  0
VERTEX
  5
5B1
100
AcDbEntity
  8
IMPORTED
  6
CONTINUOUS
 62
              30
100
AcDbVertex
100
AcDb2dVertex
 10
4418.5077554894988
 20
672.88806116443277
 30
0.0
  0
VERTEX
  5
5B2
100
AcDbEntity
  8
IMPORTED
  6
CONTINUOUS
 62
              30
100
AcDbVertex
100
AcDb2dVertex
 10
4418.5077554894988
 20
672.88806116443277
 30
0.0
  0
VERTEX
  5
5B3
100
AcDbEntity
  8
IMPORTED
  6
CONTINUOUS
 62
              30
100
AcDbVertex
100
AcDb2dVertex
 10
4484.4017994457081
 20
609.25576190708045
 30
0.0
  0
VERTEX
  5
5B4
100
AcDbEntity
  8
IMPORTED
  6
CONTINUOUS
 62
              30
100
AcDbVertex
100
AcDb2dVertex
 10
4484.4017994457081
 20
609.25576190708045
 30
0.0
 42
0.4040278339196675
 70
               2
 50
59.331751433782912
  0
VERTEX
  5
5B5
100
AcDbEntity
  8
IMPORTED
  6
CONTINUOUS
 62
              30
100
AcDbVertex
100
AcDb2dVertex
 10
4492.7376734381842
 20
609.25580144539128
 30
0.0
  0
VERTEX
  5
5B6
100
AcDbEntity
  8
IMPORTED
  6
CONTINUOUS
 62
              30
100
AcDbVertex
100
AcDb2dVertex
 10
4492.7376734381842
 20
609.25580144539128
 30
0.0
  0
VERTEX
  5
5B7
100
AcDbEntity
  8
IMPORTED
  6
CONTINUOUS
 62
              30
100
AcDbVertex
100
AcDb2dVertex
 10
4807.8016843069463
 20
913.51320786229235
 30
0.0
  0
VERTEX
  5
5B8
100
AcDbEntity
  8
IMPORTED
  6
CONTINUOUS
 62
              30
100
AcDbVertex
100
AcDb2dVertex
 10
4807.8016843069463
 20
913.51320786229235
 30
0.0
 42
0.424477054108065
 70
               2
 50
-59.331539562185398
  0
VERTEX
  5
5B9
100
AcDbEntity
  8
IMPORTED
  6
CONTINUOUS
 62
              30
100
AcDbVertex
100
AcDb2dVertex
 10
4807.8016532439706
 20
922.14526737083588
 30
0.0
  0
SEQEND
  5
5BA
100
AcDbEntity
  8
IMPORTED
  6
CONTINUOUS
 62
              30
  0
POLYLINE
  5
5BB
100
AcDbEntity
  8
IMPORTED
  6
CONTINUOUS
 62
              30
100
AcDb2dPolyline
 66
               1
 10
0.0
 20
0.0
 30
0.0
 70
             129
  0
VERTEX
  5
5BC
100
AcDbEntity
  8
IMPORTED
  6
CONTINUOUS
 62
              30
100
AcDbVertex
100
AcDb2dVertex
 10
4901.6531551836752
 20
818.82259353033055
 30
0.0
  0
VERTEX
  5
5BD
100
AcDbEntity
  8
IMPORTED
  6
CONTINUOUS
 62
              30
100
AcDbVertex
100
AcDb2dVertex
 10
4819.9020393213013
 20
909.61537099338921
 30
0.0
  0
VERTEX
  5
5BE
100
AcDbEntity
  8
IMPORTED
  6
CONTINUOUS
 62
              30
100
AcDbVertex
100
AcDb2dVertex
 10
4819.9020248379211
 20
909.61538707827049
 30
0.0
 42
0.4244744277927515
 70
               2
 50
51.591088272155119
  0
VERTEX
  5
5BF
100
AcDbEntity
  8
IMPORTED
  6
CONTINUOUS
 62
              30
100
AcDbVertex
100
AcDb2dVertex
 10
4811.2752063025537
 20
909.91650332239249
 30
0.0
  0
VERTEX
  5
5C0
100
AcDbEntity
  8
IMPORTED
  6
CONTINUOUS
 62
              30
100
AcDbVertex
100
AcDb2dVertex
 10
4811.2752004678168
 20
909.9164976876782
 30
0.0
  0
VERTEX
  5
5C1
100
AcDbEntity
  8
IMPORTED
  6
CONTINUOUS
 62
              30
100
AcDbVertex
100
AcDb2dVertex
 10
4811.2752004678168
 20
909.9164976876782
 30
0.0
  0
VERTEX
  5
5C2
100
AcDbEntity
  8
IMPORTED
  6
CONTINUOUS
 62
              30
100
AcDbVertex
100
AcDb2dVertex
 10
4496.2111895990547
 20
605.65909127077725
 30
0.0
  0
VERTEX
  5
5C3
100
AcDbEntity
  8
IMPORTED
  6
CONTINUOUS
 62
              30
100
AcDbVertex
100
AcDb2dVertex
 10
4496.2111895990547
 20
605.65909127077725
 30
0.0
 42
0.4040301438744454
 70
               2
 50
-59.332495679424945
  0
VERTEX
  5
5C4
100
AcDbEntity
  8
IMPORTED
  6
CONTINUOUS
 62
              30
100
AcDbVertex
100
AcDb2dVertex
 10
4495.920255801022
 20
597.32819799483354
 30
0.0
  0
VERTEX
  5
5C5
100
AcDbEntity
  8
IMPORTED
  6
CONTINUOUS
 62
              30
100
AcDbVertex
100
AcDb2dVertex
 10
4495.920255801022
 20
597.32819799483354
 30
0.0
  0
VERTEX
  5
5C6
100
AcDbEntity
  8
IMPORTED
  6
CONTINUOUS
 62
              30
100
AcDbVertex
100
AcDb2dVertex
 10
4557.2149630596577
 20
529.2543823981722
 30
0.0
  0
VERTEX
  5
5C7
100
AcDbEntity
  8
IMPORTED
  6
CONTINUOUS
 62
              30
100
AcDbVertex
100
AcDb2dVertex
 10
4557.2149630596577
 20
529.2543823981722
 30
0.0
 42
0.4040281278854686
 70
               2
 50
51.589937031975083
  0
VERTEX
  5
5C8
100
AcDbEntity
  8
IMPORTED
  6
CONTINUOUS
 62
              30
100
AcDbVertex
100
AcDb2dVertex
 10
4565.5305411982463
 20
528.67297501000132
 30
0.0
  0
VERTEX
  5
5C9
100
AcDbEntity
  8
IMPORTED
  6
CONTINUOUS
 62
              30
100
AcDbVertex
100
AcDb2dVertex
 10
4565.5305411982463
 20
528.67297501000132
 30
0.0
  0
VERTEX
  5
5CA
100
AcDbEntity
  8
IMPORTED
  6
CONTINUOUS
 62
              30
100
AcDbVertex
100
AcDb2dVertex
 10
4901.0509972733398
 20
810.21155616303145
 30
0.0
  0
VERTEX
  5
5CB
100
AcDbEntity
  8
IMPORTED
  6
CONTINUOUS
 62
              30
100
AcDbVertex
100
AcDb2dVertex
 10
4901.0509972733398
 20
810.21155616303145
 30
0.0
 42
0.424474874369403
 70
               2
 50
-68.282713455782442
  0
VERTEX
  5
5CC
100
AcDbEntity
  8
IMPORTED
  6
CONTINUOUS
 62
              30
100
AcDbVertex
100
AcDb2dVertex
 10
4901.6531551836752
 20
818.82259353033055
 30
0.0
  0
SEQEND
  5
5CD
100
AcDbEntity
  8
IMPORTED
  6
CONTINUOUS
 62
              30
  0
POLYLINE
  5
5CE
100
AcDbEntity
  8
IMPORTED
  6
CONTINUOUS
 62
              30
100
AcDb2dPolyline
 66
               1
 10
0.0
 20
0.0
 30
0.0
 70
             129
  0
VERTEX
  5
5CF
100
AcDbEntity
  8
IMPORTED
  6
CONTINUOUS
 62
              30
100
AcDbVertex
100
AcDb2dVertex
 10
4988.068586162075
 20
709.20457108006235
 30
0.0
  0
VERTEX
  5
5D0
100
AcDbEntity
  8
IMPORTED
  6
CONTINUOUS
 62
              30
100
AcDbVertex
100
AcDb2dVertex
 10
4912.8498537326423
 20
805.47892967314533
 30
0.0
  0
VERTEX
  5
5D1
100
AcDbEntity
  8
IMPORTED
  6
CONTINUOUS
 62
              30
100
AcDbVertex
100
AcDb2dVertex
 10
4912.8498537326423
 20
805.47892967314533
 30
0.0
 42
0.4244758811984844
 70
               2
 50
44.764251518708036
  0
VERTEX
  5
5D2
100
AcDbEntity
  8
IMPORTED
  6
CONTINUOUS
 62
              30
100
AcDbVertex
100
AcDb2dVertex
 10
4904.2650656696587
 20
806.38122264311687
 30
0.0
  0
VERTEX
  5
5D3
100
AcDbEntity
  8
IMPORTED
  6
CONTINUOUS
 62
              30
100
AcDbVertex
100
AcDb2dVertex
 10
4904.2650656696587
 20
806.38122264311687
 30
0.0
  0
VERTEX
  5
5D4
100
AcDbEntity
  8
IMPORTED
  6
CONTINUOUS
 62
              30
100
AcDbVertex
100
AcDb2dVertex
 10
4568.7445729919727
 20
524.84250488756038
 30
0.0
  0
VERTEX
  5
5D5
100
AcDbEntity
  8
IMPORTED
  6
CONTINUOUS
 62
              30
100
AcDbVertex
100
AcDb2dVertex
 10
4568.7445387368734
 20
524.84247614353956
 30
0.0
 42
0.4040241667759248
 70
               2
 50
-68.281075339079564
  0
VERTEX
  5
5D6
100
AcDbEntity
  8
IMPORTED
  6
CONTINUOUS
 62
              30
100
AcDbVertex
100
AcDb2dVertex
 10
4567.8732559651135
 20
516.55226546544054
 30
0.0
  0
VERTEX
  5
5D7
100
AcDbEntity
  8
IMPORTED
  6
CONTINUOUS
 62
              30
100
AcDbVertex
100
AcDb2dVertex
 10
4567.8732551572102
 20
516.55226649950282
 30
0.0
  0
VERTEX
  5
5D8
100
AcDbEntity
  8
IMPORTED
  6
CONTINUOUS
 62
              30
100
AcDbVertex
100
AcDb2dVertex
 10
4567.8732551572102
 20
516.55226649950282
 30
0.0
  0
VERTEX
  5
5D9
100
AcDbEntity
  8
IMPORTED
  6
CONTINUOUS
 62
              30
100
AcDbVertex
100
AcDb2dVertex
 10
4624.2701452898855
 20
444.36851816365413
 30
0.0
  0
VERTEX
  5
5DA
100
AcDbEntity
  8
IMPORTED
  6
CONTINUOUS
 62
              30
100
AcDbVertex
100
AcDb2dVertex
 10
4624.2701452898855
 20
444.36851816365413
 30
0.0
 42
0.4040262449568981
 70
               2
 50
44.764409452174149
  0
VERTEX
  5
5DB
100
AcDbEntity
  8
IMPORTED
  6
CONTINUOUS
 62
              30
100
AcDbVertex
100
AcDb2dVertex
 10
4632.5249425195198
 20
443.20838603857771
 30
0.0
  0
VERTEX
  5
5DC
100
AcDbEntity
  8
IMPORTED
  6
CONTINUOUS
 62
              30
100
AcDbVertex
100
AcDb2dVertex
 10
4632.5249425195198
 20
443.20838603857771
 30
0.0
  0
VERTEX
  5
5DD
100
AcDbEntity
  8
IMPORTED
  6
CONTINUOUS
 62
              30
100
AcDbVertex
100
AcDb2dVertex
 10
4986.8672774939623
 20
700.6564935368998
 30
0.0
  0
VERTEX
  5
5DE
100
AcDbEntity
  8
IMPORTED
  6
CONTINUOUS
 62
              30
100
AcDbVertex
100
AcDb2dVertex
 10
4986.867289883945
 20
700.6565025388943
 30
0.0
 42
0.4244721719878462
 70
               2
 50
-78.859599931437344
  0
VERTEX
  5
5DF
100
AcDbEntity
  8
IMPORTED
  6
CONTINUOUS
 62
              30
100
AcDbVertex
100
AcDb2dVertex
 10
4988.0686102720347
 20
709.20454022063996
 30
0.0
  0
VERTEX
  5
5E0
100
AcDbEntity
  8
IMPORTED
  6
CONTINUOUS
 62
              30
100
AcDbVertex
100
AcDb2dVertex
 10
4988.068586162075
 20
709.20457108006235
 30
0.0
  0
SEQEND
  5
5E1
100
AcDbEntity
  8
IMPORTED
  6
CONTINUOUS
 62
              30
  0
POLYLINE
  5
5E2
100
AcDbEntity
  8
IMPORTED
  6
CONTINUOUS
 62
              30
100
AcDb2dPolyline
 66
               1
 10
0.0
 20
0.0
 30
0.0
 70
             129
  0
VERTEX
  5
5E3
100
AcDbEntity
  8
IMPORTED
  6
CONTINUOUS
 62
              30
100
AcDbVertex
100
AcDb2dVertex
 10
4998.3072764417802
 20
695.1124260901654
 30
0.0
  0
VERTEX
  5
5E4
100
AcDbEntity
  8
IMPORTED
  6
CONTINUOUS
 62
              30
100
AcDbVertex
100
AcDb2dVertex
 10
5066.6270187139689
 20
593.82586829012121
 30
0.0
  0
VERTEX
  5
5E5
100
AcDbEntity
  8
IMPORTED
  6
CONTINUOUS
 62
              30
100
AcDbVertex
100
AcDb2dVertex
 10
5066.6270187139689
 20
593.82586829012121
 30
0.0
 42
-0.4244738413752363
 70
               2
 50
38.646981591389846
  0
VERTEX
  5
5E6
100
AcDbEntity
  8
IMPORTED
  6
CONTINUOUS
 62
              30
100
AcDbVertex
100
AcDb2dVertex
 10
5064.8323527593602
 20
585.38231600974962
 30
0.0
  0
VERTEX
  5
5E7
100
AcDbEntity
  8
IMPORTED
  6
CONTINUOUS
 62
              30
100
AcDbVertex
100
AcDb2dVertex
 10
5064.8323527593602
 20
585.38231600974962
 30
0.0
  0
VERTEX
  5
5E8
100
AcDbEntity
  8
IMPORTED
  6
CONTINUOUS
 62
              30
100
AcDbVertex
100
AcDb2dVertex
 10
4693.3945550787248
 20
353.2790417748605
 30
0.0
  0
VERTEX
  5
5E9
100
AcDbEntity
  8
IMPORTED
  6
CONTINUOUS
 62
              30
100
AcDbVertex
100
AcDb2dVertex
 10
4693.3945281573906
 20
353.27902495263726
 30
0.0
 42
-0.4040244605763711
 70
               2
 50
-91.692921815579183
  0
VERTEX
  5
5EA
100
AcDbEntity
  8
IMPORTED
  6
CONTINUOUS
 62
              30
100
AcDbVertex
100
AcDb2dVertex
 10
4685.2408118138383
 20
355.01214619503344
 30
0.0
  0
VERTEX
  5
5EB
100
AcDbEntity
  8
IMPORTED
  6
CONTINUOUS
 62
              30
100
AcDbVertex
100
AcDb2dVertex
 10
4685.2408015687779
 20
355.012161383842
 30
0.0
  0
VERTEX
  5
5EC
100
AcDbEntity
  8
IMPORTED
  6
CONTINUOUS
 62
              30
100
AcDbVertex
100
AcDb2dVertex
 10
4685.2408015687779
 20
355.012161383842
 30
0.0
  0
VERTEX
  5
5ED
100
AcDbEntity
  8
IMPORTED
  6
CONTINUOUS
 62
              30
100
AcDbVertex
100
AcDb2dVertex
 10
4634.0165586053736
 20
430.9540225229797
 30
0.0
  0
VERTEX
  5
5EE
100
AcDbEntity
  8
IMPORTED
  6
CONTINUOUS
 62
              30
100
AcDbVertex
100
AcDb2dVertex
 10
4634.0165545415348
 20
430.95402854782276
 30
0.0
 42
-0.4040250150325133
 70
               2
 50
38.646789941917461
  0
VERTEX
  5
5EF
100
AcDbEntity
  8
IMPORTED
  6
CONTINUOUS
 62
              30
100
AcDbVertex
100
AcDb2dVertex
 10
4635.4640188400008
 20
439.16327843731358
 30
0.0
  0
VERTEX
  5
5F0
100
AcDbEntity
  8
IMPORTED
  6
CONTINUOUS
 62
              30
100
AcDbVertex
100
AcDb2dVertex
 10
4635.4640490568745
 20
439.16330039151455
 30
0.0
  0
VERTEX
  5
5F1
100
AcDbEntity
  8
IMPORTED
  6
CONTINUOUS
 62
              30
100
AcDbVertex
100
AcDb2dVertex
 10
4635.4640490568745
 20
439.16330039151455
 30
0.0
  0
VERTEX
  5
5F2
100
AcDbEntity
  8
IMPORTED
  6
CONTINUOUS
 62
              30
100
AcDbVertex
100
AcDb2dVertex
 10
4989.806384031318
 20
696.61140788983653
 30
0.0
  0
VERTEX
  5
5F3
100
AcDbEntity
  8
IMPORTED
  6
CONTINUOUS
 62
              30
100
AcDbVertex
100
AcDb2dVertex
 10
4989.806384031318
 20
696.61140788983653
 30
0.0
 42
-0.4244726091853491
 70
               2
 50
-78.862348760818676
  0
VERTEX
  5
5F4
100
AcDbEntity
  8
IMPORTED
  6
CONTINUOUS
 62
              30
100
AcDbVertex
100
AcDb2dVertex
 10
4998.3072764417802
 20
695.1124260901654
 30
0.0
  0
SEQEND
  5
5F5
100
AcDbEntity
  8
IMPORTED
  6
CONTINUOUS
 62
              30
  0
POLYLINE
  5
5F6
100
AcDbEntity
  8
IMPORTED
  6
STYLE_05
 62
              30
100
AcDb2dPolyline
 66
               1
 10
0.0
 20
0.0
 30
0.0
 70
             129
  0
VERTEX
  5
5F7
100
AcDbEntity
  8
IMPORTED
  6
STYLE_05
 62
              30
100
AcDbVertex
100
AcDb2dVertex
 10
5370.857187375188
 20
-342.47086194516203
 30
0.0
  0
VERTEX
  5
5F8
100
AcDbEntity
  8
IMPORTED
  6
STYLE_05
 62
              30
100
AcDbVertex
100
AcDb2dVertex
 10
5375.1221686034451
 20
-464.57072835525526
 30
0.0
  0
VERTEX
  5
5F9
100
AcDbEntity
  8
IMPORTED
  6
STYLE_05
 62
              30
100
AcDbVertex
100
AcDb2dVertex
 10
5375.1221686034451
 20
-464.57072835525526
 30
0.0
 42
-0.4244725091648682
 70
               2
 50
2.0012916045464042
  0
VERTEX
  5
5FA
100
AcDbEntity
  8
IMPORTED
  6
STYLE_05
 62
              30
100
AcDbVertex
100
AcDb2dVertex
 10
5369.125894523715
 20
-470.78020425429565
 30
0.0
  0
VERTEX
  5
5FB
100
AcDbEntity
  8
IMPORTED
  6
STYLE_05
 62
              30
100
AcDbVertex
100
AcDb2dVertex
 10
5369.125894523715
 20
-470.78020425429565
 30
0.0
  0
VERTEX
  5
5FC
100
AcDbEntity
  8
IMPORTED
  6
STYLE_05
 62
              30
100
AcDbVertex
100
AcDb2dVertex
 10
4931.1328397795678
 20
-470.78427492894195
 30
0.0
  0
VERTEX
  5
5FD
100
AcDbEntity
  8
IMPORTED
  6
STYLE_05
 62
              30
100
AcDbVertex
100
AcDb2dVertex
 10
4931.1328397795678
 20
-470.78427492894195
 30
0.0
 42
-0.4040293012044545
 70
               2
 50
-2648095.2463649134
  0
VERTEX
  5
5FE
100
AcDbEntity
  8
IMPORTED
  6
STYLE_05
 62
              30
100
AcDbVertex
100
AcDb2dVertex
 10
4925.1363846985241
 20
-464.99375502559803
 30
0.0
  0
VERTEX
  5
5FF
100
AcDbEntity
  8
IMPORTED
  6
STYLE_05
 62
              30
100
AcDbVertex
100
AcDb2dVertex
 10
4925.1363846985241
 20
-464.99375502559803
 30
0.0
  0
VERTEX
  5
600
100
AcDbEntity
  8
IMPORTED
  6
STYLE_05
 62
              30
100
AcDbVertex
100
AcDb2dVertex
 10
4921.9386042703027
 20
-373.44670942835944
 30
0.0
  0
VERTEX
  5
601
100
AcDbEntity
  8
IMPORTED
  6
STYLE_05
 62
              30
100
AcDbVertex
100
AcDb2dVertex
 10
4921.9386042703027
 20
-373.44670942835944
 30
0.0
 42
-0.4040273356738257
 70
               2
 50
2.0015970517054265
  0
VERTEX
  5
602
100
AcDbEntity
  8
IMPORTED
  6
STYLE_05
 62
              30
100
AcDbVertex
100
AcDb2dVertex
 10
4927.5163223795307
 20
-367.25187933270706
 30
0.0
  0
VERTEX
  5
603
100
AcDbEntity
  8
IMPORTED
  6
STYLE_05
 62
              30
100
AcDbVertex
100
AcDb2dVertex
 10
4927.5163223795307
 20
-367.25187933270706
 30
0.0
  0
VERTEX
  5
604
100
AcDbEntity
  8
IMPORTED
  6
STYLE_05
 62
              30
100
AcDbVertex
100
AcDb2dVertex
 10
5364.4422629254177
 20
-336.69493784388294
 30
0.0
  0
VERTEX
  5
605
100
AcDbEntity
  8
IMPORTED
  6
STYLE_05
 62
              30
100
AcDbVertex
100
AcDb2dVertex
 10
5364.4422629254177
 20
-336.69493784388294
 30
0.0
 42
-0.4244704672652598
 70
               2
 50
-819.35341578955411
  0
VERTEX
  5
606
100
AcDbEntity
  8
IMPORTED
  6
STYLE_05
 62
              30
100
AcDbVertex
100
AcDb2dVertex
 10
5370.857187375188
 20
-342.47086194516203
 30
0.0
  0
SEQEND
  5
607
100
AcDbEntity
  8
IMPORTED
  6
STYLE_05
 62
              30
  0
POLYLINE
  5
608
100
AcDbEntity
  8
IMPORTED
  6
STYLE_05
 62
              30
100
AcDb2dPolyline
 66
               1
 10
0.0
 20
0.0
 30
0.0
 70
             129
  0
VERTEX
  5
609
100
AcDbEntity
  8
IMPORTED
  6
STYLE_05
 62
              30
100
AcDbVertex
100
AcDb2dVertex
 10
5369.6418917530063
 20
-325.09438679769039
 30
0.0
  0
VERTEX
  5
60A
100
AcDbEntity
  8
IMPORTED
  6
STYLE_05
 62
              30
100
AcDbVertex
100
AcDb2dVertex
 10
5356.8700679086396
 20
-203.58935104814404
 30
0.0
  0
VERTEX
  5
60B
100
AcDbEntity
  8
IMPORTED
  6
STYLE_05
 62
              30
100
AcDbVertex
100
AcDb2dVertex
 10
5356.8700627815342
 20
-203.58930226850978
 30
0.0
 42
0.4244728197102716
 70
               2
 50
6.0222162708353792
  0
VERTEX
  5
60C
100
AcDbEntity
  8
IMPORTED
  6
STYLE_05
 62
              30
100
AcDbVertex
100
AcDb2dVertex
 10
5350.0679158369412
 20
-198.2748809645681
 30
0.0
  0
VERTEX
  5
60D
100
AcDbEntity
  8
IMPORTED
  6
STYLE_05
 62
              30
100
AcDbVertex
100
AcDb2dVertex
 10
5350.0678935312717
 20
-198.27488409934514
 30
0.0
  0
VERTEX
  5
60E
100
AcDbEntity
  8
IMPORTED
  6
STYLE_05
 62
              30
100
AcDbVertex
100
AcDb2dVertex
 10
5350.0678935312717
 20
-198.27488409934514
 30
0.0
  0
VERTEX
  5
60F
100
AcDbEntity
  8
IMPORTED
  6
STYLE_05
 62
              30
100
AcDbVertex
100
AcDb2dVertex
 10
4916.3377650311104
 20
-259.23588062969986
 30
0.0
  0
VERTEX
  5
610
100
AcDbEntity
  8
IMPORTED
  6
STYLE_05
 62
              30
100
AcDbVertex
100
AcDb2dVertex
 10
4916.3377650311104
 20
-259.23588062969986
 30
0.0
 42
0.4040295658402202
 70
               2
 50
-407.67818799241809
  0
VERTEX
  5
611
100
AcDbEntity
  8
IMPORTED
  6
STYLE_05
 62
              30
100
AcDbVertex
100
AcDb2dVertex
 10
4911.2057416932294
 20
-265.80466000104832
 30
0.0
  0
VERTEX
  5
612
100
AcDbEntity
  8
IMPORTED
  6
STYLE_05
 62
              30
100
AcDbVertex
100
AcDb2dVertex
 10
4911.2057416932294
 20
-265.80466000104832
 30
0.0
  0
VERTEX
  5
613
100
AcDbEntity
  8
IMPORTED
  6
STYLE_05
 62
              30
100
AcDbVertex
100
AcDb2dVertex
 10
4920.7818034931943
 20
-356.90572731084046
 30
0.0
  0
VERTEX
  5
614
100
AcDbEntity
  8
IMPORTED
  6
STYLE_05
 62
              30
100
AcDbVertex
100
AcDb2dVertex
 10
4920.7818034931943
 20
-356.90572731084046
 30
0.0
 42
0.4040242636119844
 70
               2
 50
6.0227727728250793
  0
VERTEX
  5
615
100
AcDbEntity
  8
IMPORTED
  6
STYLE_05
 62
              30
100
AcDbVertex
100
AcDb2dVertex
 10
4927.1675238213156
 20
-362.26387989648163
 30
0.0
  0
VERTEX
  5
616
100
AcDbEntity
  8
IMPORTED
  6
STYLE_05
 62
              30
100
AcDbVertex
100
AcDb2dVertex
 10
4927.1675238213156
 20
-362.26387989648163
 30
0.0
  0
VERTEX
  5
617
100
AcDbEntity
  8
IMPORTED
  6
STYLE_05
 62
              30
100
AcDbVertex
100
AcDb2dVertex
 10
5364.0933777654272
 20
-331.70698840898069
 30
0.0
  0
VERTEX
  5
618
100
AcDbEntity
  8
IMPORTED
  6
STYLE_05
 62
              30
100
AcDbVertex
100
AcDb2dVertex
 10
5364.0933777654272
 20
-331.70698840898069
 30
0.0
 42
0.4244766409825887
 70
               2
 50
-819.28137146269887
  0
VERTEX
  5
619
100
AcDbEntity
  8
IMPORTED
  6
STYLE_05
 62
              30
100
AcDbVertex
100
AcDb2dVertex
 10
5369.6418917530063
 20
-325.09438679769039
 30
0.0
  0
SEQEND
  5
61A
100
AcDbEntity
  8
IMPORTED
  6
STYLE_05
 62
              30
  0
POLYLINE
  5
61B
100
AcDbEntity
  8
IMPORTED
  6
STYLE_05
 62
              30
100
AcDb2dPolyline
 66
               1
 10
0.0
 20
0.0
 30
0.0
 70
             129
  0
VERTEX
  5
61C
100
AcDbEntity
  8
IMPORTED
  6
STYLE_05
 62
              30
100
AcDbVertex
100
AcDb2dVertex
 10
5354.4456664138415
 20
-186.33985821756991
 30
0.0
  0
VERTEX
  5
61D
100
AcDbEntity
  8
IMPORTED
  6
STYLE_05
 62
              30
100
AcDbVertex
100
AcDb2dVertex
 10
5333.2292576528107
 20
-66.021869996669437
 30
0.0
  0
VERTEX
  5
61E
100
AcDbEntity
  8
IMPORTED
  6
STYLE_05
 62
              30
100
AcDbVertex
100
AcDb2dVertex
 10
5333.2292576528107
 20
-66.021869996669437
 30
0.0
 42
0.4244756490058455
 70
               2
 50
10.103160632331891
  0
VERTEX
  5
61F
100
AcDbEntity
  8
IMPORTED
  6
STYLE_05
 62
              30
100
AcDbVertex
100
AcDb2dVertex
 10
5326.0728937425001
 20
-61.194921288302652
 30
0.0
  0
VERTEX
  5
620
100
AcDbEntity
  8
IMPORTED
  6
STYLE_05
 62
              30
100
AcDbVertex
100
AcDb2dVertex
 10
5326.0728937425001
 20
-61.194921288302652
 30
0.0
  0
VERTEX
  5
621
100
AcDbEntity
  8
IMPORTED
  6
STYLE_05
 62
              30
100
AcDbVertex
100
AcDb2dVertex
 10
4897.6518638129146
 20
-152.26266806055227
 30
0.0
  0
VERTEX
  5
622
100
AcDbEntity
  8
IMPORTED
  6
STYLE_05
 62
              30
100
AcDbVertex
100
AcDb2dVertex
 10
4897.6518638129146
 20
-152.26266806055227
 30
0.0
 42
0.4040235514772748
 70
               2
 50
-269.53465182956467
  0
VERTEX
  5
623
100
AcDbEntity
  8
IMPORTED
  6
STYLE_05
 62
              30
100
AcDbVertex
100
AcDb2dVertex
 10
4892.9905473143108
 20
-159.1735193416782
 30
0.0
  0
VERTEX
  5
624
100
AcDbEntity
  8
IMPORTED
  6
STYLE_05
 62
              30
100
AcDbVertex
100
AcDb2dVertex
 10
4892.9905473143108
 20
-159.1735193416782
 30
0.0
  0
VERTEX
  5
625
100
AcDbEntity
  8
IMPORTED
  6
STYLE_05
 62
              30
100
AcDbVertex
100
AcDb2dVertex
 10
4908.8979807069927
 20
-249.3845707162603
 30
0.0
  0
VERTEX
  5
626
100
AcDbEntity
  8
IMPORTED
  6
STYLE_05
 62
              30
100
AcDbVertex
100
AcDb2dVertex
 10
4908.8979850925562
 20
-249.3845955879535
 30
0.0
 42
0.4040263276015577
 70
               2
 50
10.102820400455872
  0
VERTEX
  5
627
100
AcDbEntity
  8
IMPORTED
  6
STYLE_05
 62
              30
100
AcDbVertex
100
AcDb2dVertex
 10
4915.6418746669242
 20
-254.28431137834693
 30
0.0
  0
VERTEX
  5
628
100
AcDbEntity
  8
IMPORTED
  6
STYLE_05
 62
              30
100
AcDbVertex
100
AcDb2dVertex
 10
4915.6418781309685
 20
-254.2843108915043
 30
0.0
  0
VERTEX
  5
629
100
AcDbEntity
  8
IMPORTED
  6
STYLE_05
 62
              30
100
AcDbVertex
100
AcDb2dVertex
 10
4915.6418781309685
 20
-254.2843108915043
 30
0.0
  0
VERTEX
  5
62A
100
AcDbEntity
  8
IMPORTED
  6
STYLE_05
 62
              30
100
AcDbVertex
100
AcDb2dVertex
 10
5349.3719700306774
 20
-193.32345096424964
 30
0.0
  0
VERTEX
  5
62B
100
AcDbEntity
  8
IMPORTED
  6
STYLE_05
 62
              30
100
AcDbVertex
100
AcDb2dVertex
 10
5349.3719700306774
 20
-193.32345096424964
 30
0.0
 42
0.4244745348931728
 70
               2
 50
-407.62914126861972
  0
VERTEX
  5
62C
100
AcDbEntity
  8
IMPORTED
  6
STYLE_05
 62
              30
100
AcDbVertex
100
AcDb2dVertex
 10
5354.4456664138415
 20
-186.33985821756991
 30
0.0
  0
SEQEND
  5
62D
100
AcDbEntity
  8
IMPORTED
  6
STYLE_05
 62
              30
  0
POLYLINE
  5
62E
100
AcDbEntity
  8
IMPORTED
  6
STYLE_05
 62
              30
100
AcDb2dPolyline
 66
               1
 10
0.0
 20
0.0
 30
0.0
 70
             129
  0
VERTEX
  5
62F
100
AcDbEntity
  8
IMPORTED
  6
STYLE_05
 62
              30
100
AcDbVertex
100
AcDb2dVertex
 10
5300.0496312660425
 20
69.561431962547687
 30
0.0
  0
VERTEX
  5
630
100
AcDbEntity
  8
IMPORTED
  6
STYLE_05
 62
              30
100
AcDbVertex
100
AcDb2dVertex
 10
5329.6074387601529
 20
-48.983602106159168
 30
0.0
  0
VERTEX
  5
631
100
AcDbEntity
  8
IMPORTED
  6
STYLE_05
 62
              30
100
AcDbVertex
100
AcDb2dVertex
 10
5329.6074387601529
 20
-48.983602106159168
 30
0.0
 42
-0.4244804882741555
 70
               2
 50
14.286149638009713
  0
VERTEX
  5
632
100
AcDbEntity
  8
IMPORTED
  6
STYLE_05
 62
              30
100
AcDbVertex
100
AcDb2dVertex
 10
5325.0331648344199
 20
-56.304003372644701
 30
0.0
  0
VERTEX
  5
633
100
AcDbEntity
  8
IMPORTED
  6
STYLE_05
 62
              30
100
AcDbVertex
100
AcDb2dVertex
 10
5325.0331648344199
 20
-56.304003372644701
 30
0.0
  0
VERTEX
  5
634
100
AcDbEntity
  8
IMPORTED
  6
STYLE_05
 62
              30
100
AcDbVertex
100
AcDb2dVertex
 10
4896.6120483030591
 20
-147.37180014621796
 30
0.0
  0
VERTEX
  5
635
100
AcDbEntity
  8
IMPORTED
  6
STYLE_05
 62
              30
100
AcDbVertex
100
AcDb2dVertex
 10
4896.6120483030591
 20
-147.37180014621796
 30
0.0
 42
-0.4040221919812562
 70
               2
 50
-269.55670300208385
  0
VERTEX
  5
636
100
AcDbEntity
  8
IMPORTED
  6
STYLE_05
 62
              30
100
AcDbVertex
100
AcDb2dVertex
 10
4889.5427769669432
 20
-142.95448802498683
 30
0.0
  0
VERTEX
  5
637
100
AcDbEntity
  8
IMPORTED
  6
STYLE_05
 62
              30
100
AcDbVertex
100
AcDb2dVertex
 10
4889.5427769669432
 20
-142.95448802498683
 30
0.0
  0
VERTEX
  5
638
100
AcDbEntity
  8
IMPORTED
  6
STYLE_05
 62
              30
100
AcDbVertex
100
AcDb2dVertex
 10
4867.3812866172466
 20
-54.072752650612159
 30
0.0
  0
VERTEX
  5
639
100
AcDbEntity
  8
IMPORTED
  6
STYLE_05
 62
              30
100
AcDbVertex
100
AcDb2dVertex
 10
4867.3812866172466
 20
-54.072752650612159
 30
0.0
 42
-0.4040308391746304
 70
               2
 50
14.286543343723212
  0
VERTEX
  5
63A
100
AcDbEntity
  8
IMPORTED
  6
STYLE_05
 62
              30
100
AcDbVertex
100
AcDb2dVertex
 10
4871.5491502634713
 20
-46.853631662120932
 30
0.0
  0
VERTEX
  5
63B
100
AcDbEntity
  8
IMPORTED
  6
STYLE_05
 62
              30
100
AcDbVertex
100
AcDb2dVertex
 10
4871.5491502634713
 20
-46.853631662120932
 30
0.0
  0
VERTEX
  5
63C
100
AcDbEntity
  8
IMPORTED
  6
STYLE_05
 62
              30
100
AcDbVertex
100
AcDb2dVertex
 10
5292.5739996517432
 20
73.877377204008695
 30
0.0
  0
VERTEX
  5
63D
100
AcDbEntity
  8
IMPORTED
  6
STYLE_05
 62
              30
100
AcDbVertex
100
AcDb2dVertex
 10
5292.5739996517432
 20
73.877377204008695
 30
0.0
 42
-0.4244736711263293
 70
               2
 50
-199.80706712953932
  0
VERTEX
  5
63E
100
AcDbEntity
  8
IMPORTED
  6
STYLE_05
 62
              30
100
AcDbVertex
100
AcDb2dVertex
 10
5300.0496312660425
 20
69.561431962547687
 30
0.0
  0
SEQEND
  5
63F
100
AcDbEntity
  8
IMPORTED
  6
STYLE_05
 62
              30
  0
POLYLINE
  5
640
100
AcDbEntity
  8
IMPORTED
  6
STYLE_05
 62
              30
100
AcDb2dPolyline
 66
               1
 10
0.0
 20
0.0
 30
0.0
 70
             129
  0
VERTEX
  5
641
100
AcDbEntity
  8
IMPORTED
  6
STYLE_05
 62
              30
100
AcDbVertex
100
AcDb2dVertex
 10
5257.4933406222126
 20
202.49991951422581
 30
0.0
  0
VERTEX
  5
642
100
AcDbEntity
  8
IMPORTED
  6
STYLE_05
 62
              30
100
AcDbVertex
100
AcDb2dVertex
 10
5295.2483661851002
 20
86.30555033505496
 30
0.0
  0
VERTEX
  5
643
100
AcDbEntity
  8
IMPORTED
  6
STYLE_05
 62
              30
100
AcDbVertex
100
AcDb2dVertex
 10
5295.2483728736333
 20
86.305529749739236
 30
0.0
 42
-0.4244744277927607
 70
               2
 50
18.616411000818353
  0
VERTEX
  5
644
100
AcDbEntity
  8
IMPORTED
  6
STYLE_05
 62
              30
100
AcDbVertex
100
AcDb2dVertex
 10
5291.1958515134193
 20
78.683867223778037
 30
0.0
  0
VERTEX
  5
645
100
AcDbEntity
  8
IMPORTED
  6
STYLE_05
 62
              30
100
AcDbVertex
100
AcDb2dVertex
 10
5291.1958437162784
 20
78.683864987988187
 30
0.0
  0
VERTEX
  5
646
100
AcDbEntity
  8
IMPORTED
  6
STYLE_05
 62
              30
100
AcDbVertex
100
AcDb2dVertex
 10
5291.1958437162784
 20
78.683864987988187
 30
0.0
  0
VERTEX
  5
647
100
AcDbEntity
  8
IMPORTED
  6
STYLE_05
 62
              30
100
AcDbVertex
100
AcDb2dVertex
 10
4870.1709943280066
 20
-42.047143878141554
 30
0.0
  0
VERTEX
  5
648
100
AcDbEntity
  8
IMPORTED
  6
STYLE_05
 62
              30
100
AcDbVertex
100
AcDb2dVertex
 10
4870.1709943280066
 20
-42.047143878141554
 30
0.0
 42
-0.4040282989894616
 70
               2
 50
-199.79906401942276
  0
VERTEX
  5
649
100
AcDbEntity
  8
IMPORTED
  6
STYLE_05
 62
              30
100
AcDbVertex
100
AcDb2dVertex
 10
4862.8107038911103
 20
-38.133762995256092
 30
0.0
  0
VERTEX
  5
64A
100
AcDbEntity
  8
IMPORTED
  6
STYLE_05
 62
              30
100
AcDbVertex
100
AcDb2dVertex
 10
4862.8107038911103
 20
-38.133762995256092
 30
0.0
  0
VERTEX
  5
64B
100
AcDbEntity
  8
IMPORTED
  6
STYLE_05
 62
              30
100
AcDbVertex
100
AcDb2dVertex
 10
4834.5031054782003
 20
48.985496528132245
 30
0.0
  0
VERTEX
  5
64C
100
AcDbEntity
  8
IMPORTED
  6
STYLE_05
 62
              30
100
AcDbVertex
100
AcDb2dVertex
 10
4834.5031054782003
 20
48.985496528132245
 30
0.0
 42
-0.4040268119710773
 70
               2
 50
18.616970580957414
  0
VERTEX
  5
64D
100
AcDbEntity
  8
IMPORTED
  6
STYLE_05
 62
              30
100
AcDbVertex
100
AcDb2dVertex
 10
4838.1572693173548
 20
56.47775659880611
 30
0.0
  0
VERTEX
  5
64E
100
AcDbEntity
  8
IMPORTED
  6
STYLE_05
 62
              30
100
AcDbVertex
100
AcDb2dVertex
 10
4838.1572693173548
 20
56.47775659880611
 30
0.0
  0
VERTEX
  5
64F
100
AcDbEntity
  8
IMPORTED
  6
STYLE_05
 62
              30
100
AcDbVertex
100
AcDb2dVertex
 10
5249.7348281587483
 20
206.28383852026619
 30
0.0
  0
VERTEX
  5
650
100
AcDbEntity
  8
IMPORTED
  6
STYLE_05
 62
              30
100
AcDbVertex
100
AcDb2dVertex
 10
5249.7348281587483
 20
206.28383852026619
 30
0.0
 42
-0.4244764624155001
 70
               2
 50
-157.40931621219511
  0
VERTEX
  5
651
100
AcDbEntity
  8
IMPORTED
  6
STYLE_05
 62
              30
100
AcDbVertex
100
AcDb2dVertex
 10
5257.4933406222126
 20
202.49991951422581
 30
0.0
  0
SEQEND
  5
652
100
AcDbEntity
  8
IMPORTED
  6
STYLE_05
 62
              30
  0
POLYLINE
  5
653
100
AcDbEntity
  8
IMPORTED
  6
CONTINUOUS
 62
              30
100
AcDb2dPolyline
 66
               1
 10
0.0
 20
0.0
 30
0.0
 70
             129
  0
VERTEX
  5
654
100
AcDbEntity
  8
IMPORTED
  6
CONTINUOUS
 62
              30
100
AcDbVertex
100
AcDb2dVertex
 10
5205.767131742281
 20
332.14611834781965
 30
0.0
  0
VERTEX
  5
655
100
AcDbEntity
  8
IMPORTED
  6
CONTINUOUS
 62
              30
100
AcDbVertex
100
AcDb2dVertex
 10
5251.5354940667985
 20
218.86828803256438
 30
0.0
  0
VERTEX
  5
656
100
AcDbEntity
  8
IMPORTED
  6
CONTINUOUS
 62
              30
100
AcDbVertex
100
AcDb2dVertex
 10
5251.5354940667985
 20
218.86828803256438
 30
0.0
 42
-0.4244733859983152
 70
               2
 50
23.149793898051691
  0
VERTEX
  5
657
100
AcDbEntity
  8
IMPORTED
  6
CONTINUOUS
 62
              30
100
AcDbVertex
100
AcDb2dVertex
 10
5248.0246261968596
 20
210.98244467311113
 30
0.0
  0
VERTEX
  5
658
100
AcDbEntity
  8
IMPORTED
  6
CONTINUOUS
 62
              30
100
AcDbVertex
100
AcDb2dVertex
 10
5248.0246261968596
 20
210.98244467311113
 30
0.0
  0
VERTEX
  5
659
100
AcDbEntity
  8
IMPORTED
  6
CONTINUOUS
 62
              30
100
AcDbVertex
100
AcDb2dVertex
 10
4836.4469307523668
 20
61.176399352103346
 30
0.0
  0
VERTEX
  5
65A
100
AcDbEntity
  8
IMPORTED
  6
CONTINUOUS
 62
              30
100
AcDbVertex
100
AcDb2dVertex
 10
4836.4468887319917
 20
61.176384057700744
 30
0.0
 42
-0.4040241667759316
 70
               2
 50
-157.4164199120338
  0
VERTEX
  5
65B
100
AcDbEntity
  8
IMPORTED
  6
CONTINUOUS
 62
              30
100
AcDbVertex
100
AcDb2dVertex
 10
4828.8316637652042
 20
64.566822887828422
 30
0.0
  0
VERTEX
  5
65C
100
AcDbEntity
  8
IMPORTED
  6
CONTINUOUS
 62
              30
100
AcDbVertex
100
AcDb2dVertex
 10
4828.8316642567952
 20
64.566821671140389
 30
0.0
  0
VERTEX
  5
65D
100
AcDbEntity
  8
IMPORTED
  6
CONTINUOUS
 62
              30
100
AcDbVertex
100
AcDb2dVertex
 10
4828.8316642567952
 20
64.566821671140389
 30
0.0
  0
VERTEX
  5
65E
100
AcDbEntity
  8
IMPORTED
  6
CONTINUOUS
 62
              30
100
AcDbVertex
100
AcDb2dVertex
 10
4794.515883711043
 20
149.49932396552666
 30
0.0
  0
VERTEX
  5
65F
100
AcDbEntity
  8
IMPORTED
  6
CONTINUOUS
 62
              30
100
AcDbVertex
100
AcDb2dVertex
 10
4794.515883711043
 20
149.49932396552666
 30
0.0
 42
-0.404030457164643
 70
               2
 50
23.150444334646213
  0
VERTEX
  5
660
100
AcDbEntity
  8
IMPORTED
  6
CONTINUOUS
 62
              30
100
AcDbVertex
100
AcDb2dVertex
 10
4797.6384632437466
 20
157.22830067088287
 30
0.0
  0
VERTEX
  5
661
100
AcDbEntity
  8
IMPORTED
  6
CONTINUOUS
 62
              30
100
AcDbVertex
100
AcDb2dVertex
 10
4797.6384632437466
 20
157.22830067088287
 30
0.0
  0
VERTEX
  5
662
100
AcDbEntity
  8
IMPORTED
  6
CONTINUOUS
 62
              30
100
AcDbVertex
100
AcDb2dVertex
 10
5197.7635769094741
 20
335.37967401275966
 30
0.0
  0
VERTEX
  5
663
100
AcDbEntity
  8
IMPORTED
  6
CONTINUOUS
 62
              30
100
AcDbVertex
100
AcDb2dVertex
 10
5197.7635909003284
 20
335.37968024201029
 30
0.0
 42
-0.4244721719878549
 70
               2
 50
-128.6859290948494
  0
VERTEX
  5
664
100
AcDbEntity
  8
IMPORTED
  6
CONTINUOUS
 62
              30
100
AcDbVertex
100
AcDb2dVertex
 10
5205.7671170716758
 20
332.14615465714996
 30
0.0
  0
VERTEX
  5
665
100
AcDbEntity
  8
IMPORTED
  6
CONTINUOUS
 62
              30
100
AcDbVertex
100
AcDb2dVertex
 10
5205.767131742281
 20
332.14611834781965
 30
0.0
  0
SEQEND
  5
666
100
AcDbEntity
  8
IMPORTED
  6
CONTINUOUS
 62
              30
  0
POLYLINE
  5
667
100
AcDbEntity
  8
IMPORTED
  6
CONTINUOUS
 62
              30
100
AcDb2dPolyline
 66
               1
 10
0.0
 20
0.0
 30
0.0
 70
             129
  0
VERTEX
  5
668
100
AcDbEntity
  8
IMPORTED
  6
CONTINUOUS
 62
              30
100
AcDbVertex
100
AcDb2dVertex
 10
5198.6820841646086
 20
348.05905113477399
 30
0.0
  0
VERTEX
  5
669
100
AcDbEntity
  8
IMPORTED
  6
CONTINUOUS
 62
              30
100
AcDbVertex
100
AcDb2dVertex
 10
5145.1235866152902
 20
457.86816421460787
 30
0.0
  0
VERTEX
  5
66A
100
AcDbEntity
  8
IMPORTED
  6
CONTINUOUS
 62
              30
100
AcDbVertex
100
AcDb2dVertex
 10
5145.1235866152902
 20
457.86816421460787
 30
0.0
 42
0.4244783525346261
 70
               2
 50
27.945116520253578
  0
VERTEX
  5
66B
100
AcDbEntity
  8
IMPORTED
  6
CONTINUOUS
 62
              30
100
AcDbVertex
100
AcDb2dVertex
 10
5136.9138831095352
 20
460.53559169208359
 30
0.0
  0
VERTEX
  5
66C
100
AcDbEntity
  8
IMPORTED
  6
CONTINUOUS
 62
              30
100
AcDbVertex
100
AcDb2dVertex
 10
5136.9138831095352
 20
460.53559169208359
 30
0.0
  0
VERTEX
  5
66D
100
AcDbEntity
  8
IMPORTED
  6
CONTINUOUS
 62
              30
100
AcDbVertex
100
AcDb2dVertex
 10
4750.1907170669419
 20
254.90689646111471
 30
0.0
  0
VERTEX
  5
66E
100
AcDbEntity
  8
IMPORTED
  6
CONTINUOUS
 62
              30
100
AcDbVertex
100
AcDb2dVertex
 10
4750.1906890380251
 20
254.90688155724962
 30
0.0
 42
0.4040244605763708
 70
               2
 50
-107.75316809584476
  0
VERTEX
  5
66F
100
AcDbEntity
  8
IMPORTED
  6
CONTINUOUS
 62
              30
100
AcDbVertex
100
AcDb2dVertex
 10
4747.6148760451724
 20
246.97895705724227
 30
0.0
  0
VERTEX
  5
670
100
AcDbEntity
  8
IMPORTED
  6
CONTINUOUS
 62
              30
100
AcDbVertex
100
AcDb2dVertex
 10
4747.6148840767819
 20
246.97894059047556
 30
0.0
  0
VERTEX
  5
671
100
AcDbEntity
  8
IMPORTED
  6
CONTINUOUS
 62
              30
100
AcDbVertex
100
AcDb2dVertex
 10
4747.6148840767819
 20
246.97894059047556
 30
0.0
  0
VERTEX
  5
672
100
AcDbEntity
  8
IMPORTED
  6
CONTINUOUS
 62
              30
100
AcDbVertex
100
AcDb2dVertex
 10
4787.7715706060653
 20
164.64711279928159
 30
0.0
  0
VERTEX
  5
673
100
AcDbEntity
  8
IMPORTED
  6
CONTINUOUS
 62
              30
100
AcDbVertex
100
AcDb2dVertex
 10
4787.7715737919107
 20
164.64710626751943
 30
0.0
 42
0.4040250150325056
 70
               2
 50
27.945821794996409
  0
VERTEX
  5
674
100
AcDbEntity
  8
IMPORTED
  6
CONTINUOUS
 62
              30
100
AcDbVertex
100
AcDb2dVertex
 10
4795.6047673823068
 20
161.79613891961552
 30
0.0
  0
VERTEX
  5
675
100
AcDbEntity
  8
IMPORTED
  6
CONTINUOUS
 62
              30
100
AcDbVertex
100
AcDb2dVertex
 10
4795.6048015034121
 20
161.79615411160322
 30
0.0
  0
VERTEX
  5
676
100
AcDbEntity
  8
IMPORTED
  6
CONTINUOUS
 62
              30
100
AcDbVertex
100
AcDb2dVertex
 10
4795.6048015034121
 20
161.79615411160322
 30
0.0
  0
VERTEX
  5
677
100
AcDbEntity
  8
IMPORTED
  6
CONTINUOUS
 62
              30
100
AcDbVertex
100
AcDb2dVertex
 10
5195.7299151691404
 20
339.94752745348012
 30
0.0
  0
VERTEX
  5
678
100
AcDbEntity
  8
IMPORTED
  6
CONTINUOUS
 62
              30
100
AcDbVertex
100
AcDb2dVertex
 10
5195.7299151691404
 20
339.94752745348012
 30
0.0
 42
0.424472944682763
 70
               2
 50
-128.68038577661034
  0
VERTEX
  5
679
100
AcDbEntity
  8
IMPORTED
  6
CONTINUOUS
 62
              30
100
AcDbVertex
100
AcDb2dVertex
 10
5198.6820841646086
 20
348.05905113477399
 30
0.0
  0
SEQEND
  5
67A
100
AcDbEntity
  8
IMPORTED
  6
CONTINUOUS
 62
              30
  0
POINT
  5
67B
100
AcDbEntity
  8
IMPORTED
  6
CONTINUOUS
 62
               1
100
AcDbPoint
 10
3375.3352704049016
 20
-473.29815314158759
 30
0.0
  0
POLYLINE
  5
67C
100
AcDbEntity
  8
IMPORTED
  6
CONTINUOUS
 62
              30
100
AcDb2dPolyline
 66
               1
 10
0.0
 20
0.0
 30
0.0
 70
               1
 75
               5
  0
VERTEX
  5
67D
100
AcDbEntity
  8
IMPORTED
  6
CONTINUOUS
 62
              30
100
AcDbVertex
100
AcDb2dVertex
 10
6662.3795821575486
 20
337.88984785741707
 30
0.0
  0
VERTEX
  5
67E
100
AcDbEntity
  8
IMPORTED
  6
CONTINUOUS
 62
              30
100
AcDbVertex
100
AcDb2dVertex
 10
6667.1890221575486
 20
337.88984785741707
 30
0.0
  0
VERTEX
  5
67F
100
AcDbEntity
  8
IMPORTED
  6
CONTINUOUS
 62
              30
100
AcDbVertex
100
AcDb2dVertex
 10
6667.769582157548
 20
338.89539785741692
 30
0.0
  0
VERTEX
  5
680
100
AcDbEntity
  8
IMPORTED
  6
CONTINUOUS
 62
              30
100
AcDbVertex
100
AcDb2dVertex
 10
6667.769582157548
 20
351.89539785741692
 30
0.0
  0
VERTEX
  5
681
100
AcDbEntity
  8
IMPORTED
  6
CONTINUOUS
 62
              30
100
AcDbVertex
100
AcDb2dVertex
 10
6667.1890221575486
 20
352.90094785741701
 30
0.0
  0
VERTEX
  5
682
100
AcDbEntity
  8
IMPORTED
  6
CONTINUOUS
 62
              30
100
AcDbVertex
100
AcDb2dVertex
 10
6662.3795821575486
 20
352.90094785741701
 30
0.0
  0
SEQEND
  5
683
100
AcDbEntity
  8
IMPORTED
  6
CONTINUOUS
 62
              30
  0
SPLINE
  5
685
100
AcDbEntity
  8
IMPORTED
  6
CONTINUOUS
 62
              30
100
AcDbSpline
210
0.0
220
0.0
230
1.0
 70
               8
 71
               2
 72
              10
 73
               7
 74
               0
 42
0.000001
 43
0.000001
 40
0.0
 40
0.0
 40
0.0
 40
1.0
 40
1.0
 40
2.0
 40
2.0
 40
3.0
 40
3.0
 40
3.0
 10
6667.1890221575486
 20
337.88984785741707
 30
0.0
 10
6668.347753021746
 20
339.76623785741685
 30
0.0
 10
6667.1890221575486
 20
341.6426278574171
 30
0.0
 10
6668.347753021746
 20
345.39540785741724
 30
0.0
 10
6667.1890221575486
 20
349.14818785741693
 30
0.0
 10
6668.347753021746
 20
351.02457785741717
 30
0.0
 10
6667.1890221575486
 20
352.90096785741696
 30
0.0
  0
LINE
  5
686
100
AcDbEntity
  8
IMPORTED
  6
CONTINUOUS
 62
              30
100
AcDbLine
 10
6662.3795821575486
 20
349.14817785741695
 30
0.0
 11
6667.1890221575486
 21
349.14817785741695
 31
0.0
  0
LINE
  5
687
100
AcDbEntity
  8
IMPORTED
  6
CONTINUOUS
 62
              30
100
AcDbLine
 10
6667.1890221575486
 20
341.6426278574171
 30
0.0
 11
6662.3795821575486
 21
341.6426278574171
 31
0.0
  0
POLYLINE
  5
688
100
AcDbEntity
  8
IMPORTED
  6
STYLE_05
 62
              30
100
AcDb2dPolyline
 66
               1
 10
0.0
 20
0.0
 30
0.0
 70
               1
 75
               5
  0
VERTEX
  5
689
100
AcDbEntity
  8
IMPORTED
  6
STYLE_05
 62
              30
100
AcDbVertex
100
AcDb2dVertex
 10
6662.3795821575486
 20
341.39539785741692
 30
0.0
  0
VERTEX
  5
68A
100
AcDbEntity
  8
IMPORTED
  6
STYLE_05
 62
              30
100
AcDbVertex
100
AcDb2dVertex
 10
6638.462122157548
 20
341.39539785741692
 30
0.0
  0
VERTEX
  5
68B
100
AcDbEntity
  8
IMPORTED
  6
STYLE_05
 62
              30
100
AcDbVertex
100
AcDb2dVertex
 10
6637.3795821575486
 20
342.47793785741703
 30
0.0
  0
VERTEX
  5
68C
100
AcDbEntity
  8
IMPORTED
  6
STYLE_05
 62
              30
100
AcDbVertex
100
AcDb2dVertex
 10
6637.3795821575486
 20
348.31286785741702
 30
0.0
  0
VERTEX
  5
68D
100
AcDbEntity
  8
IMPORTED
  6
STYLE_05
 62
              30
100
AcDbVertex
100
AcDb2dVertex
 10
6638.462122157548
 20
349.39540785741713
 30
0.0
  0
VERTEX
  5
68E
100
AcDbEntity
  8
IMPORTED
  6
STYLE_05
 62
              30
100
AcDbVertex
100
AcDb2dVertex
 10
6662.3795821575486
 20
349.39540785741713
 30
0.0
  0
SEQEND
  5
68F
100
AcDbEntity
  8
IMPORTED
  6
STYLE_05
 62
              30
  0
LINE
  5
691
100
AcDbEntity
  8
IMPORTED
  6
CONTINUOUS
 62
              30
100
AcDbLine
 10
6638.462122157548
 20
341.39539785741692
 30
0.0
 11
6638.462122157548
 21
349.39539785741692
 31
0.0
  0
LINE
  5
692
100
AcDbEntity
  8
IMPORTED
  6
CONTINUOUS
 62
              30
100
AcDbLine
 10
6659.8795821575486
 20
341.39539785741692
 30
0.0
 11
6659.8795821575486
 21
349.39539785741692
 31
0.0
  0
LINE
  5
693
100
AcDbEntity
  8
IMPORTED
  6
STYLE_05
 62
               1
100
AcDbLine
 10
6659.8795821575486
 20
348.31285785741704
 30
0.0
 11
6637.3795821575486
 21
348.31285785741704
 31
0.0
  0
LINE
  5
694
100
AcDbEntity
  8
IMPORTED
  6
STYLE_05
 62
               1
100
AcDbLine
 10
6659.8795821575486
 20
342.47792785741706
 30
0.0
 11
6637.3795821575486
 21
342.47792785741706
 31
0.0
  0
POLYLINE
  5
695
100
AcDbEntity
  8
IMPORTED
  6
CONTINUOUS
 62
              30
100
AcDb2dPolyline
 66
               1
 10
0.0
 20
0.0
 30
0.0
 70
               1
 75
               5
  0
VERTEX
  5
696
100
AcDbEntity
  8
IMPORTED
  6
CONTINUOUS
 62
              30
100
AcDbVertex
100
AcDb2dVertex
 10
6648.6990221575479
 20
337.88983785741709
 30
0.0
  0
VERTEX
  5
697
100
AcDbEntity
  8
IMPORTED
  6
CONTINUOUS
 62
              30
100
AcDbVertex
100
AcDb2dVertex
 10
6649.2795821575482
 20
338.89538785741695
 30
0.0
  0
VERTEX
  5
698
100
AcDbEntity
  8
IMPORTED
  6
CONTINUOUS
 62
              30
100
AcDbVertex
100
AcDb2dVertex
 10
6649.2795821575482
 20
351.89538785741718
 30
0.0
  0
VERTEX
  5
699
100
AcDbEntity
  8
IMPORTED
  6
CONTINUOUS
 62
              30
100
AcDbVertex
100
AcDb2dVertex
 10
6648.6990221575479
 20
352.90093785741703
 30
0.0
  0
VERTEX
  5
69A
100
AcDbEntity
  8
IMPORTED
  6
CONTINUOUS
 62
              30
100
AcDbVertex
100
AcDb2dVertex
 10
6643.0601321575477
 20
352.90093785741703
 30
0.0
  0
VERTEX
  5
69B
100
AcDbEntity
  8
IMPORTED
  6
CONTINUOUS
 62
              30
100
AcDbVertex
100
AcDb2dVertex
 10
6642.4795721575483
 20
351.89538785741718
 30
0.0
  0
VERTEX
  5
69C
100
AcDbEntity
  8
IMPORTED
  6
CONTINUOUS
 62
              30
100
AcDbVertex
100
AcDb2dVertex
 10
6642.4795721575483
 20
338.89538785741695
 30
0.0
  0
VERTEX
  5
69D
100
AcDbEntity
  8
IMPORTED
  6
CONTINUOUS
 62
              30
100
AcDbVertex
100
AcDb2dVertex
 10
6643.0601321575477
 20
337.88983785741709
 30
0.0
  0
SEQEND
  5
69E
100
AcDbEntity
  8
IMPORTED
  6
CONTINUOUS
 62
              30
  0
SPLINE
  5
6A0
100
AcDbEntity
  8
IMPORTED
  6
CONTINUOUS
 62
              30
100
AcDbSpline
210
0.0
220
0.0
230
1.0
 70
               8
 71
               2
 72
              10
 73
               7
 74
               0
 42
0.000001
 43
0.000001
 40
0.0
 40
0.0
 40
0.0
 40
1.0
 40
1.0
 40
2.0
 40
2.0
 40
3.0
 40
3.0
 40
3.0
 10
6648.6990221575479
 20
337.88983785741709
 30
0.0
 10
6649.8577530217453
 20
339.76622785741688
 30
0.0
 10
6648.6990221575479
 20
341.64261785741712
 30
0.0
 10
6649.8577530217453
 20
345.3953978574167
 30
0.0
 10
6648.6990221575479
 20
349.14817785741718
 30
0.0
 10
6649.8577530217453
 20
351.02456785741708
 30
0.0
 10
6648.6990221575479
 20
352.90095785741698
 30
0.0
  0
SPLINE
  5
6A1
100
AcDbEntity
  8
IMPORTED
  6
CONTINUOUS
 62
              30
100
AcDbSpline
210
0.0
220
0.0
230
1.0
 70
               8
 71
               2
 72
              10
 73
               7
 74
               0
 42
0.000001
 43
0.000001
 40
0.0
 40
0.0
 40
0.0
 40
1.0
 40
1.0
 40
2.0
 40
2.0
 40
3.0
 40
3.0
 40
3.0
 10
6643.0601321575477
 20
337.88984785741707
 30
0.0
 10
6641.9014012933512
 20
339.76623785741685
 30
0.0
 10
6643.0601321575477
 20
341.6426278574171
 30
0.0
 10
6641.9014012933512
 20
345.39540785741724
 30
0.0
 10
6643.0601321575477
 20
349.14818785741693
 30
0.0
 10
6641.9014012933512
 20
351.02457785741717
 30
0.0
 10
6643.0601321575477
 20
352.90096785741696
 30
0.0
  0
LINE
  5
6A2
100
AcDbEntity
  8
IMPORTED
  6
CONTINUOUS
 62
              30
100
AcDbLine
 10
6648.6990221575479
 20
341.64260785741715
 30
0.0
 11
6643.0601321575477
 21
341.64260785741715
 31
0.0
  0
LINE
  5
6A3
100
AcDbEntity
  8
IMPORTED
  6
CONTINUOUS
 62
              30
100
AcDbLine
 10
6643.0601321575477
 20
349.148157857417
 30
0.0
 11
6648.6990221575479
 21
349.148157857417
 31
0.0
  0
POLYLINE
  5
6A4
100
AcDbEntity
  8
IMPORTED
  6
CONTINUOUS
 62
               3
100
AcDb2dPolyline
 66
               1
 10
0.0
 20
0.0
 30
0.0
 70
               1
 75
               5
  0
VERTEX
  5
6A5
100
AcDbEntity
  8
IMPORTED
  6
CONTINUOUS
 62
               3
100
AcDbVertex
100
AcDb2dVertex
 10
6660.7795821575482
 20
356.39539785741692
 30
0.0
  0
VERTEX
  5
6A6
100
AcDbEntity
  8
IMPORTED
  6
CONTINUOUS
 62
               3
100
AcDbVertex
100
AcDb2dVertex
 10
6662.3795821575486
 20
356.39539785741692
 30
0.0
  0
VERTEX
  5
6A7
100
AcDbEntity
  8
IMPORTED
  6
CONTINUOUS
 62
               3
100
AcDbVertex
100
AcDb2dVertex
 10
6662.3795821575486
 20
334.39539785741692
 30
0.0
  0
VERTEX
  5
6A8
100
AcDbEntity
  8
IMPORTED
  6
CONTINUOUS
 62
               3
100
AcDbVertex
100
AcDb2dVertex
 10
6660.7795821575482
 20
334.39539785741692
 30
0.0
  0
SEQEND
  5
6A9
100
AcDbEntity
  8
IMPORTED
  6
CONTINUOUS
 62
               3
  0
POLYLINE
  5
6AB
100
AcDbEntity
  8
IMPORTED
  6
STYLE_05
 62
              30
100
AcDb2dPolyline
 66
               1
 10
0.0
 20
0.0
 30
0.0
 70
               1
 75
               5
  0
VERTEX
  5
6AC
100
AcDbEntity
  8
IMPORTED
  6
STYLE_05
 62
              30
100
AcDbVertex
100
AcDb2dVertex
 10
6656.2795821575482
 20
351.39539785741692
 30
0.0
  0
VERTEX
  5
6AD
100
AcDbEntity
  8
IMPORTED
  6
STYLE_05
 62
              30
100
AcDbVertex
100
AcDb2dVertex
 10
6660.7795821575482
 20
351.39539785741692
 30
0.0
  0
VERTEX
  5
6AE
100
AcDbEntity
  8
IMPORTED
  6
STYLE_05
 62
              30
100
AcDbVertex
100
AcDb2dVertex
 10
6660.7795821575482
 20
339.39539785741692
 30
0.0
  0
VERTEX
  5
6AF
100
AcDbEntity
  8
IMPORTED
  6
STYLE_05
 62
              30
100
AcDbVertex
100
AcDb2dVertex
 10
6656.2795821575482
 20
339.39539785741692
 30
0.0
  0
SEQEND
  5
6B0
100
AcDbEntity
  8
IMPORTED
  6
STYLE_05
 62
              30
  0
POLYLINE
  5
6B2
100
AcDbEntity
  8
IMPORTED
  6
STYLE_05
 62
              30
100
AcDb2dPolyline
 66
               1
 10
0.0
 20
0.0
 30
0.0
 70
               1
 75
               5
  0
VERTEX
  5
6B3
100
AcDbEntity
  8
IMPORTED
  6
STYLE_05
 62
              30
100
AcDbVertex
100
AcDb2dVertex
 10
6649.2795821575482
 20
350.39539785741692
 30
0.0
  0
VERTEX
  5
6B4
100
AcDbEntity
  8
IMPORTED
  6
STYLE_05
 62
              30
100
AcDbVertex
100
AcDb2dVertex
 10
6653.7795821575482
 20
350.39539785741692
 30
0.0
  0
VERTEX
  5
6B5
100
AcDbEntity
  8
IMPORTED
  6
STYLE_05
 62
              30
100
AcDbVertex
100
AcDb2dVertex
 10
6653.7795821575482
 20
340.39539785741692
 30
0.0
  0
VERTEX
  5
6B6
100
AcDbEntity
  8
IMPORTED
  6
STYLE_05
 62
              30
100
AcDbVertex
100
AcDb2dVertex
 10
6649.2795821575482
 20
340.39539785741692
 30
0.0
  0
SEQEND
  5
6B7
100
AcDbEntity
  8
IMPORTED
  6
STYLE_05
 62
              30
  0
LINE
  5
6B9
100
AcDbEntity
  8
IMPORTED
  6
CONTINUOUS
 62
              30
100
AcDbLine
 10
6642.4795721575483
 20
341.39539785741692
 30
0.0
 11
6638.462122157548
 21
341.39539785741692
 31
0.0
  0
LINE
  5
6BA
100
AcDbEntity
  8
IMPORTED
  6
CONTINUOUS
 62
              30
100
AcDbLine
 10
6638.462122157548
 20
341.39539785741692
 30
0.0
 11
6637.3795821575486
 21
342.47792785741706
 31
0.0
  0
LINE
  5
6BB
100
AcDbEntity
  8
IMPORTED
  6
CONTINUOUS
 62
              30
100
AcDbLine
 10
6637.3795821575486
 20
342.47792785741706
 30
0.0
 11
6637.3795821575486
 21
348.31285785741704
 31
0.0
  0
LINE
  5
6BC
100
AcDbEntity
  8
IMPORTED
  6
CONTINUOUS
 62
              30
100
AcDbLine
 10
6637.3795821575486
 20
348.31285785741704
 30
0.0
 11
6638.462122157548
 21
349.39540785741713
 31
0.0
  0
LINE
  5
6BD
100
AcDbEntity
  8
IMPORTED
  6
CONTINUOUS
 62
              30
100
AcDbLine
 10
6638.462122157548
 20
349.39540785741713
 30
0.0
 11
6642.4795721575483
 21
349.39540785741713
 31
0.0
  0
LINE
  5
6BE
100
AcDbEntity
  8
IMPORTED
  6
CONTINUOUS
 62
              30
100
AcDbLine
 10
6637.3795821575486
 20
348.31285785741704
 30
0.0
 11
6642.4795721575483
 21
348.31285785741704
 31
0.0
  0
LINE
  5
6BF
100
AcDbEntity
  8
IMPORTED
  6
CONTINUOUS
 62
              30
100
AcDbLine
 10
6637.3795821575486
 20
342.47793785741703
 30
0.0
 11
6642.4795721575483
 21
342.47792785741706
 31
0.0
  0
LINE
  5
6C0
100
AcDbEntity
  8
IMPORTED
  6
CONTINUOUS
 62
              30
100
AcDbLine
 10
6638.462122157548
 20
341.39539785741692
 30
0.0
 11
6638.462122157548
 21
349.39540785741713
 31
0.0
  0
POLYLINE
  5
6C1
100
AcDbEntity
  8
IMPORTED
  6
STYLE_05
 62
              30
100
AcDb2dPolyline
 66
               1
 10
0.0
 20
0.0
 30
0.0
 70
               1
 75
               5
  0
VERTEX
  5
6C2
100
AcDbEntity
  8
IMPORTED
  6
STYLE_05
 62
              30
100
AcDbVertex
100
AcDb2dVertex
 10
6629.7795821575482
 20
380.39539785741692
 30
0.0
  0
VERTEX
  5
6C3
100
AcDbEntity
  8
IMPORTED
  6
STYLE_05
 62
              30
100
AcDbVertex
100
AcDb2dVertex
 10
6641.7795821575482
 20
380.39539785741692
 30
0.0
  0
VERTEX
  5
6C4
100
AcDbEntity
  8
IMPORTED
  6
STYLE_05
 62
              30
100
AcDbVertex
100
AcDb2dVertex
 10
6641.7795821575482
 20
375.89539785741692
 30
0.0
  0
VERTEX
  5
6C5
100
AcDbEntity
  8
IMPORTED
  6
STYLE_05
 62
              30
100
AcDbVertex
100
AcDb2dVertex
 10
6629.7795821575482
 20
375.89539785741692
 30
0.0
  0
SEQEND
  5
6C6
100
AcDbEntity
  8
IMPORTED
  6
STYLE_05
 62
              30
  0
POLYLINE
  5
6C8
100
AcDbEntity
  8
IMPORTED
  6
STYLE_05
 62
              30
100
AcDb2dPolyline
 66
               1
 10
0.0
 20
0.0
 30
0.0
 70
               1
 75
               5
  0
VERTEX
  5
6C9
100
AcDbEntity
  8
IMPORTED
  6
STYLE_05
 62
              30
100
AcDbVertex
100
AcDb2dVertex
 10
6632.2795821575482
 20
380.39539785741692
 30
0.0
  0
VERTEX
  5
6CA
100
AcDbEntity
  8
IMPORTED
  6
STYLE_05
 62
              30
100
AcDbVertex
100
AcDb2dVertex
 10
6639.2795821575482
 20
380.39539785741692
 30
0.0
  0
VERTEX
  5
6CB
100
AcDbEntity
  8
IMPORTED
  6
STYLE_05
 62
              30
100
AcDbVertex
100
AcDb2dVertex
 10
6639.2795821575482
 20
401.89539785741692
 30
0.0
  0
VERTEX
  5
6CC
100
AcDbEntity
  8
IMPORTED
  6
STYLE_05
 62
              30
100
AcDbVertex
100
AcDb2dVertex
 10
6642.7795821575482
 20
405.39539785741692
 30
0.0
  0
VERTEX
  5
6CD
100
AcDbEntity
  8
IMPORTED
  6
STYLE_05
 62
              30
100
AcDbVertex
100
AcDb2dVertex
 10
6628.7795821575482
 20
405.39539785741692
 30
0.0
  0
VERTEX
  5
6CE
100
AcDbEntity
  8
IMPORTED
  6
STYLE_05
 62
              30
100
AcDbVertex
100
AcDb2dVertex
 10
6632.2795821575482
 20
401.89539785741692
 30
0.0
  0
SEQEND
  5
6CF
100
AcDbEntity
  8
IMPORTED
  6
STYLE_05
 62
              30
  0
POLYLINE
  5
6D1
100
AcDbEntity
  8
IMPORTED
  6
CONTINUOUS
 62
              30
100
AcDb2dPolyline
 66
               1
 10
0.0
 20
0.0
 30
0.0
 70
               1
 75
               5
  0
VERTEX
  5
6D2
100
AcDbEntity
  8
IMPORTED
  6
CONTINUOUS
 62
              30
100
AcDbVertex
100
AcDb2dVertex
 10
6628.7795821575482
 20
375.89539785741692
 30
0.0
  0
VERTEX
  5
6D3
100
AcDbEntity
  8
IMPORTED
  6
CONTINUOUS
 62
              30
100
AcDbVertex
100
AcDb2dVertex
 10
6642.7795821575482
 20
375.89539785741692
 30
0.0
  0
VERTEX
  5
6D4
100
AcDbEntity
  8
IMPORTED
  6
CONTINUOUS
 62
              30
100
AcDbVertex
100
AcDb2dVertex
 10
6642.7795821575482
 20
375.04539785741702
 30
0.0
  0
VERTEX
  5
6D5
100
AcDbEntity
  8
IMPORTED
  6
CONTINUOUS
 62
              30
100
AcDbVertex
100
AcDb2dVertex
 10
6641.9295821575479
 20
374.19539785741711
 30
0.0
  0
VERTEX
  5
6D6
100
AcDbEntity
  8
IMPORTED
  6
CONTINUOUS
 62
              30
100
AcDbVertex
100
AcDb2dVertex
 10
6629.6295821575477
 20
374.19539785741711
 30
0.0
  0
VERTEX
  5
6D7
100
AcDbEntity
  8
IMPORTED
  6
CONTINUOUS
 62
              30
100
AcDbVertex
100
AcDb2dVertex
 10
6628.7795821575482
 20
375.04539785741702
 30
0.0
  0
SEQEND
  5
6D8
100
AcDbEntity
  8
IMPORTED
  6
CONTINUOUS
 62
              30
  0
POLYLINE
  5
6DA
100
AcDbEntity
  8
IMPORTED
  6
STYLE_05
 62
              30
100
AcDb2dPolyline
 66
               1
 10
0.0
 20
0.0
 30
0.0
 70
               1
 75
               5
  0
VERTEX
  5
6DB
100
AcDbEntity
  8
IMPORTED
  6
STYLE_05
 62
              30
100
AcDbVertex
100
AcDb2dVertex
 10
6632.7795821575482
 20
366.19539785741711
 30
0.0
  0
VERTEX
  5
6DC
100
AcDbEntity
  8
IMPORTED
  6
STYLE_05
 62
              30
100
AcDbVertex
100
AcDb2dVertex
 10
6632.7795821575482
 20
402.09539785741697
 30
0.0
  0
VERTEX
  5
6DD
100
AcDbEntity
  8
IMPORTED
  6
STYLE_05
 62
              30
100
AcDbVertex
100
AcDb2dVertex
 10
6638.7795821575482
 20
402.09539785741697
 30
0.0
  0
VERTEX
  5
6DE
100
AcDbEntity
  8
IMPORTED
  6
STYLE_05
 62
              30
100
AcDbVertex
100
AcDb2dVertex
 10
6638.7795821575482
 20
366.19539785741711
 30
0.0
  0
VERTEX
  5
6DF
100
AcDbEntity
  8
IMPORTED
  6
STYLE_05
 62
              30
100
AcDbVertex
100
AcDb2dVertex
 10
6637.9795821575481
 20
365.39539785741692
 30
0.0
  0
VERTEX
  5
6E0
100
AcDbEntity
  8
IMPORTED
  6
STYLE_05
 62
              30
100
AcDbVertex
100
AcDb2dVertex
 10
6633.5795821575484
 20
365.39539785741692
 30
0.0
  0
SEQEND
  5
6E1
100
AcDbEntity
  8
IMPORTED
  6
STYLE_05
 62
              30
  0
POLYLINE
  5
6E3
100
AcDbEntity
  8
IMPORTED
  6
STYLE_05
 62
              30
100
AcDb2dPolyline
 66
               1
 10
0.0
 20
0.0
 30
0.0
 70
               1
 75
               5
  0
VERTEX
  5
6E4
100
AcDbEntity
  8
IMPORTED
  6
STYLE_05
 62
              30
100
AcDbVertex
100
AcDb2dVertex
 10
6638.7795821575482
 20
402.09539785741697
 30
0.0
  0
VERTEX
  5
6E5
100
AcDbEntity
  8
IMPORTED
  6
STYLE_05
 62
              30
100
AcDbVertex
100
AcDb2dVertex
 10
6642.0795821575484
 20
405.39539785741692
 30
0.0
  0
VERTEX
  5
6E6
100
AcDbEntity
  8
IMPORTED
  6
STYLE_05
 62
              30
100
AcDbVertex
100
AcDb2dVertex
 10
6629.4795821575481
 20
405.39539785741692
 30
0.0
  0
VERTEX
  5
6E7
100
AcDbEntity
  8
IMPORTED
  6
STYLE_05
 62
              30
100
AcDbVertex
100
AcDb2dVertex
 10
6632.7795821575482
 20
402.09539785741697
 30
0.0
  0
SEQEND
  5
6E8
100
AcDbEntity
  8
IMPORTED
  6
STYLE_05
 62
              30
  0
POLYLINE
  5
6EA
100
AcDbEntity
  8
IMPORTED
  6
CONTINUOUS
 62
              30
100
AcDb2dPolyline
 66
               1
 10
0.0
 20
0.0
 30
0.0
 70
               1
 75
               5
  0
VERTEX
  5
6EB
100
AcDbEntity
  8
IMPORTED
  6
CONTINUOUS
 62
              30
100
AcDbVertex
100
AcDb2dVertex
 10
6640.7795721649627
 20
373.76851613224301
 30
0.0
  0
VERTEX
  5
6EC
100
AcDbEntity
  8
IMPORTED
  6
CONTINUOUS
 62
              30
100
AcDbVertex
100
AcDb2dVertex
 10
6640.1097025415565
 20
374.19539785741711
 30
0.0
  0
VERTEX
  5
6ED
100
AcDbEntity
  8
IMPORTED
  6
CONTINUOUS
 62
              30
100
AcDbVertex
100
AcDb2dVertex
 10
6631.44946177354
 20
374.19539785741711
 30
0.0
  0
VERTEX
  5
6EE
100
AcDbEntity
  8
IMPORTED
  6
CONTINUOUS
 62
              30
100
AcDbVertex
100
AcDb2dVertex
 10
6630.7795921501338
 20
373.76851613224301
 30
0.0
  0
VERTEX
  5
6EF
100
AcDbEntity
  8
IMPORTED
  6
CONTINUOUS
 62
              30
100
AcDbVertex
100
AcDb2dVertex
 10
6630.7795921501338
 20
369.62227958259098
 30
0.0
  0
VERTEX
  5
6F0
100
AcDbEntity
  8
IMPORTED
  6
CONTINUOUS
 62
              30
100
AcDbVertex
100
AcDb2dVertex
 10
6631.44946177354
 20
369.19539785741711
 30
0.0
  0
VERTEX
  5
6F1
100
AcDbEntity
  8
IMPORTED
  6
CONTINUOUS
 62
              30
100
AcDbVertex
100
AcDb2dVertex
 10
6640.1097025415565
 20
369.19539785741711
 30
0.0
  0
VERTEX
  5
6F2
100
AcDbEntity
  8
IMPORTED
  6
CONTINUOUS
 62
              30
100
AcDbVertex
100
AcDb2dVertex
 10
6640.7795721649627
 20
369.62227958259098
 30
0.0
  0
SEQEND
  5
6F3
100
AcDbEntity
  8
IMPORTED
  6
CONTINUOUS
 62
              30
  0
SPLINE
  5
6F5
100
AcDbEntity
  8
IMPORTED
  6
CONTINUOUS
 62
              30
100
AcDbSpline
210
0.0
220
0.0
230
1.0
 70
               8
 71
               2
 72
              10
 73
               7
 74
               0
 42
0.000001
 43
0.000001
 40
0.0
 40
0.0
 40
0.0
 40
1.0
 40
1.0
 40
2.0
 40
2.0
 40
3.0
 40
3.0
 40
3.0
 10
6640.7795721649627
 20
373.76851613224301
 30
0.0
 10
6639.5295729976779
 20
374.62052286767283
 30
0.0
 10
6638.2795738303939
 20
373.76851613224301
 30
0.0
 10
6635.7795754958242
 20
374.62052286767283
 30
0.0
 10
6633.2795771612555
 20
373.76851613224301
 30
0.0
 10
6632.0295779939706
 20
374.62052286767283
 30
0.0
 10
6630.7795788266867
 20
373.76851613224301
 30
0.0
  0
SPLINE
  5
6F6
100
AcDbEntity
  8
IMPORTED
  6
CONTINUOUS
 62
              30
100
AcDbSpline
210
0.0
220
0.0
230
1.0
 70
               8
 71
               2
 72
              10
 73
               7
 74
               0
 42
0.000001
 43
0.000001
 40
0.0
 40
0.0
 40
0.0
 40
1.0
 40
1.0
 40
2.0
 40
2.0
 40
3.0
 40
3.0
 40
3.0
 10
6640.7795655032387
 20
369.62227958259098
 30
0.0
 10
6639.5295663359548
 20
368.77027284716166
 30
0.0
 10
6638.2795671686699
 20
369.62227958259098
 30
0.0
 10
6635.7795688341012
 20
368.77027284716166
 30
0.0
 10
6633.2795704995315
 20
369.62227958259098
 30
0.0
 10
6632.0295713322475
 20
368.77027284716166
 30
0.0
 10
6630.7795721649627
 20
369.62227958259098
 30
0.0
  0
LINE
  5
6F7
100
AcDbEntity
  8
IMPORTED
  6
CONTINUOUS
 62
              30
100
AcDbLine
 10
6638.279580492117
 20
373.76851613224301
 30
0.0
 11
6638.279580492117
 21
369.62227958259098
 31
0.0
  0
LINE
  5
6F8
100
AcDbEntity
  8
IMPORTED
  6
CONTINUOUS
 62
              30
100
AcDbLine
 10
6633.2795904847026
 20
369.62227958259098
 30
0.0
 11
6633.2795904847026
 21
373.76851613224301
 31
0.0
  0
LINE
  5
6F9
100
AcDbEntity
  8
IMPORTED
  6
CONTINUOUS
 62
              30
100
AcDbLine
 10
6638.7795821575482
 20
369.19539785741711
 30
0.0
 11
6638.7795821575482
 21
366.19539785741711
 31
0.0
  0
LINE
  5
6FA
100
AcDbEntity
  8
IMPORTED
  6
CONTINUOUS
 62
              30
100
AcDbLine
 10
6638.7795821575482
 20
366.19539785741711
 30
0.0
 11
6637.9795821575481
 21
365.39539785741692
 31
0.0
  0
LINE
  5
6FB
100
AcDbEntity
  8
IMPORTED
  6
CONTINUOUS
 62
              30
100
AcDbLine
 10
6637.9795821575481
 20
365.39539785741692
 30
0.0
 11
6633.5795821575484
 21
365.39539785741692
 31
0.0
  0
LINE
  5
6FC
100
AcDbEntity
  8
IMPORTED
  6
CONTINUOUS
 62
              30
100
AcDbLine
 10
6633.5795821575484
 20
365.39539785741692
 30
0.0
 11
6632.7795821575482
 21
366.19539785741711
 31
0.0
  0
LINE
  5
6FD
100
AcDbEntity
  8
IMPORTED
  6
CONTINUOUS
 62
              30
100
AcDbLine
 10
6632.7795821575482
 20
366.19539785741711
 30
0.0
 11
6632.7795821575482
 21
369.19539785741711
 31
0.0
  0
MTEXT
  5
6FE
100
AcDbEntity
  8
IMPORTED
 62
               1
100
AcDbMText
 10
6045.9166666666661
 20
986.21095052083331
 30
0.0
 40
24.432617187500004
 41
0.0
 71
               1
 72
               1
  1
※特記事項\P・ESWは、木粉50％以上、ポリプロピレン40％以上の配合で、\P  表面をサンディング加工した再生木材「EINスーパーウッド」の略称。\P・ESW塗装は、ESWの表面をアクリルシリコン系水性塗料で仕上げた製品。\P
  7
_______
  0
ENDSEC
  0
SECTION
  2
OBJECTS
  0
DICTIONARY
  5
19
100
AcDbDictionary
  3
ACAD_GROUP
350
1A
  3
ACAD_MLINESTYLE
350
1B
  0
DICTIONARY
  5
1A
102
{ACAD_REACTORS
330
19
102
}
100
AcDbDictionary
  0
DICTIONARY
  5
1B
102
{ACAD_REACTORS
330
19
102
}
100
AcDbDictionary
  3
STANDARD
350
1C
  0
MLINESTYLE
  5
1C
102
{ACAD_REACTORS
330
1B
102
}
100
AcDbMlineStyle
  2
STANDARD
 70
               0
  3

 62
               0
 51
90.0
 52
90.0
 71
               2
 49
0.5
 62
             256
  6
BYLAYER
 49
-0.5
 62
             256
  6
BYLAYER
  0
ENDSEC
  0
EOF
