  0
SECTION
  2
HEADER
  9
$ACADVER
  1
AC1012
  9
$DWGCODEPAGE
  3
dos932
  9
$INSBASE
 10
0.0
 20
0.0
 30
0.0
  9
$EXTMIN
 10
-4048.9998850503603
 20
-2811.0000632915567
 30
0.0
  9
$EXTMAX
 10
3751.0001149496393
 20
2688.9999367084429
 30
0.0
  9
$LIMMIN
 10
0.0
 20
0.0
  9
$LIMMAX
 10
0.0
 20
0.0
  9
$ORTHOMODE
 70
               0
  9
$REGENMODE
 70
               1
  9
$FILLMODE
 70
               1
  9
$QTEXTMODE
 70
               0
  9
$MIRRTEXT
 70
               1
  9
$DRAGMODE
 70
               2
  9
$LTSCALE
 40
101.59999999999999
  9
$OSMODE
 70
               0
  9
$ATTMODE
 70
               1
  9
$TEXTSIZE
 40
0.2
  9
$TRACEWID
 40
1.0
  9
$TEXTSTYLE
  7
STANDARD
  9
$CLAYER
  8
IMPORTED
  9
$CELTYPE
  6
CONTINUOUS
  9
$CECOLOR
 62
             256
  9
$CELTSCALE
 40
1.0
  9
$DELOBJ
 70
               1
  9
$DISPSILH
 70
               0
  9
$DIMSCALE
 40
1.0
  9
$DIMASZ
 40
0.18
  9
$DIMEXO
 40
0.0625
  9
$DIMDLI
 40
0.38
  9
$DIMRND
 40
0.0
  9
$DIMDLE
 40
0.0
  9
$DIMEXE
 40
0.18
  9
$DIMTP
 40
0.0
  9
$DIMTM
 40
0.0
  9
$DIMTXT
 40
0.18
  9
$DIMCEN
 40
0.09
  9
$DIMTSZ
 40
0.0
  9
$DIMTOL
 70
               0
  9
$DIMLIM
 70
               0
  9
$DIMTIH
 70
               1
  9
$DIMTOH
 70
               1
  9
$DIMSE1
 70
               0
  9
$DIMSE2
 70
               0
  9
$DIMTAD
 70
               0
  9
$DIMZIN
 70
               0
  9
$DIMBLK
  1

  9
$DIMASO
 70
               1
  9
$DIMSHO
 70
               1
  9
$DIMPOST
  1

  9
$DIMAPOST
  1

  9
$DIMALT
 70
               0
  9
$DIMALTD
 70
               2
  9
$DIMALTF
 40
25.399999999999999
  9
$DIMLFAC
 40
1.0
  9
$DIMTOFL
 70
               0
  9
$DIMTVP
 40
0.0
  9
$DIMTIX
 70
               0
  9
$DIMSOXD
 70
               0
  9
$DIMSAH
 70
               0
  9
$DIMBLK1
  1

  9
$DIMBLK2
  1

  9
$DIMSTYLE
  2
STANDARD
  9
$DIMCLRD
 70
               0
  9
$DIMCLRE
 70
               0
  9
$DIMCLRT
 70
               0
  9
$DIMTFAC
 40
1.0
  9
$DIMGAP
 40
0.09
  9
$DIMJUST
 70
               0
  9
$DIMSD1
 70
               0
  9
$DIMSD2
 70
               0
  9
$DIMTOLJ
 70
               1
  9
$DIMTZIN
 70
               0
  9
$DIMALTZ
 70
               0
  9
$DIMALTTZ
 70
               0
  9
$DIMFIT
 70
               3
  9
$DIMUPT
 70
               0
  9
$DIMUNIT
 70
               2
  9
$DIMDEC
 70
               4
  9
$DIMTDEC
 70
               4
  9
$DIMALTU
 70
               2
  9
$DIMALTTD
 70
               2
  9
$DIMTXSTY
  7
STANDARD
  9
$DIMAUNIT
 70
               0
  9
$LUNITS
 70
               2
  9
$LUPREC
 70
               4
  9
$SKETCHINC
 40
0.1
  9
$FILLETRAD
 40
0.0
  9
$AUNITS
 70
               0
  9
$AUPREC
 70
               0
  9
$MENU
  1
acad
  9
$ELEVATION
 40
0.0
  9
$PELEVATION
 40
0.0
  9
$THICKNESS
 40
0.0
  9
$LIMCHECK
 70
               0
  9
$BLIPMODE
 70
               0
  9
$CHAMFERA
 40
0.0
  9
$CHAMFERB
 40
0.0
  9
$CHAMFERC
 40
0.0
  9
$CHAMFERD
 40
0.0
  9
$SKPOLY
 70
               0
  9
$TDCREATE
 40
2459227.577060185
  9
$TDUPDATE
 40
2459227.577060185
  9
$TDINDWG
 40
0.0000000000
  9
$TDUSRTIMER
 40
0.0000000000
  9
$USRTIMER
 70
               1
  9
$ANGBASE
 50
0.0
  9
$ANGDIR
 70
               0
  9
$PDMODE
 70
               1
  9
$PDSIZE
 40
-2.0
  9
$PLINEWID
 40
0.0
  9
$COORDS
 70
               0
  9
$SPLFRAME
 70
               0
  9
$SPLINETYPE
 70
               6
  9
$SPLINESEGS
 70
               8
  9
$ATTDIA
 70
               0
  9
$ATTREQ
 70
               1
  9
$HANDLING
 70
               1
  9
$HANDSEED
  5
46E
  9
$SURFTAB1
 70
               6
  9
$SURFTAB2
 70
               6
  9
$SURFTYPE
 70
               6
  9
$SURFU
 70
               6
  9
$SURFV
 70
               6
  9
$UCSNAME
  2

  9
$UCSORG
 10
0.0
 20
0.0
 30
0.0
  9
$UCSXDIR
 10
1.0
 20
0.0
 30
0.0
  9
$UCSYDIR
 10
0.0
 20
1.0
 30
0.0
  9
$PUCSNAME
  2

  9
$PUCSORG
 10
0.0
 20
0.0
 30
0.0
  9
$PUCSXDIR
 10
1.0
 20
0.0
 30
0.0
  9
$PUCSYDIR
 10
0.0
 20
1.0
 30
0.0
  9
$USERI1
 70
               0
  9
$USERI2
 70
               0
  9
$USERI3
 70
               0
  9
$USERI4
 70
               0
  9
$USERI5
 70
               0
  9
$USERR1
 40
0.0
  9
$USERR2
 40
0.0
  9
$USERR3
 40
0.0
  9
$USERR4
 40
0.0
  9
$USERR5
 40
0.0
  9
$WORLDVIEW
 70
               1
  9
$SHADEDGE
 70
               3
  9
$SHADEDIF
 70
              70
  9
$TILEMODE
 70
               1
  9
$MAXACTVP
 70
              64
  9
$PINSBASE
 10
0.0
 20
0.0
 30
0.0
  9
$PLIMCHECK
 70
               0
  9
$PEXTMIN
 10
1.0000000000000000E+20
 20
1.0000000000000000E+20
 30
1.0000000000000000E+20
  9
$PEXTMAX
 10
-1.0000000000000000E+20
 20
-1.0000000000000000E+20
 30
-1.0000000000000000E+20
  9
$PLIMMIN
 10
0.0
 20
0.0
  9
$PLIMMAX
 10
12.0
 20
9.0
  9
$UNITMODE
 70
               0
  9
$VISRETAIN
 70
               0
  9
$PLINEGEN
 70
               1
  9
$PSLTSCALE
 70
               0
  9
$TREEDEPTH
 70
            3020
  9
$PICKSTYLE
 70
               1
  9
$CMLSTYLE
  2
STANDARD
  9
$CMLJUST
 70
               0
  9
$CMLSCALE
 40
1.0
  9
$SAVEIMAGES
 70
               0
  0
ENDSEC
  0
SECTION
  2
CLASSES
  0
CLASS
  1
LWPOLYLINE
  2
AcDbPolyline
  3
"AutoCAD"
 90
    32768
280
               0
281
               1
  0
CLASS
  1
IMAGE
  2
AcDbRasterImage
  3
ISM
 90
    32895
280
               0
281
               1
  0
CLASS
  1
OLE2FRAME
  2
AcDbOle2Frame
  3
""
 90
    32768
280
               0
281
               1
  0
CLASS
  1
HATCH
  2
AcDbHatch
  3
"ACAD_SEDONA"
 90
    32768
280
               0
281
               1
  0
CLASS
  1
DICTIONARYVAR
  2
AcDbDictionaryVar
  3
"AutoCAD"
 90
    32768
280
               0
281
               0
  0
CLASS
  1
RASTERVARIABLES
  2
AcDbRasterVariables
  3
ISM
 90
    32768
280
               0
281
               0
  0
CLASS
  1
IMAGEDEF
  2
AcDbRasterImageDef
  3
ISM
 90
    32768
280
               0
281
               0
  0
CLASS
  1
IMAGEDEF_REACTOR
  2
AcDbRasterImageDefReactor
  3
ISM
 90
    32769
280
               0
281
               0
  0
CLASS
  1
IDBUFFER
  2
AcDbIdBuffer
  3
"Acad"
 90
    32768
280
               0
281
               0
  0
CLASS
  1
SPATIAL_FILTER
  2
AcDbSpatialFilter
  3
"Acad"
 90
    32768
280
               0
281
               0
  0
CLASS
  1
XRECORD
  2
AcDbXrecord
  3
"<Built In>"
 90
    32768
280
               0
281
               0
  0
CLASS
  1
SORTENTSTABLE
  2
AcDbSortentsTable
  3
"AutoCAD"
 90
    32768
280
               0
281
               0
  0
CLASS
  1
LAYER_INDEX
  2
AcDbLayerIndex
  3
"Acad"
 90
    32768
280
               0
281
               0
  0
CLASS
  1
SPATIAL_INDEX
  2
AcDbSpatialIndex
  3
"Acad"
 90
    32768
280
               0
281
               0
  0
CLASS
  1
OBJECT_PTR
  2
CAseDLPNTableRecord
  3
"ASE-LPNTableRecord"
 90
    32769
280
               0
281
               0
  0
CLASS
  1
LAYOUT
  2
AcDbLayout
  3
"AutoCAD 2000"
 90
    32768
280
               0
281
               0
  0
CLASS
  1
PLOTSETTINGS
  2
AcDbPlotSettings
  3
"AutoCAD 2000"
 90
    32768
280
               0
281
               0
  0
CLASS
  1
ACDBDICTIONARYWDFLT
  2
AcDbDictionaryWithDefault
  3
"AutoCAD 2000"
 90
    32768
280
               0
281
               0
  0
CLASS
  1
ACDBPLACEHOLDER
  2
AcDbPlaceHolder
  3
"AutoCAD 2000"
 90
    32768
280
               0
281
               0
  0
ENDSEC
  0
SECTION
  2
TABLES
  0
TABLE
  2
VPORT
  5
7
100
AcDbSymbolTable
 70
               1
  0
VPORT
  5
15
100
AcDbSymbolTableRecord
100
AcDbViewportTableRecord
  2
*ACTIVE
 70
               0
 10
0.0
 20
0.0
 11
1.0
 21
1.0
 12
-148.99988505036026
 22
-61.000063291556671
 13
0.0
 23
0.0
 14
1.0
 24
1.0
 15
0.0
 25
0.0
 16
0.0
 26
0.0
 36
1.0
 17
0.0
 27
0.0
 37
0.0
 40
5500.0
 41
0.688564
 42
50.0
 43
0.0
 44
0.0
 50
0.0
 51
0.0
 71
               0
 72
            2000
 73
               1
 74
               1
 75
               0
 76
               0
 77
               0
 78
               0
  0
ENDTAB
  0
TABLE
  2
LTYPE
  5
4
100
AcDbSymbolTable
 70
              13
  0
LTYPE
  5
11
100
AcDbSymbolTableRecord
100
AcDbLinetypeTableRecord
  2
BYBLOCK
 70
              64
  3

 72
              65
 73
               0
 40
0.0
  0
LTYPE
  5
12
100
AcDbSymbolTableRecord
100
AcDbLinetypeTableRecord
  2
BYLAYER
 70
              64
  3

 72
              65
 73
               0
 40
0.0
  0
LTYPE
  5
13
100
AcDbSymbolTableRecord
100
AcDbLinetypeTableRecord
  2
CONTINUOUS
 70
              64
  3
Solid line
 72
              65
 73
               0
 40
0.0
  0
LTYPE
  5
1E
100
AcDbSymbolTableRecord
100
AcDbLinetypeTableRecord
  2
STYLE_01
 70
               0
  3

 72
              65
 73
               2
 40
0.694427490234375
 49
0.4860687255859375
 74
               0
 49
-0.2083587646484375
 74
               0
  0
LTYPE
  5
1F
100
AcDbSymbolTableRecord
100
AcDbLinetypeTableRecord
  2
STYLE_02
 70
               0
  3

 72
              65
 73
               2
 40
0.208282470703125
 49
0.069427490234375
 74
               0
 49
-0.13885498046875
 74
               0
  0
LTYPE
  5
20
100
AcDbSymbolTableRecord
100
AcDbLinetypeTableRecord
  2
STYLE_03
 70
               0
  3

 72
              65
 73
               2
 40
0.1476287841796875
 49
0.098419189453125
 74
               0
 49
-0.0492095947265625
 74
               0
  0
LTYPE
  5
21
100
AcDbSymbolTableRecord
100
AcDbLinetypeTableRecord
  2
STYLE_04
 70
               0
  3

 72
              65
 73
               2
 40
0.1532745361328125
 49
0.1021575927734375
 74
               0
 49
-0.051116943359375
 74
               0
  0
LTYPE
  5
22
100
AcDbSymbolTableRecord
100
AcDbLinetypeTableRecord
  2
STYLE_05
 70
               0
  3

 72
              65
 73
               2
 40
0.208282470703125
 49
0.069427490234375
 74
               0
 49
-0.13885498046875
 74
               0
  0
LTYPE
  5
23
100
AcDbSymbolTableRecord
100
AcDbLinetypeTableRecord
  2
STYLE_06
 70
               0
  3

 72
              65
 73
               4
 40
1.0416412353515625
 49
0.625
 74
               0
 49
-0.208282470703125
 74
               0
 49
0.069427490234375
 74
               0
 49
-0.1389312744140625
 74
               0
  0
LTYPE
  5
24
100
AcDbSymbolTableRecord
100
AcDbLinetypeTableRecord
  2
STYLE_07
 70
               0
  3

 72
              65
 73
               6
 40
1.875
 49
0.625
 74
               0
 49
-0.208282470703125
 74
               0
 49
0.625
 74
               0
 49
-0.2083587646484375
 74
               0
 49
0.069427490234375
 74
               0
 49
-0.1389312744140625
 74
               0
  0
LTYPE
  5
25
100
AcDbSymbolTableRecord
100
AcDbLinetypeTableRecord
  2
STYLE_08
 70
               0
  3

 72
              65
 73
               6
 40
1.25
 49
0.625
 74
               0
 49
-0.208282470703125
 74
               0
 49
0.069427490234375
 74
               0
 49
-0.1389312744140625
 74
               0
 49
0.069427490234375
 74
               0
 49
-0.1389312744140625
 74
               0
  0
LTYPE
  5
26
100
AcDbSymbolTableRecord
100
AcDbLinetypeTableRecord
  2
STYLE_09
 70
               0
  3

 72
              65
 73
               4
 40
5.0
 49
3.75
 74
               0
 49
-0.2777862548828125
 74
               0
 49
0.694427490234375
 74
               0
 49
-0.2777862548828125
 74
               0
  0
LTYPE
  5
27
100
AcDbSymbolTableRecord
100
AcDbLinetypeTableRecord
  2
STYLE_10
 70
               0
  3

 72
              65
 73
               6
 40
5.9375
 49
3.75
 74
               0
 49
-0.2777862548828125
 74
               0
 49
0.694427490234375
 74
               0
 49
-0.2777862548828125
 74
               0
 49
0.625
 74
               0
 49
-0.3125
 74
               0
  0
ENDTAB
  0
TABLE
  2
LAYER
  5
2
100
AcDbSymbolTable
 70
               2
  0
LAYER
  5
14
100
AcDbSymbolTableRecord
100
AcDbLayerTableRecord
  2
0
 70
               0
 62
               7
  6
CONTINUOUS
  0
LAYER
  5
28
100
AcDbSymbolTableRecord
100
AcDbLayerTableRecord
  2
IMPORTED
 70
               0
 62
               7
  6
CONTINUOUS
  0
ENDTAB
  0
TABLE
  2
STYLE
  5
3
100
AcDbSymbolTable
 70
               2
  0
STYLE
  5
17
100
AcDbSymbolTableRecord
100
AcDbTextStyleTableRecord
  2
STANDARD
 70
               0
 40
0.0
 41
1.0
 50
0.0
 71
               0
 42
0.0
  3
txt
  4
BIGFONT.SHX
  0
STYLE
  5
1D
100
AcDbSymbolTableRecord
100
AcDbTextStyleTableRecord
  2
_______
 70
               0
 40
0.0
 41
1.0
 50
0.0
 71
               0
 42
0.0
  3

  4
ＭＳ ゴシック
1001
ACAD
1000
ＭＳ ゴシック
1071
        0
  0
ENDTAB
  0
TABLE
  2
VIEW
  5
5
100
AcDbSymbolTable
 70
               0
  0
ENDTAB
  0
TABLE
  2
UCS
  5
6
100
AcDbSymbolTable
 70
               0
  0
ENDTAB
  0
TABLE
  2
APPID
  5
8
100
AcDbSymbolTable
 70
               1
  0
APPID
  5
16
100
AcDbSymbolTableRecord
100
AcDbRegAppTableRecord
  2
ACAD
 70
               0
  0
ENDTAB
  0
TABLE
  2
DIMSTYLE
  5
9
100
AcDbSymbolTable
 70
               1
  0
DIMSTYLE
105
18
100
AcDbSymbolTableRecord
100
AcDbDimStyleTableRecord
  2
STANDARD
 70
               0
  3

  4

  5

  6

  7

 40
1.0
 41
0.18
 42
0.0625
 43
0.38
 44
0.18
 45
0.0
 46
0.0
 47
0.0
 48
0.0
 71
               0
 72
               0
 73
               1
 74
               1
 75
               0
 76
               0
 77
               0
 78
               0
140
0.18
141
0.09
142
0.0
143
25.399999999999999
144
1.0
145
0.0
146
1.0
147
0.09
170
               0
171
               2
172
               0
173
               0
174
               0
175
               0
176
               0
177
               0
178
               0
270
               2
271
               4
272
               4
273
               2
274
               2
275
               0
280
               0
281
               0
282
               0
283
               1
284
               0
285
               0
286
               0
287
               3
288
               0
340
17
  0
ENDTAB
  0
TABLE
  2
BLOCK_RECORD
  5
1
100
AcDbSymbolTable
 70
               0
  0
BLOCK_RECORD
  5
A
100
AcDbSymbolTableRecord
100
AcDbBlockTableRecord
  2
*MODEL_SPACE
  0
BLOCK_RECORD
  5
B
100
AcDbSymbolTableRecord
100
AcDbBlockTableRecord
  2
*PAPER_SPACE
  0
ENDTAB
  0
ENDSEC
  0
SECTION
  2
BLOCKS
  0
BLOCK
  5
D
100
AcDbEntity
  8
0
100
AcDbBlockBegin
  2
*MODEL_SPACE
 70
               0
 10
0.0
 20
0.0
 30
0.0
  3
*MODEL_SPACE
  1

  0
ENDBLK
  5
E
100
AcDbEntity
  8
0
100
AcDbBlockEnd
  0
BLOCK
  5
F
100
AcDbEntity
 67
               1
  8
0
100
AcDbBlockBegin
  2
*PAPER_SPACE
 70
               0
 10
0.0
 20
0.0
 30
0.0
  3
*PAPER_SPACE
  1

  0
ENDBLK
  5
10
100
AcDbEntity
 67
               1
  8
0
100
AcDbBlockEnd
  0
ENDSEC
  0
SECTION
  2
ENTITIES
  0
MTEXT
  5
29
100
AcDbEntity
  8
IMPORTED
 62
               1
100
AcDbMText
 10
-1760.4287850503604
 20
208.74279597406843
 30
0.0
 40
32.576797265624997
 41
0.0
 71
               1
 72
               1
  1
基礎コンクリート
  7
_______
  0
MTEXT
  5
2A
100
AcDbEntity
  8
IMPORTED
 62
               1
100
AcDbMText
 10
-1726.7129850503602
 20
-11.257204025931557
 30
0.0
 40
32.576797265624997
 41
0.0
 71
               1
 72
               1
  1
均しコンクリート
  7
_______
  0
MTEXT
  5
2B
100
AcDbEntity
  8
IMPORTED
 62
               1
100
AcDbMText
 10
-1726.7129850503602
 20
-97.395004025931556
 30
0.0
 40
32.576797265624997
 41
0.0
 71
               1
 72
               1
  1
再生クラッシャラン
  7
_______
  0
MTEXT
  5
2C
100
AcDbEntity
  8
IMPORTED
 62
               1
100
AcDbMText
 10
-1834.0266469043618
 20
1373.9627236032679
 30
0.0
 40
32.576797265624997
 41
0.0
 71
               1
 72
               1
  1
柱 ESW85×85CH
  7
_______
  0
LINE
  5
2D
100
AcDbEntity
  8
IMPORTED
  6
CONTINUOUS
 62
               1
100
AcDbLine
 10
-1997.4998850503603
 20
1141.9999367084433
 30
0.0
 11
-1854.9998850503603
 21
1324.9998367084434
 31
0.0
  0
LINE
  5
2E
100
AcDbEntity
  8
IMPORTED
  6
CONTINUOUS
 62
               1
100
AcDbLine
 10
-1854.9998850503603
 20
1324.9998367084434
 30
0.0
 11
-1525.0
 21
1324.9998367084434
 31
0.0
  0
MTEXT
  5
2F
100
AcDbEntity
  8
IMPORTED
 62
               1
100
AcDbMText
 10
-1486.0816906597572
 20
826.17015926562499
 30
0.0
 40
32.576797265624997
 41
0.0
 71
               1
 72
               1
  1
チェーン（別途）
  7
_______
  0
LINE
  5
30
100
AcDbEntity
  8
IMPORTED
  6
CONTINUOUS
 62
               1
100
AcDbLine
 10
-1559.9997850503603
 20
1010.7566367084435
 30
0.0
 11
-1502.8943850503604
 21
781.58033670844338
 31
0.0
  0
LINE
  5
31
100
AcDbEntity
  8
IMPORTED
  6
CONTINUOUS
 62
               1
100
AcDbLine
 10
-1502.8943850503604
 20
781.58033670844338
 30
0.0
 11
-1155.0
 21
781.58033670844338
 31
0.0
  0
MTEXT
  5
32
100
AcDbEntity
  8
IMPORTED
 62
               1
100
AcDbMText
 10
-1762.1815850503604
 20
305.26269597406838
 30
0.0
 40
32.576797265624997
 41
0.0
 71
               1
 72
               1
  1
樹脂発泡シート巻
  7
_______
  0
LINE
  5
33
100
AcDbEntity
  8
IMPORTED
  6
CONTINUOUS
 62
               1
100
AcDbLine
 10
-1423.5152850503603
 20
248.97923670844341
 30
0.0
 11
-1773.0000850503602
 21
248.97923670844341
 31
0.0
  0
LINE
  5
34
100
AcDbEntity
  8
IMPORTED
  6
CONTINUOUS
 62
               1
100
AcDbLine
 10
-1773.0000850503602
 20
248.97923670844341
 30
0.0
 11
-2002.4998850503603
 21
382.25903670844338
 31
0.0
  0
LINE
  5
35
100
AcDbEntity
  8
IMPORTED
  6
CONTINUOUS
 62
               1
100
AcDbLine
 10
-1410.0
 20
152.99993670844341
 30
0.0
 11
-1778.0000850503602
 21
152.99993670844341
 31
0.0
  0
LINE
  5
36
100
AcDbEntity
  8
IMPORTED
  6
CONTINUOUS
 62
               1
100
AcDbLine
 10
-1363.0000850503604
 20
-62.000063291556557
 30
0.0
 11
-1738.0000850503602
 21
-62.000063291556557
 31
0.0
  0
LINE
  5
37
100
AcDbEntity
  8
IMPORTED
  6
CONTINUOUS
 62
               1
100
AcDbLine
 10
-1738.0000850503602
 20
-62.000063291556557
 30
0.0
 11
-1864.9998850503603
 21
61.999836708443439
 31
0.0
  0
LINE
  5
38
100
AcDbEntity
  8
IMPORTED
  6
CONTINUOUS
 62
               1
100
AcDbLine
 10
-1335.0
 20
-152.00006329155656
 30
0.0
 11
-1738.0000850503602
 21
-152.00006329155656
 31
0.0
  0
LINE
  5
39
100
AcDbEntity
  8
IMPORTED
  6
CONTINUOUS
 62
               1
100
AcDbLine
 10
-1738.0000850503602
 20
-152.00006329155656
 30
0.0
 11
-1864.9998850503603
 21
-25.000263291556564
 31
0.0
  0
LINE
  5
3A
100
AcDbEntity
  8
IMPORTED
  6
CONTINUOUS
 62
               1
100
AcDbLine
 10
-1778.0000850503602
 20
152.99993670844341
 30
0.0
 11
-1920.4516850503603
 21
235.2444367084434
 31
0.0
  0
LINE
  5
3B
100
AcDbEntity
  8
IMPORTED
  6
CONTINUOUS
 62
               1
100
AcDbLine
 10
-582.49988505036015
 20
-1557.4999630680391
 30
0.0
 11
-582.49988505036015
 21
-1845.9999998509884
 31
0.0
  0
LINE
  5
3C
100
AcDbEntity
  8
IMPORTED
  6
CONTINUOUS
 62
               1
100
AcDbLine
 10
-497.49988505036015
 20
-1557.4999630680391
 30
0.0
 11
-497.49988505036015
 21
-1845.9999998509884
 31
0.0
  0
LINE
  5
3D
100
AcDbEntity
  8
IMPORTED
  6
CONTINUOUS
 62
               1
100
AcDbLine
 10
-622.49988490134854
 20
-1806.0
 30
0.0
 11
-582.49988505036015
 21
-1806.0
 31
0.0
  0
LINE
  5
3E
100
AcDbEntity
  8
IMPORTED
  6
CONTINUOUS
 62
               1
100
AcDbLine
 10
-497.49988505036015
 20
-1806.0
 30
0.0
 11
-457.49988519937176
 21
-1806.0
 31
0.0
  0
LINE
  5
3F
100
AcDbEntity
  8
IMPORTED
  6
CONTINUOUS
 62
               1
100
AcDbLine
 10
-582.49988505036015
 20
-1806.0
 30
0.0
 11
-497.49988505036015
 21
-1806.0
 31
0.0
  0
SOLID
  5
40
100
AcDbEntity
  8
IMPORTED
 62
               1
100
AcDbTrace
 10
-582.49988505036015
 20
-1806.0
 30
0.0
 11
-542.50232645661015
 21
-1802.500667054333
 31
0.0
 12
-542.50232645661015
 22
-1809.499332945667
 32
0.0
 13
-542.50232645661015
 23
-1809.499332945667
 33
0.0
  0
SOLID
  5
41
100
AcDbEntity
  8
IMPORTED
 62
               1
100
AcDbTrace
 10
-497.49988505036015
 20
-1806.0
 30
0.0
 11
-537.49744364411015
 21
-1809.499332945667
 31
0.0
 12
-537.49744364411015
 22
-1802.500667054333
 32
0.0
 13
-537.49744364411015
 23
-1802.500667054333
 33
0.0
  0
MTEXT
  5
42
100
AcDbEntity
  8
IMPORTED
 62
               1
100
AcDbMText
 10
-561.16655171702689
 20
-1747.4965104911726
 30
0.0
 40
32.576822916666664
 41
0.0
 71
               1
 72
               1
  1
85
  7
_______
  0
LINE
  5
43
100
AcDbEntity
  8
IMPORTED
  6
CONTINUOUS
 62
               1
100
AcDbLine
 10
-442.49988527387757
 20
-1417.4999632915565
 30
0.0
 11
-112.00000014901164
 21
-1417.4999632915565
 31
0.0
  0
LINE
  5
44
100
AcDbEntity
  8
IMPORTED
  6
CONTINUOUS
 62
               1
100
AcDbLine
 10
-442.49988527387757
 20
-1502.4999632915565
 30
0.0
 11
-112.00000014901164
 21
-1502.4999632915565
 31
0.0
  0
LINE
  5
45
100
AcDbEntity
  8
IMPORTED
  6
CONTINUOUS
 62
               1
100
AcDbLine
 10
-152.00000000000003
 20
-1377.4999634405681
 30
0.0
 11
-152.00000000000003
 21
-1417.4999632915565
 31
0.0
  0
LINE
  5
46
100
AcDbEntity
  8
IMPORTED
  6
CONTINUOUS
 62
               1
100
AcDbLine
 10
-152.00000000000003
 20
-1502.4999632915565
 30
0.0
 11
-152.00000000000003
 21
-1542.4999631425449
 31
0.0
  0
LINE
  5
47
100
AcDbEntity
  8
IMPORTED
  6
CONTINUOUS
 62
               1
100
AcDbLine
 10
-152.00000000000003
 20
-1417.4999632915565
 30
0.0
 11
-152.00000000000003
 21
-1502.4999632915565
 31
0.0
  0
SOLID
  5
48
100
AcDbEntity
  8
IMPORTED
 62
               1
100
AcDbTrace
 10
-152.00000000000003
 20
-1417.4999632915565
 30
0.0
 11
-148.50066705433301
 21
-1457.4975218853065
 31
0.0
 12
-155.49933294566705
 22
-1457.4975218853065
 32
0.0
 13
-155.49933294566705
 23
-1457.4975218853065
 33
0.0
  0
SOLID
  5
49
100
AcDbEntity
  8
IMPORTED
 62
               1
100
AcDbTrace
 10
-152.00000000000003
 20
-1502.4999632915565
 30
0.0
 11
-155.49933294566705
 21
-1462.5024046978065
 31
0.0
 12
-148.50066705433301
 22
-1462.5024046978065
 32
0.0
 13
-148.50066705433301
 23
-1462.5024046978065
 33
0.0
  0
MTEXT
  5
4A
100
AcDbEntity
  8
IMPORTED
 62
               1
100
AcDbMText
 10
-210.50348950882756
 20
-1481.1666299582232
 30
0.0
 40
32.576822916666664
 41
0.0
 71
               1
 72
               1
  1
85
  7
_______
 11
0.0
 21
1.0
 31
0.0
  0
LINE
  5
4B
100
AcDbEntity
  8
IMPORTED
  6
CONTINUOUS
 62
               1
100
AcDbLine
 10
-2039.9998850503603
 20
-1357.4999635150739
 30
0.0
 11
-2039.9998850503603
 21
-1085.349863440568
 31
0.0
  0
LINE
  5
4C
100
AcDbEntity
  8
IMPORTED
  6
CONTINUOUS
 62
               1
100
AcDbLine
 10
-539.99988505036015
 20
-1357.4999635150739
 30
0.0
 11
-539.99988505036015
 21
-1085.349863440568
 31
0.0
  0
LINE
  5
4D
100
AcDbEntity
  8
IMPORTED
  6
CONTINUOUS
 62
               1
100
AcDbLine
 10
-2079.9998849013487
 20
-1125.3498632915564
 30
0.0
 11
-2039.9998850503603
 21
-1125.3498632915564
 31
0.0
  0
LINE
  5
4E
100
AcDbEntity
  8
IMPORTED
  6
CONTINUOUS
 62
               1
100
AcDbLine
 10
-539.99988505036015
 20
-1125.3498632915564
 30
0.0
 11
-499.99988519937176
 21
-1125.3498632915564
 31
0.0
  0
LINE
  5
4F
100
AcDbEntity
  8
IMPORTED
  6
CONTINUOUS
 62
               1
100
AcDbLine
 10
-2039.9998850503603
 20
-1125.3498632915564
 30
0.0
 11
-539.99988505036015
 21
-1125.3498632915564
 31
0.0
  0
SOLID
  5
50
100
AcDbEntity
  8
IMPORTED
 62
               1
100
AcDbTrace
 10
-2039.9998850503603
 20
-1125.3498632915564
 30
0.0
 11
-2000.0023264566103
 21
-1121.8505303458894
 31
0.0
 12
-2000.0023264566103
 22
-1128.8491962372234
 32
0.0
 13
-2000.0023264566103
 23
-1128.8491962372234
 33
0.0
  0
SOLID
  5
51
100
AcDbEntity
  8
IMPORTED
 62
               1
100
AcDbTrace
 10
-539.99988505036015
 20
-1125.3498632915564
 30
0.0
 11
-579.99744364411015
 21
-1128.8491962372234
 31
0.0
 12
-579.99744364411015
 22
-1121.8505303458894
 32
0.0
 13
-579.99744364411015
 23
-1121.8505303458894
 33
0.0
  0
MTEXT
  5
52
100
AcDbEntity
  8
IMPORTED
 62
               1
100
AcDbMText
 10
-1332.3332183836935
 20
-1066.846373782729
 30
0.0
 40
32.576822916666664
 41
0.0
 71
               1
 72
               1
  1
1500
  7
_______
  0
LINE
  5
53
100
AcDbEntity
  8
IMPORTED
  6
CONTINUOUS
 62
               1
100
AcDbLine
 10
1547.4999149496393
 20
1291.9998364849259
 30
0.0
 11
1547.4999149496393
 21
1489.9999998509884
 31
0.0
  0
LINE
  5
54
100
AcDbEntity
  8
IMPORTED
  6
CONTINUOUS
 62
               1
100
AcDbLine
 10
1632.4999149496393
 20
1291.9998364849259
 30
0.0
 11
1632.4999149496393
 21
1489.9999998509884
 31
0.0
  0
LINE
  5
55
100
AcDbEntity
  8
IMPORTED
  6
CONTINUOUS
 62
               1
100
AcDbLine
 10
1507.4999150986509
 20
1450.0
 30
0.0
 11
1547.4999149496393
 21
1450.0
 31
0.0
  0
LINE
  5
56
100
AcDbEntity
  8
IMPORTED
  6
CONTINUOUS
 62
               1
100
AcDbLine
 10
1632.4999149496393
 20
1450.0
 30
0.0
 11
1672.4999148006277
 21
1450.0
 31
0.0
  0
LINE
  5
57
100
AcDbEntity
  8
IMPORTED
  6
CONTINUOUS
 62
               1
100
AcDbLine
 10
1547.4999149496393
 20
1450.0
 30
0.0
 11
1632.4999149496393
 21
1450.0
 31
0.0
  0
SOLID
  5
58
100
AcDbEntity
  8
IMPORTED
 62
               1
100
AcDbTrace
 10
1547.4999149496393
 20
1450.0
 30
0.0
 11
1587.4974735433893
 21
1453.499332945667
 31
0.0
 12
1587.4974735433893
 22
1446.500667054333
 32
0.0
 13
1587.4974735433893
 23
1446.500667054333
 33
0.0
  0
SOLID
  5
59
100
AcDbEntity
  8
IMPORTED
 62
               1
100
AcDbTrace
 10
1632.4999149496393
 20
1450.0
 30
0.0
 11
1592.5023563558893
 21
1446.500667054333
 31
0.0
 12
1592.5023563558893
 22
1453.499332945667
 32
0.0
 13
1592.5023563558893
 23
1453.499332945667
 33
0.0
  0
MTEXT
  5
5A
100
AcDbEntity
  8
IMPORTED
 62
               1
100
AcDbMText
 10
1568.8332482829726
 20
1508.5034895088274
 30
0.0
 40
32.576822916666664
 41
0.0
 71
               1
 72
               1
  1
85
  7
_______
  0
LINE
  5
5B
100
AcDbEntity
  8
IMPORTED
  6
CONTINUOUS
 62
               1
100
AcDbLine
 10
1364.9999149496393
 20
-123.00006306803914
 30
0.0
 11
1364.9999149496393
 21
-261.99999985098839
 31
0.0
  0
LINE
  5
5C
100
AcDbEntity
  8
IMPORTED
  6
CONTINUOUS
 62
               1
100
AcDbLine
 10
1414.9999149496393
 20
26.999836931960857
 30
0.0
 11
1414.9999149496393
 21
-261.99999985098839
 31
0.0
  0
LINE
  5
5D
100
AcDbEntity
  8
IMPORTED
  6
CONTINUOUS
 62
               1
100
AcDbLine
 10
1324.9999150986509
 20
-222.0
 30
0.0
 11
1364.9999149496393
 21
-222.0
 31
0.0
  0
LINE
  5
5E
100
AcDbEntity
  8
IMPORTED
  6
CONTINUOUS
 62
               1
100
AcDbLine
 10
1414.9999149496393
 20
-222.00000000000003
 30
0.0
 11
1454.9999148006277
 21
-222.00000000000003
 31
0.0
  0
LINE
  5
5F
100
AcDbEntity
  8
IMPORTED
  6
CONTINUOUS
 62
               1
100
AcDbLine
 10
1364.9999149496393
 20
-222.0
 30
0.0
 11
1414.9999149496393
 21
-222.00000000000003
 31
0.0
  0
SOLID
  5
60
100
AcDbEntity
  8
IMPORTED
 62
               1
100
AcDbTrace
 10
1364.9999149496393
 20
-222.0
 30
0.0
 11
1404.9974735433893
 21
-218.50066705433298
 31
0.0
 12
1404.9974735433893
 22
-225.49933294566702
 32
0.0
 13
1404.9974735433893
 23
-225.49933294566702
 33
0.0
  0
SOLID
  5
61
100
AcDbEntity
  8
IMPORTED
 62
               1
100
AcDbTrace
 10
1414.9999149496393
 20
-222.00000000000003
 30
0.0
 11
1374.9473763969686
 21
-224.80074633123283
 31
0.0
 12
1375.0695199586228
 22
-217.80314637061284
 32
0.0
 13
1375.0695199586228
 23
-217.80314637061284
 33
0.0
  0
MTEXT
  5
62
100
AcDbEntity
  8
IMPORTED
 62
               1
100
AcDbMText
 10
1368.8332482829726
 20
-163.49651049117247
 30
0.0
 40
32.576822916666664
 41
0.0
 71
               1
 72
               1
  1
50
  7
_______
  0
LINE
  5
63
100
AcDbEntity
  8
IMPORTED
  6
CONTINUOUS
 62
               1
100
AcDbLine
 10
1414.9999149496393
 20
26.999836931960857
 30
0.0
 11
1414.9999149496393
 21
-261.99999985098839
 31
0.0
  0
LINE
  5
64
100
AcDbEntity
  8
IMPORTED
  6
CONTINUOUS
 62
               1
100
AcDbLine
 10
1764.9999149496393
 20
26.999836931960857
 30
0.0
 11
1764.9999149496393
 21
-261.99999985098839
 31
0.0
  0
LINE
  5
65
100
AcDbEntity
  8
IMPORTED
  6
CONTINUOUS
 62
               1
100
AcDbLine
 10
1374.9999150986509
 20
-222.00000000000003
 30
0.0
 11
1414.9999149496393
 21
-222.00000000000003
 31
0.0
  0
LINE
  5
66
100
AcDbEntity
  8
IMPORTED
  6
CONTINUOUS
 62
               1
100
AcDbLine
 10
1764.9999149496393
 20
-222.00000000000003
 30
0.0
 11
1804.9999148006277
 21
-222.00000000000003
 31
0.0
  0
LINE
  5
67
100
AcDbEntity
  8
IMPORTED
  6
CONTINUOUS
 62
               1
100
AcDbLine
 10
1414.9999149496393
 20
-222.00000000000003
 30
0.0
 11
1764.9999149496393
 21
-222.00000000000003
 31
0.0
  0
SOLID
  5
68
100
AcDbEntity
  8
IMPORTED
 62
               1
100
AcDbTrace
 10
1414.9999149496393
 20
-222.00000000000003
 30
0.0
 11
1454.9974735433893
 21
-218.50066705433301
 31
0.0
 12
1454.9974735433893
 22
-225.49933294566705
 32
0.0
 13
1454.9974735433893
 23
-225.49933294566705
 33
0.0
  0
SOLID
  5
69
100
AcDbEntity
  8
IMPORTED
 62
               1
100
AcDbTrace
 10
1764.9999149496393
 20
-222.00000000000003
 30
0.0
 11
1725.0023563558893
 21
-225.49933294566705
 31
0.0
 12
1725.0023563558893
 22
-218.50066705433301
 32
0.0
 13
1725.0023563558893
 23
-218.50066705433301
 33
0.0
  0
MTEXT
  5
6A
100
AcDbEntity
  8
IMPORTED
 62
               1
100
AcDbMText
 10
1558.2499149496393
 20
-163.4965104911725
 30
0.0
 40
32.576822916666664
 41
0.0
 71
               1
 72
               1
  1
350
  7
_______
  0
LINE
  5
6B
100
AcDbEntity
  8
IMPORTED
  6
CONTINUOUS
 62
               1
100
AcDbLine
 10
1764.9999149496393
 20
26.999836931960857
 30
0.0
 11
1764.9999149496393
 21
-261.99999985098839
 31
0.0
  0
LINE
  5
6C
100
AcDbEntity
  8
IMPORTED
  6
CONTINUOUS
 62
               1
100
AcDbLine
 10
1814.9999149496393
 20
-123.00006306803914
 30
0.0
 11
1814.9999149496393
 21
-261.99999985098839
 31
0.0
  0
LINE
  5
6D
100
AcDbEntity
  8
IMPORTED
  6
CONTINUOUS
 62
               1
100
AcDbLine
 10
1724.9999150986509
 20
-222.00000000000003
 30
0.0
 11
1764.9999149496393
 21
-222.00000000000003
 31
0.0
  0
LINE
  5
6E
100
AcDbEntity
  8
IMPORTED
  6
CONTINUOUS
 62
               1
100
AcDbLine
 10
1814.9999149496393
 20
-222.00000000000003
 30
0.0
 11
1854.9999148006277
 21
-222.00000000000003
 31
0.0
  0
LINE
  5
6F
100
AcDbEntity
  8
IMPORTED
  6
CONTINUOUS
 62
               1
100
AcDbLine
 10
1764.9999149496393
 20
-222.00000000000003
 30
0.0
 11
1814.9999149496393
 21
-222.00000000000003
 31
0.0
  0
SOLID
  5
70
100
AcDbEntity
  8
IMPORTED
 62
               1
100
AcDbTrace
 10
1764.9999149496393
 20
-222.00000000000003
 30
0.0
 11
1804.9974735433893
 21
-218.50066705433301
 31
0.0
 12
1804.9974735433893
 22
-225.49933294566705
 32
0.0
 13
1804.9974735433893
 23
-225.49933294566705
 33
0.0
  0
SOLID
  5
71
100
AcDbEntity
  8
IMPORTED
 62
               1
100
AcDbTrace
 10
1814.9999149496393
 20
-222.00000000000003
 30
0.0
 11
1775.0023563558893
 21
-225.49933294566705
 31
0.0
 12
1775.0023563558893
 22
-218.50066705433301
 32
0.0
 13
1775.0023563558893
 23
-218.50066705433301
 33
0.0
  0
MTEXT
  5
72
100
AcDbEntity
  8
IMPORTED
 62
               1
100
AcDbMText
 10
1768.8332482829726
 20
-163.4965104911725
 30
0.0
 40
32.576822916666664
 41
0.0
 71
               1
 72
               1
  1
50
  7
_______
  0
LINE
  5
73
100
AcDbEntity
  8
IMPORTED
  6
CONTINUOUS
 62
               1
100
AcDbLine
 10
1814.9999149496393
 20
-123.00006306803914
 30
0.0
 11
1814.9999149496393
 21
-375.99999985098839
 31
0.0
  0
LINE
  5
74
100
AcDbEntity
  8
IMPORTED
  6
CONTINUOUS
 62
               1
100
AcDbLine
 10
1364.9999149496393
 20
-123.00006306803914
 30
0.0
 11
1364.9999149496393
 21
-375.99999985098839
 31
0.0
  0
LINE
  5
75
100
AcDbEntity
  8
IMPORTED
  6
CONTINUOUS
 62
               1
100
AcDbLine
 10
1854.9999148006277
 20
-336.0
 30
0.0
 11
1814.9999149496393
 21
-336.0
 31
0.0
  0
LINE
  5
76
100
AcDbEntity
  8
IMPORTED
  6
CONTINUOUS
 62
               1
100
AcDbLine
 10
1364.9999149496393
 20
-336.0
 30
0.0
 11
1324.9999150986509
 21
-336.0
 31
0.0
  0
LINE
  5
77
100
AcDbEntity
  8
IMPORTED
  6
CONTINUOUS
 62
               1
100
AcDbLine
 10
1814.9999149496393
 20
-336.0
 30
0.0
 11
1364.9999149496393
 21
-336.0
 31
0.0
  0
SOLID
  5
78
100
AcDbEntity
  8
IMPORTED
 62
               1
100
AcDbTrace
 10
1814.9999149496393
 20
-336.0
 30
0.0
 11
1775.0023563558893
 21
-339.49933294566705
 31
0.0
 12
1775.0023563558893
 22
-332.50066705433301
 32
0.0
 13
1775.0023563558893
 23
-332.50066705433301
 33
0.0
  0
SOLID
  5
79
100
AcDbEntity
  8
IMPORTED
 62
               1
100
AcDbTrace
 10
1364.9999149496393
 20
-336.0
 30
0.0
 11
1404.9974735433893
 21
-332.50066705433295
 31
0.0
 12
1404.9974735433893
 22
-339.49933294566705
 32
0.0
 13
1404.9974735433893
 23
-339.49933294566705
 33
0.0
  0
MTEXT
  5
7A
100
AcDbEntity
  8
IMPORTED
 62
               1
100
AcDbMText
 10
1558.2499149496393
 20
-277.4965104911725
 30
0.0
 40
32.576822916666664
 41
0.0
 71
               1
 72
               1
  1
450
  7
_______
  0
LINE
  5
7B
100
AcDbEntity
  8
IMPORTED
  6
CONTINUOUS
 62
               1
100
AcDbLine
 10
-764.99988505036026
 20
-123.00006306803914
 30
0.0
 11
-764.99988505036026
 21
-258.99996314254497
 31
0.0
  0
LINE
  5
7C
100
AcDbEntity
  8
IMPORTED
  6
CONTINUOUS
 62
               1
100
AcDbLine
 10
-714.99988505036026
 20
26.999836931960857
 30
0.0
 11
-714.99988505036026
 21
-258.99996314254497
 31
0.0
  0
LINE
  5
7D
100
AcDbEntity
  8
IMPORTED
  6
CONTINUOUS
 62
               1
100
AcDbLine
 10
-804.99988490134865
 20
-218.99996329155655
 30
0.0
 11
-764.99988505036026
 21
-218.99996329155655
 31
0.0
  0
LINE
  5
7E
100
AcDbEntity
  8
IMPORTED
  6
CONTINUOUS
 62
               1
100
AcDbLine
 10
-714.99988505036026
 20
-218.99996329155655
 30
0.0
 11
-674.99988519937187
 21
-218.99996329155655
 31
0.0
  0
LINE
  5
7F
100
AcDbEntity
  8
IMPORTED
  6
CONTINUOUS
 62
               1
100
AcDbLine
 10
-764.99988505036026
 20
-218.99996329155655
 30
0.0
 11
-714.99988505036026
 21
-218.99996329155655
 31
0.0
  0
SOLID
  5
80
100
AcDbEntity
  8
IMPORTED
 62
               1
100
AcDbTrace
 10
-764.99988505036026
 20
-218.99996329155655
 30
0.0
 11
-725.00232645661026
 21
-215.50063034588953
 31
0.0
 12
-725.00232645661026
 22
-222.49929623722358
 32
0.0
 13
-725.00232645661026
 23
-222.49929623722358
 33
0.0
  0
SOLID
  5
81
100
AcDbEntity
  8
IMPORTED
 62
               1
100
AcDbTrace
 10
-714.99988505036026
 20
-218.99996329155655
 30
0.0
 11
-754.99744364411026
 21
-222.49929623722358
 31
0.0
 12
-754.99744364411026
 22
-215.50063034588953
 32
0.0
 13
-754.99744364411026
 23
-215.50063034588953
 33
0.0
  0
MTEXT
  5
82
100
AcDbEntity
  8
IMPORTED
 62
               1
100
AcDbMText
 10
-761.16655171702689
 20
-160.49647378272903
 30
0.0
 40
32.576822916666664
 41
0.0
 71
               1
 72
               1
  1
50
  7
_______
  0
LINE
  5
83
100
AcDbEntity
  8
IMPORTED
  6
CONTINUOUS
 62
               1
100
AcDbLine
 10
-714.99988505036026
 20
26.999836931960857
 30
0.0
 11
-714.99988505036026
 21
-258.99996314254497
 31
0.0
  0
LINE
  5
84
100
AcDbEntity
  8
IMPORTED
  6
CONTINUOUS
 62
               1
100
AcDbLine
 10
-364.99988505036038
 20
26.999836931960857
 30
0.0
 11
-364.99988505036038
 21
-258.99996314254497
 31
0.0
  0
LINE
  5
85
100
AcDbEntity
  8
IMPORTED
  6
CONTINUOUS
 62
               1
100
AcDbLine
 10
-754.99988490134865
 20
-218.99996329155655
 30
0.0
 11
-714.99988505036026
 21
-218.99996329155655
 31
0.0
  0
LINE
  5
86
100
AcDbEntity
  8
IMPORTED
  6
CONTINUOUS
 62
               1
100
AcDbLine
 10
-364.99988505036038
 20
-218.99996329155655
 30
0.0
 11
-324.99988519937199
 21
-218.99996329155655
 31
0.0
  0
LINE
  5
87
100
AcDbEntity
  8
IMPORTED
  6
CONTINUOUS
 62
               1
100
AcDbLine
 10
-714.99988505036026
 20
-218.99996329155655
 30
0.0
 11
-364.99988505036038
 21
-218.99996329155655
 31
0.0
  0
SOLID
  5
88
100
AcDbEntity
  8
IMPORTED
 62
               1
100
AcDbTrace
 10
-714.99988505036026
 20
-218.99996329155655
 30
0.0
 11
-675.00232645661026
 21
-215.50063034588953
 31
0.0
 12
-675.00232645661026
 22
-222.49929623722358
 32
0.0
 13
-675.00232645661026
 23
-222.49929623722358
 33
0.0
  0
SOLID
  5
89
100
AcDbEntity
  8
IMPORTED
 62
               1
100
AcDbTrace
 10
-364.99988505036038
 20
-218.99996329155655
 30
0.0
 11
-404.99744364411038
 21
-222.49929623722358
 31
0.0
 12
-404.99744364411038
 22
-215.50063034588953
 32
0.0
 13
-404.99744364411038
 23
-215.50063034588953
 33
0.0
  0
MTEXT
  5
8A
100
AcDbEntity
  8
IMPORTED
 62
               1
100
AcDbMText
 10
-571.74988505036026
 20
-160.49647378272903
 30
0.0
 40
32.576822916666664
 41
0.0
 71
               1
 72
               1
  1
350
  7
_______
  0
LINE
  5
8B
100
AcDbEntity
  8
IMPORTED
  6
CONTINUOUS
 62
               1
100
AcDbLine
 10
-364.99988505036038
 20
26.999836931960857
 30
0.0
 11
-364.99988505036038
 21
-258.99996314254497
 31
0.0
  0
LINE
  5
8C
100
AcDbEntity
  8
IMPORTED
  6
CONTINUOUS
 62
               1
100
AcDbLine
 10
-314.99988505036038
 20
-123.00006306803914
 30
0.0
 11
-314.99988505036038
 21
-258.99996314254497
 31
0.0
  0
LINE
  5
8D
100
AcDbEntity
  8
IMPORTED
  6
CONTINUOUS
 62
               1
100
AcDbLine
 10
-404.99988490134876
 20
-218.99996329155655
 30
0.0
 11
-364.99988505036038
 21
-218.99996329155655
 31
0.0
  0
LINE
  5
8E
100
AcDbEntity
  8
IMPORTED
  6
CONTINUOUS
 62
               1
100
AcDbLine
 10
-314.99988505036038
 20
-218.99996329155655
 30
0.0
 11
-274.99988519937199
 21
-218.99996329155655
 31
0.0
  0
LINE
  5
8F
100
AcDbEntity
  8
IMPORTED
  6
CONTINUOUS
 62
               1
100
AcDbLine
 10
-364.99988505036038
 20
-218.99996329155655
 30
0.0
 11
-314.99988505036038
 21
-218.99996329155655
 31
0.0
  0
SOLID
  5
90
100
AcDbEntity
  8
IMPORTED
 62
               1
100
AcDbTrace
 10
-364.99988505036038
 20
-218.99996329155655
 30
0.0
 11
-325.00232645661038
 21
-215.50063034588953
 31
0.0
 12
-325.00232645661038
 22
-222.49929623722358
 32
0.0
 13
-325.00232645661038
 23
-222.49929623722358
 33
0.0
  0
SOLID
  5
91
100
AcDbEntity
  8
IMPORTED
 62
               1
100
AcDbTrace
 10
-314.99988505036038
 20
-218.99996329155655
 30
0.0
 11
-354.99744364411038
 21
-222.49929623722358
 31
0.0
 12
-354.99744364411038
 22
-215.50063034588953
 32
0.0
 13
-354.99744364411038
 23
-215.50063034588953
 33
0.0
  0
MTEXT
  5
92
100
AcDbEntity
  8
IMPORTED
 62
               1
100
AcDbMText
 10
-361.166551717027
 20
-160.49647378272903
 30
0.0
 40
32.576822916666664
 41
0.0
 71
               1
 72
               1
  1
50
  7
_______
  0
LINE
  5
93
100
AcDbEntity
  8
IMPORTED
  6
CONTINUOUS
 62
               1
100
AcDbLine
 10
-314.99988505036038
 20
-123.00006306803914
 30
0.0
 11
-314.99988505036038
 21
-375.99999985098839
 31
0.0
  0
LINE
  5
94
100
AcDbEntity
  8
IMPORTED
  6
CONTINUOUS
 62
               1
100
AcDbLine
 10
-764.99988505036026
 20
-123.00006306803914
 30
0.0
 11
-764.99988505036026
 21
-375.99999985098839
 31
0.0
  0
LINE
  5
95
100
AcDbEntity
  8
IMPORTED
  6
CONTINUOUS
 62
               1
100
AcDbLine
 10
-274.99988519937199
 20
-336.0
 30
0.0
 11
-314.99988505036038
 21
-336.0
 31
0.0
  0
LINE
  5
96
100
AcDbEntity
  8
IMPORTED
  6
CONTINUOUS
 62
               1
100
AcDbLine
 10
-764.99988505036026
 20
-336.0
 30
0.0
 11
-804.99988490134865
 21
-336.0
 31
0.0
  0
LINE
  5
97
100
AcDbEntity
  8
IMPORTED
  6
CONTINUOUS
 62
               1
100
AcDbLine
 10
-314.99988505036038
 20
-336.0
 30
0.0
 11
-764.99988505036026
 21
-336.0
 31
0.0
  0
SOLID
  5
98
100
AcDbEntity
  8
IMPORTED
 62
               1
100
AcDbTrace
 10
-314.99988505036038
 20
-336.0
 30
0.0
 11
-354.99744364411038
 21
-339.49933294566705
 31
0.0
 12
-354.99744364411038
 22
-332.50066705433301
 32
0.0
 13
-354.99744364411038
 23
-332.50066705433301
 33
0.0
  0
SOLID
  5
99
100
AcDbEntity
  8
IMPORTED
 62
               1
100
AcDbTrace
 10
-764.99988505036026
 20
-336.0
 30
0.0
 11
-725.00232645661026
 21
-332.50066705433295
 31
0.0
 12
-725.00232645661026
 22
-339.49933294566705
 32
0.0
 13
-725.00232645661026
 23
-339.49933294566705
 33
0.0
  0
MTEXT
  5
9A
100
AcDbEntity
  8
IMPORTED
 62
               1
100
AcDbMText
 10
-571.74988505036026
 20
-277.4965104911725
 30
0.0
 40
32.576822916666664
 41
0.0
 71
               1
 72
               1
  1
450
  7
_______
  0
LINE
  5
9B
100
AcDbEntity
  8
IMPORTED
  6
CONTINUOUS
 62
               1
100
AcDbLine
 10
-442.49988527387779
 20
1236.9998367084434
 30
0.0
 11
-99.999985199371991
 21
1236.9998367084434
 31
0.0
  0
LINE
  5
9C
100
AcDbEntity
  8
IMPORTED
  6
CONTINUOUS
 62
               1
100
AcDbLine
 10
-400.89988527387766
 20
1086.9999367084433
 30
0.0
 11
-99.999985199371991
 21
1086.9999367084433
 31
0.0
  0
LINE
  5
9D
100
AcDbEntity
  8
IMPORTED
  6
CONTINUOUS
 62
               1
100
AcDbLine
 10
-139.99998505036038
 20
1276.9998365594317
 30
0.0
 11
-139.99998505036038
 21
1236.9998367084434
 31
0.0
  0
LINE
  5
9E
100
AcDbEntity
  8
IMPORTED
  6
CONTINUOUS
 62
               1
100
AcDbLine
 10
-139.99998505036038
 20
1086.9999367084433
 30
0.0
 11
-139.99998505036038
 21
1046.9999368574549
 31
0.0
  0
LINE
  5
9F
100
AcDbEntity
  8
IMPORTED
  6
CONTINUOUS
 62
               1
100
AcDbLine
 10
-139.99998505036038
 20
1236.9998367084434
 30
0.0
 11
-139.99998505036038
 21
1086.9999367084433
 31
0.0
  0
SOLID
  5
A0
100
AcDbEntity
  8
IMPORTED
 62
               1
100
AcDbTrace
 10
-139.99998505036038
 20
1236.9998367084434
 30
0.0
 11
-136.50065210469336
 21
1197.0022781146934
 31
0.0
 12
-143.4993179960274
 22
1197.0022781146934
 32
0.0
 13
-143.4993179960274
 23
1197.0022781146934
 33
0.0
  0
SOLID
  5
A1
100
AcDbEntity
  8
IMPORTED
 62
               1
100
AcDbTrace
 10
-139.99998505036038
 20
1086.9999367084433
 30
0.0
 11
-143.4993179960274
 21
1126.9974953021933
 31
0.0
 12
-136.50065210469336
 22
1126.9974953021933
 32
0.0
 13
-136.50065210469336
 23
1126.9974953021933
 33
0.0
  0
MTEXT
  5
A2
100
AcDbEntity
  8
IMPORTED
 62
               1
100
AcDbMText
 10
-198.50347455918791
 20
1130.2498867084435
 30
0.0
 40
32.576822916666664
 41
0.0
 71
               1
 72
               1
  1
150
  7
_______
 11
0.0
 21
1.0
 31
0.0
  0
LINE
  5
A3
100
AcDbEntity
  8
IMPORTED
  6
CONTINUOUS
 62
               1
100
AcDbLine
 10
-400.89988527387766
 20
1086.9999367084433
 30
0.0
 11
-99.999985199371991
 21
1086.9999367084433
 31
0.0
  0
LINE
  5
A4
100
AcDbEntity
  8
IMPORTED
  6
CONTINUOUS
 62
               1
100
AcDbLine
 10
-279.99988527387779
 20
486.99983670844341
 30
0.0
 11
-99.999985199371991
 21
486.99983670844341
 31
0.0
  0
LINE
  5
A5
100
AcDbEntity
  8
IMPORTED
  6
CONTINUOUS
 62
               1
100
AcDbLine
 10
-139.99998505036038
 20
1126.9999365594317
 30
0.0
 11
-139.99998505036038
 21
1086.9999367084433
 31
0.0
  0
LINE
  5
A6
100
AcDbEntity
  8
IMPORTED
  6
CONTINUOUS
 62
               1
100
AcDbLine
 10
-139.99998505036038
 20
486.99983670844341
 30
0.0
 11
-139.99998505036038
 21
446.99983685745502
 31
0.0
  0
LINE
  5
A7
100
AcDbEntity
  8
IMPORTED
  6
CONTINUOUS
 62
               1
100
AcDbLine
 10
-139.99998505036038
 20
1086.9999367084433
 30
0.0
 11
-139.99998505036038
 21
486.99983670844341
 31
0.0
  0
SOLID
  5
A8
100
AcDbEntity
  8
IMPORTED
 62
               1
100
AcDbTrace
 10
-139.99998505036038
 20
1086.9999367084433
 30
0.0
 11
-136.50065210469336
 21
1047.0023781146933
 31
0.0
 12
-143.4993179960274
 22
1047.0023781146933
 32
0.0
 13
-143.4993179960274
 23
1047.0023781146933
 33
0.0
  0
SOLID
  5
A9
100
AcDbEntity
  8
IMPORTED
 62
               1
100
AcDbTrace
 10
-139.99998505036038
 20
486.99983670844341
 30
0.0
 11
-143.4993179960274
 21
526.99739530219335
 31
0.0
 12
-136.50065210469336
 22
526.99739530219335
 32
0.0
 13
-136.50065210469336
 23
526.99739530219335
 33
0.0
  0
MTEXT
  5
AA
100
AcDbEntity
  8
IMPORTED
 62
               1
100
AcDbMText
 10
-198.50347455918791
 20
755.24988670844346
 30
0.0
 40
32.576822916666664
 41
0.0
 71
               1
 72
               1
  1
600
  7
_______
 11
0.0
 21
1.0
 31
0.0
  0
LINE
  5
AB
100
AcDbEntity
  8
IMPORTED
  6
CONTINUOUS
 62
               1
100
AcDbLine
 10
-279.99988527387779
 20
486.99983670844341
 30
0.0
 11
-99.999985199371991
 21
486.99983670844341
 31
0.0
  0
LINE
  5
AC
100
AcDbEntity
  8
IMPORTED
  6
CONTINUOUS
 62
               1
100
AcDbLine
 10
-304.99988527387779
 20
436.99983670844341
 30
0.0
 11
-99.999985199371991
 21
436.99983670844341
 31
0.0
  0
LINE
  5
AD
100
AcDbEntity
  8
IMPORTED
  6
CONTINUOUS
 62
               1
100
AcDbLine
 10
-139.99998505036038
 20
526.99983655943174
 30
0.0
 11
-139.99998505036038
 21
486.99983670844341
 31
0.0
  0
LINE
  5
AE
100
AcDbEntity
  8
IMPORTED
  6
CONTINUOUS
 62
               1
100
AcDbLine
 10
-139.99998505036038
 20
436.99983670844341
 30
0.0
 11
-139.99998505036038
 21
396.99983685745502
 31
0.0
  0
LINE
  5
AF
100
AcDbEntity
  8
IMPORTED
  6
CONTINUOUS
 62
               1
100
AcDbLine
 10
-139.99998505036038
 20
486.99983670844341
 30
0.0
 11
-139.99998505036038
 21
436.99983670844341
 31
0.0
  0
SOLID
  5
B0
100
AcDbEntity
  8
IMPORTED
 62
               1
100
AcDbTrace
 10
-139.99998505036038
 20
486.99983670844341
 30
0.0
 11
-136.50065210469336
 21
447.00227811469341
 31
0.0
 12
-143.4993179960274
 22
447.00227811469341
 32
0.0
 13
-143.4993179960274
 23
447.00227811469341
 33
0.0
  0
SOLID
  5
B1
100
AcDbEntity
  8
IMPORTED
 62
               1
100
AcDbTrace
 10
-139.99998505036038
 20
436.99983670844341
 30
0.0
 11
-143.4993179960274
 21
476.99739530219341
 31
0.0
 12
-136.50065210469336
 22
476.99739530219341
 32
0.0
 13
-136.50065210469336
 23
476.99739530219341
 33
0.0
  0
MTEXT
  5
B2
100
AcDbEntity
  8
IMPORTED
 62
               1
100
AcDbMText
 10
-198.50347455918791
 20
440.83317004177678
 30
0.0
 40
32.576822916666664
 41
0.0
 71
               1
 72
               1
  1
50
  7
_______
 11
0.0
 21
1.0
 31
0.0
  0
LINE
  5
B3
100
AcDbEntity
  8
IMPORTED
  6
CONTINUOUS
 62
               1
100
AcDbLine
 10
-304.99988527387779
 20
436.99983670844341
 30
0.0
 11
-99.999985199371991
 21
436.99983670844341
 31
0.0
  0
LINE
  5
B4
100
AcDbEntity
  8
IMPORTED
  6
CONTINUOUS
 62
               1
100
AcDbLine
 10
-254.99988527387777
 20
86.999836708443439
 30
0.0
 11
-99.999985199371991
 21
86.999836708443439
 31
0.0
  0
LINE
  5
B5
100
AcDbEntity
  8
IMPORTED
  6
CONTINUOUS
 62
               1
100
AcDbLine
 10
-139.99998505036038
 20
476.9998365594318
 30
0.0
 11
-139.99998505036038
 21
436.99983670844341
 31
0.0
  0
LINE
  5
B6
100
AcDbEntity
  8
IMPORTED
  6
CONTINUOUS
 62
               1
100
AcDbLine
 10
-139.99998505036038
 20
86.999836708443439
 30
0.0
 11
-139.99998505036038
 21
46.999836857455051
 31
0.0
  0
LINE
  5
B7
100
AcDbEntity
  8
IMPORTED
  6
CONTINUOUS
 62
               1
100
AcDbLine
 10
-139.99998505036038
 20
436.99983670844341
 30
0.0
 11
-139.99998505036038
 21
86.999836708443439
 31
0.0
  0
SOLID
  5
B8
100
AcDbEntity
  8
IMPORTED
 62
               1
100
AcDbTrace
 10
-139.99998505036038
 20
436.99983670844341
 30
0.0
 11
-136.50065210469336
 21
397.00227811469341
 31
0.0
 12
-143.4993179960274
 22
397.00227811469341
 32
0.0
 13
-143.4993179960274
 23
397.00227811469341
 33
0.0
  0
SOLID
  5
B9
100
AcDbEntity
  8
IMPORTED
 62
               1
100
AcDbTrace
 10
-139.99998505036038
 20
86.999836708443439
 30
0.0
 11
-143.4993179960274
 21
126.99739530219344
 31
0.0
 12
-136.50065210469336
 22
126.99739530219344
 32
0.0
 13
-136.50065210469336
 23
126.99739530219344
 33
0.0
  0
MTEXT
  5
BA
100
AcDbEntity
  8
IMPORTED
 62
               1
100
AcDbMText
 10
-198.50347455918791
 20
230.24983670844341
 30
0.0
 40
32.576822916666664
 41
0.0
 71
               1
 72
               1
  1
350
  7
_______
 11
0.0
 21
1.0
 31
0.0
  0
LINE
  5
BB
100
AcDbEntity
  8
IMPORTED
  6
CONTINUOUS
 62
               1
100
AcDbLine
 10
-254.99988527387777
 20
86.999836708443439
 30
0.0
 11
-99.999985199371991
 21
86.999836708443439
 31
0.0
  0
LINE
  5
BC
100
AcDbEntity
  8
IMPORTED
  6
CONTINUOUS
 62
               1
100
AcDbLine
 10
-254.99988527387777
 20
36.999836708443425
 30
0.0
 11
-99.999985199371991
 21
36.999836708443425
 31
0.0
  0
LINE
  5
BD
100
AcDbEntity
  8
IMPORTED
  6
CONTINUOUS
 62
               1
100
AcDbLine
 10
-139.99998505036038
 20
126.99983655943183
 30
0.0
 11
-139.99998505036038
 21
86.999836708443439
 31
0.0
  0
LINE
  5
BE
100
AcDbEntity
  8
IMPORTED
  6
CONTINUOUS
 62
               1
100
AcDbLine
 10
-139.99998505036038
 20
36.999836708443425
 30
0.0
 11
-139.99998505036038
 21
-3.0001631425449631
 31
0.0
  0
LINE
  5
BF
100
AcDbEntity
  8
IMPORTED
  6
CONTINUOUS
 62
               1
100
AcDbLine
 10
-139.99998505036038
 20
86.999836708443439
 30
0.0
 11
-139.99998505036038
 21
36.999836708443425
 31
0.0
  0
SOLID
  5
C0
100
AcDbEntity
  8
IMPORTED
 62
               1
100
AcDbTrace
 10
-139.99998505036038
 20
86.999836708443439
 30
0.0
 11
-136.50065210469336
 21
47.002278114693439
 31
0.0
 12
-143.4993179960274
 22
47.002278114693439
 32
0.0
 13
-143.4993179960274
 23
47.002278114693439
 33
0.0
  0
SOLID
  5
C1
100
AcDbEntity
  8
IMPORTED
 62
               1
100
AcDbTrace
 10
-139.99998505036038
 20
36.999836708443425
 30
0.0
 11
-143.4993179960274
 21
76.997395302193411
 31
0.0
 12
-136.50065210469336
 22
76.997395302193411
 32
0.0
 13
-136.50065210469336
 23
76.997395302193411
 33
0.0
  0
MTEXT
  5
C2
100
AcDbEntity
  8
IMPORTED
 62
               1
100
AcDbMText
 10
-198.50347455918791
 20
40.833170041776782
 30
0.0
 40
32.576822916666664
 41
0.0
 71
               1
 72
               1
  1
50
  7
_______
 11
0.0
 21
1.0
 31
0.0
  0
LINE
  5
C3
100
AcDbEntity
  8
IMPORTED
  6
CONTINUOUS
 62
               1
100
AcDbLine
 10
-254.99988527387777
 20
36.999836708443425
 30
0.0
 11
-99.999985199371991
 21
36.999836708443425
 31
0.0
  0
LINE
  5
C4
100
AcDbEntity
  8
IMPORTED
  6
CONTINUOUS
 62
               1
100
AcDbLine
 10
-254.99988527387777
 20
-63.000063291556557
 30
0.0
 11
-99.999985199371991
 21
-63.000063291556557
 31
0.0
  0
LINE
  5
C5
100
AcDbEntity
  8
IMPORTED
  6
CONTINUOUS
 62
               1
100
AcDbLine
 10
-139.99998505036038
 20
76.999836559431799
 30
0.0
 11
-139.99998505036038
 21
36.999836708443425
 31
0.0
  0
LINE
  5
C6
100
AcDbEntity
  8
IMPORTED
  6
CONTINUOUS
 62
               1
100
AcDbLine
 10
-139.99998505036038
 20
-63.000063291556557
 30
0.0
 11
-139.99998505036038
 21
-103.00006314254495
 31
0.0
  0
LINE
  5
C7
100
AcDbEntity
  8
IMPORTED
  6
CONTINUOUS
 62
               1
100
AcDbLine
 10
-139.99998505036038
 20
36.999836708443425
 30
0.0
 11
-139.99998505036038
 21
-63.000063291556557
 31
0.0
  0
SOLID
  5
C8
100
AcDbEntity
  8
IMPORTED
 62
               1
100
AcDbTrace
 10
-139.99998505036038
 20
36.999836708443425
 30
0.0
 11
-136.50065210469336
 21
-2.997721885306575
 31
0.0
 12
-143.4993179960274
 22
-2.997721885306575
 32
0.0
 13
-143.4993179960274
 23
-2.997721885306575
 33
0.0
  0
SOLID
  5
C9
100
AcDbEntity
  8
IMPORTED
 62
               1
100
AcDbTrace
 10
-139.99998505036038
 20
-63.000063291556557
 30
0.0
 11
-143.4993179960274
 21
-23.002504697806557
 31
0.0
 12
-136.50065210469336
 22
-23.002504697806557
 32
0.0
 13
-136.50065210469336
 23
-23.002504697806557
 33
0.0
  0
MTEXT
  5
CA
100
AcDbEntity
  8
IMPORTED
 62
               1
100
AcDbMText
 10
-198.50347455918791
 20
-44.750113291556559
 30
0.0
 40
32.576822916666664
 41
0.0
 71
               1
 72
               1
  1
100
  7
_______
 11
0.0
 21
1.0
 31
0.0
  0
LINE
  5
CB
100
AcDbEntity
  8
IMPORTED
  6
CONTINUOUS
 62
               1
100
AcDbLine
 10
-382.49988549739521
 20
1236.9998367084434
 30
0.0
 11
24.999999850988416
 21
1236.9998367084434
 31
0.0
  0
LINE
  5
CC
100
AcDbEntity
  8
IMPORTED
  6
CONTINUOUS
 62
               1
100
AcDbLine
 10
-279.99988527387779
 20
486.99983670844341
 30
0.0
 11
24.999999850988416
 21
486.99983670844341
 31
0.0
  0
LINE
  5
CD
100
AcDbEntity
  8
IMPORTED
  6
CONTINUOUS
 62
               1
100
AcDbLine
 10
-14.999999999999972
 20
1276.9998365594317
 30
0.0
 11
-14.999999999999972
 21
1236.9998367084434
 31
0.0
  0
LINE
  5
CE
100
AcDbEntity
  8
IMPORTED
  6
CONTINUOUS
 62
               1
100
AcDbLine
 10
-14.999999999999972
 20
486.99983670844341
 30
0.0
 11
-14.999999999999972
 21
446.99983685745502
 31
0.0
  0
LINE
  5
CF
100
AcDbEntity
  8
IMPORTED
  6
CONTINUOUS
 62
               1
100
AcDbLine
 10
-14.999999999999972
 20
1236.9998367084434
 30
0.0
 11
-14.999999999999972
 21
486.99983670844341
 31
0.0
  0
SOLID
  5
D0
100
AcDbEntity
  8
IMPORTED
 62
               1
100
AcDbTrace
 10
-14.999999999999972
 20
1236.9998367084434
 30
0.0
 11
-11.500667054332951
 21
1197.0022781146934
 31
0.0
 12
-18.499332945666993
 22
1197.0022781146934
 32
0.0
 13
-18.499332945666993
 23
1197.0022781146934
 33
0.0
  0
SOLID
  5
D1
100
AcDbEntity
  8
IMPORTED
 62
               1
100
AcDbTrace
 10
-14.999999999999972
 20
486.99983670844341
 30
0.0
 11
-18.499332945666993
 21
526.99739530219335
 31
0.0
 12
-11.500667054332951
 22
526.99739530219335
 32
0.0
 13
-11.500667054332951
 23
526.99739530219335
 33
0.0
  0
MTEXT
  5
D2
100
AcDbEntity
  8
IMPORTED
 62
               1
100
AcDbMText
 10
-73.503489508827471
 20
830.24983670844335
 30
0.0
 40
32.576822916666664
 41
0.0
 71
               1
 72
               1
  1
750
  7
_______
 11
0.0
 21
1.0
 31
0.0
  0
LINE
  5
D3
100
AcDbEntity
  8
IMPORTED
  6
CONTINUOUS
 62
               1
100
AcDbLine
 10
-279.99988527387779
 20
486.99983670844341
 30
0.0
 11
24.999999850988416
 21
486.99983670844341
 31
0.0
  0
LINE
  5
D4
100
AcDbEntity
  8
IMPORTED
  6
CONTINUOUS
 62
               1
100
AcDbLine
 10
-254.99988527387777
 20
-63.000063291556557
 30
0.0
 11
24.999999850988416
 21
-63.000063291556557
 31
0.0
  0
LINE
  5
D5
100
AcDbEntity
  8
IMPORTED
  6
CONTINUOUS
 62
               1
100
AcDbLine
 10
-14.999999999999972
 20
526.99983655943174
 30
0.0
 11
-14.999999999999972
 21
486.99983670844341
 31
0.0
  0
LINE
  5
D6
100
AcDbEntity
  8
IMPORTED
  6
CONTINUOUS
 62
               1
100
AcDbLine
 10
-14.999999999999972
 20
-63.000063291556557
 30
0.0
 11
-14.999999999999972
 21
-103.00006314254495
 31
0.0
  0
LINE
  5
D7
100
AcDbEntity
  8
IMPORTED
  6
CONTINUOUS
 62
               1
100
AcDbLine
 10
-14.999999999999972
 20
486.99983670844341
 30
0.0
 11
-14.999999999999972
 21
-63.000063291556557
 31
0.0
  0
SOLID
  5
D8
100
AcDbEntity
  8
IMPORTED
 62
               1
100
AcDbTrace
 10
-14.999999999999972
 20
486.99983670844341
 30
0.0
 11
-11.500667054332951
 21
447.00227811469341
 31
0.0
 12
-18.499332945666993
 22
447.00227811469341
 32
0.0
 13
-18.499332945666993
 23
447.00227811469341
 33
0.0
  0
SOLID
  5
D9
100
AcDbEntity
  8
IMPORTED
 62
               1
100
AcDbTrace
 10
-14.999999999999972
 20
-63.000063291556557
 30
0.0
 11
-18.499332945666993
 21
-23.002504697806557
 31
0.0
 12
-11.500667054332951
 22
-23.002504697806557
 32
0.0
 13
-11.500667054332951
 23
-23.002504697806557
 33
0.0
  0
MTEXT
  5
DA
100
AcDbEntity
  8
IMPORTED
 62
               1
100
AcDbMText
 10
-73.503489508827471
 20
180.2498867084434
 30
0.0
 40
32.576822916666664
 41
0.0
 71
               1
 72
               1
  1
550
  7
_______
 11
0.0
 21
1.0
 31
0.0
  0
LINE
  5
DB
100
AcDbEntity
  8
IMPORTED
  6
CONTINUOUS
 62
               1
100
AcDbLine
 10
-2324.9998848268428
 20
86.999836708443439
 30
0.0
 11
-2679.9999998509884
 21
86.999836708443439
 31
0.0
  0
LINE
  5
DC
100
AcDbEntity
  8
IMPORTED
  6
CONTINUOUS
 62
               1
100
AcDbLine
 10
-2549.9998848268428
 20
486.99983670844341
 30
0.0
 11
-2679.9999998509884
 21
486.99983670844341
 31
0.0
  0
LINE
  5
DD
100
AcDbEntity
  8
IMPORTED
  6
CONTINUOUS
 62
               1
100
AcDbLine
 10
-2640.0
 20
46.999836857455051
 30
0.0
 11
-2640.0
 21
86.999836708443439
 31
0.0
  0
LINE
  5
DE
100
AcDbEntity
  8
IMPORTED
  6
CONTINUOUS
 62
               1
100
AcDbLine
 10
-2640.0
 20
486.99983670844341
 30
0.0
 11
-2640.0
 21
526.99983655943174
 31
0.0
  0
LINE
  5
DF
100
AcDbEntity
  8
IMPORTED
  6
CONTINUOUS
 62
               1
100
AcDbLine
 10
-2640.0
 20
86.999836708443439
 30
0.0
 11
-2640.0
 21
486.99983670844341
 31
0.0
  0
SOLID
  5
E0
100
AcDbEntity
  8
IMPORTED
 62
               1
100
AcDbTrace
 10
-2640.0
 20
86.999836708443439
 30
0.0
 11
-2643.499332945667
 21
126.99739530219344
 31
0.0
 12
-2636.500667054333
 22
126.99739530219344
 32
0.0
 13
-2636.500667054333
 23
126.99739530219344
 33
0.0
  0
SOLID
  5
E1
100
AcDbEntity
  8
IMPORTED
 62
               1
100
AcDbTrace
 10
-2640.0
 20
486.99983670844341
 30
0.0
 11
-2636.500667054333
 21
447.00227811469341
 31
0.0
 12
-2643.499332945667
 22
447.00227811469341
 32
0.0
 13
-2643.499332945667
 23
447.00227811469341
 33
0.0
  0
MTEXT
  5
E2
100
AcDbEntity
  8
IMPORTED
 62
               1
100
AcDbMText
 10
-2698.5034895088274
 20
255.24983670844341
 30
0.0
 40
32.576822916666664
 41
0.0
 71
               1
 72
               1
  1
400
  7
_______
 11
0.0
 21
1.0
 31
0.0
  0
LINE
  5
E3
100
AcDbEntity
  8
IMPORTED
  6
CONTINUOUS
 62
               1
100
AcDbLine
 10
-2324.9998848268428
 20
86.999836708443439
 30
0.0
 11
-2814.9999998509884
 21
86.999836708443439
 31
0.0
  0
LINE
  5
E4
100
AcDbEntity
  8
IMPORTED
  6
CONTINUOUS
 62
               1
100
AcDbLine
 10
-2137.4998848268428
 20
1236.9998367084434
 30
0.0
 11
-2814.9999998509884
 21
1236.9998367084434
 31
0.0
  0
LINE
  5
E5
100
AcDbEntity
  8
IMPORTED
  6
CONTINUOUS
 62
               1
100
AcDbLine
 10
-2775.0
 20
46.999836857455051
 30
0.0
 11
-2775.0
 21
86.999836708443439
 31
0.0
  0
LINE
  5
E6
100
AcDbEntity
  8
IMPORTED
  6
CONTINUOUS
 62
               1
100
AcDbLine
 10
-2775.0
 20
1236.9998367084434
 30
0.0
 11
-2775.0
 21
1276.9998365594317
 31
0.0
  0
LINE
  5
E7
100
AcDbEntity
  8
IMPORTED
  6
CONTINUOUS
 62
               1
100
AcDbLine
 10
-2775.0
 20
86.999836708443439
 30
0.0
 11
-2775.0
 21
1236.9998367084434
 31
0.0
  0
SOLID
  5
E8
100
AcDbEntity
  8
IMPORTED
 62
               1
100
AcDbTrace
 10
-2775.0
 20
86.999836708443439
 30
0.0
 11
-2778.499332945667
 21
126.99739530219344
 31
0.0
 12
-2771.500667054333
 22
126.99739530219344
 32
0.0
 13
-2771.500667054333
 23
126.99739530219344
 33
0.0
  0
SOLID
  5
E9
100
AcDbEntity
  8
IMPORTED
 62
               1
100
AcDbTrace
 10
-2775.0
 20
1236.9998367084434
 30
0.0
 11
-2771.500667054333
 21
1197.0022781146934
 31
0.0
 12
-2778.499332945667
 22
1197.0022781146934
 32
0.0
 13
-2778.499332945667
 23
1197.0022781146934
 33
0.0
  0
MTEXT
  5
EA
100
AcDbEntity
  8
IMPORTED
 62
               1
100
AcDbMText
 10
-2833.5034895088279
 20
619.6665033751101
 30
0.0
 40
32.576822916666664
 41
0.0
 71
               1
 72
               1
  1
1150
  7
_______
 11
0.0
 21
1.0
 31
0.0
  0
LINE
  5
EB
100
AcDbEntity
  8
IMPORTED
  6
CONTINUOUS
 62
               1
100
AcDbLine
 10
-2039.9998850503603
 20
1296.9998364849259
 30
0.0
 11
-2039.9998850503603
 21
1691.9998365594317
 31
0.0
  0
LINE
  5
EC
100
AcDbEntity
  8
IMPORTED
  6
CONTINUOUS
 62
               1
100
AcDbLine
 10
-539.99988505036038
 20
1296.9998364849259
 30
0.0
 11
-539.99988505036038
 21
1691.9998365594317
 31
0.0
  0
LINE
  5
ED
100
AcDbEntity
  8
IMPORTED
  6
CONTINUOUS
 62
               1
100
AcDbLine
 10
-2079.9998849013487
 20
1651.9998367084434
 30
0.0
 11
-2039.9998850503603
 21
1651.9998367084434
 31
0.0
  0
LINE
  5
EE
100
AcDbEntity
  8
IMPORTED
  6
CONTINUOUS
 62
               1
100
AcDbLine
 10
-539.99988505036038
 20
1651.9998367084434
 30
0.0
 11
-499.99988519937199
 21
1651.9998367084434
 31
0.0
  0
LINE
  5
EF
100
AcDbEntity
  8
IMPORTED
  6
CONTINUOUS
 62
               1
100
AcDbLine
 10
-2039.9998850503603
 20
1651.9998367084434
 30
0.0
 11
-539.99988505036038
 21
1651.9998367084434
 31
0.0
  0
SOLID
  5
F0
100
AcDbEntity
  8
IMPORTED
 62
               1
100
AcDbTrace
 10
-2039.9998850503603
 20
1651.9998367084434
 30
0.0
 11
-2000.0023264566103
 21
1655.4991696541103
 31
0.0
 12
-2000.0023264566103
 22
1648.5005037627764
 32
0.0
 13
-2000.0023264566103
 23
1648.5005037627764
 33
0.0
  0
SOLID
  5
F1
100
AcDbEntity
  8
IMPORTED
 62
               1
100
AcDbTrace
 10
-539.99988505036038
 20
1651.9998367084434
 30
0.0
 11
-579.99744364411038
 21
1648.5005037627764
 31
0.0
 12
-579.99744364411038
 22
1655.4991696541103
 32
0.0
 13
-579.99744364411038
 23
1655.4991696541103
 33
0.0
  0
MTEXT
  5
F2
100
AcDbEntity
  8
IMPORTED
 62
               1
100
AcDbMText
 10
-1332.3332183836935
 20
1710.5033262172708
 30
0.0
 40
32.576822916666664
 41
0.0
 71
               1
 72
               1
  1
1500
  7
_______
  0
LINE
  5
F3
100
AcDbEntity
  8
IMPORTED
  6
CONTINUOUS
 62
               1
100
AcDbLine
 10
-2082.4998850503603
 20
1291.9998364849259
 30
0.0
 11
-2082.4998850503603
 21
1541.6499365594318
 31
0.0
  0
LINE
  5
F4
100
AcDbEntity
  8
IMPORTED
  6
CONTINUOUS
 62
               1
100
AcDbLine
 10
-1997.4998850503603
 20
1291.9998364849259
 30
0.0
 11
-1997.4998850503603
 21
1541.6499365594318
 31
0.0
  0
LINE
  5
F5
100
AcDbEntity
  8
IMPORTED
  6
CONTINUOUS
 62
               1
100
AcDbLine
 10
-2122.4998849013487
 20
1501.6499367084434
 30
0.0
 11
-2082.4998850503603
 21
1501.6499367084434
 31
0.0
  0
LINE
  5
F6
100
AcDbEntity
  8
IMPORTED
  6
CONTINUOUS
 62
               1
100
AcDbLine
 10
-1997.4998850503603
 20
1501.6499367084434
 30
0.0
 11
-1957.4998851993719
 21
1501.6499367084434
 31
0.0
  0
LINE
  5
F7
100
AcDbEntity
  8
IMPORTED
  6
CONTINUOUS
 62
               1
100
AcDbLine
 10
-2082.4998850503603
 20
1501.6499367084434
 30
0.0
 11
-1997.4998850503603
 21
1501.6499367084434
 31
0.0
  0
SOLID
  5
F8
100
AcDbEntity
  8
IMPORTED
 62
               1
100
AcDbTrace
 10
-2082.4998850503603
 20
1501.6499367084434
 30
0.0
 11
-2042.5023264566103
 21
1505.1492696541104
 31
0.0
 12
-2042.5023264566103
 22
1498.1506037627764
 32
0.0
 13
-2042.5023264566103
 23
1498.1506037627764
 33
0.0
  0
SOLID
  5
F9
100
AcDbEntity
  8
IMPORTED
 62
               1
100
AcDbTrace
 10
-1997.4998850503603
 20
1501.6499367084434
 30
0.0
 11
-2037.4974436441103
 21
1498.1506037627764
 31
0.0
 12
-2037.4974436441103
 22
1505.1492696541104
 32
0.0
 13
-2037.4974436441103
 23
1505.1492696541104
 33
0.0
  0
MTEXT
  5
FA
100
AcDbEntity
  8
IMPORTED
 62
               1
100
AcDbMText
 10
-2061.1665517170268
 20
1560.1534262172709
 30
0.0
 40
32.576822916666664
 41
0.0
 71
               1
 72
               1
  1
85
  7
_______
  0
LINE
  5
FB
100
AcDbEntity
  8
IMPORTED
  6
CONTINUOUS
 62
               1
100
AcDbLine
 10
-1997.4998850503603
 20
1291.9998364849259
 30
0.0
 11
-1997.4998850503603
 21
1541.6499365594318
 31
0.0
  0
LINE
  5
FC
100
AcDbEntity
  8
IMPORTED
  6
CONTINUOUS
 62
               1
100
AcDbLine
 10
-582.49988505036038
 20
1291.9998364849259
 30
0.0
 11
-582.49988505036038
 21
1541.6499365594318
 31
0.0
  0
LINE
  5
FD
100
AcDbEntity
  8
IMPORTED
  6
CONTINUOUS
 62
               1
100
AcDbLine
 10
-2037.4998849013487
 20
1501.6499367084434
 30
0.0
 11
-1997.4998850503603
 21
1501.6499367084434
 31
0.0
  0
LINE
  5
FE
100
AcDbEntity
  8
IMPORTED
  6
CONTINUOUS
 62
               1
100
AcDbLine
 10
-582.49988505036038
 20
1501.6499367084434
 30
0.0
 11
-542.49988519937199
 21
1501.6499367084434
 31
0.0
  0
LINE
  5
FF
100
AcDbEntity
  8
IMPORTED
  6
CONTINUOUS
 62
               1
100
AcDbLine
 10
-1997.4998850503603
 20
1501.6499367084434
 30
0.0
 11
-582.49988505036038
 21
1501.6499367084434
 31
0.0
  0
SOLID
  5
100
100
AcDbEntity
  8
IMPORTED
 62
               1
100
AcDbTrace
 10
-1997.4998850503603
 20
1501.6499367084434
 30
0.0
 11
-1957.5023264566103
 21
1505.1492696541104
 31
0.0
 12
-1957.5023264566103
 22
1498.1506037627764
 32
0.0
 13
-1957.5023264566103
 23
1498.1506037627764
 33
0.0
  0
SOLID
  5
101
100
AcDbEntity
  8
IMPORTED
 62
               1
100
AcDbTrace
 10
-582.49988505036038
 20
1501.6499367084434
 30
0.0
 11
-622.49744364411038
 21
1498.1506037627764
 31
0.0
 12
-622.49744364411038
 22
1505.1492696541104
 32
0.0
 13
-622.49744364411038
 23
1505.1492696541104
 33
0.0
  0
MTEXT
  5
102
100
AcDbEntity
  8
IMPORTED
 62
               1
100
AcDbMText
 10
-1332.3332183836935
 20
1560.1534262172709
 30
0.0
 40
32.576822916666664
 41
0.0
 71
               1
 72
               1
  1
1415
  7
_______
  0
LINE
  5
103
100
AcDbEntity
  8
IMPORTED
  6
CONTINUOUS
 62
               1
100
AcDbLine
 10
-582.49988505036038
 20
1291.9998364849259
 30
0.0
 11
-582.49988505036038
 21
1541.6499365594318
 31
0.0
  0
LINE
  5
104
100
AcDbEntity
  8
IMPORTED
  6
CONTINUOUS
 62
               1
100
AcDbLine
 10
-497.49988505036038
 20
1291.9998364849259
 30
0.0
 11
-497.49988505036038
 21
1541.6499365594318
 31
0.0
  0
LINE
  5
105
100
AcDbEntity
  8
IMPORTED
  6
CONTINUOUS
 62
               1
100
AcDbLine
 10
-622.49988490134876
 20
1501.6499367084434
 30
0.0
 11
-582.49988505036038
 21
1501.6499367084434
 31
0.0
  0
LINE
  5
106
100
AcDbEntity
  8
IMPORTED
  6
CONTINUOUS
 62
               1
100
AcDbLine
 10
-497.49988505036038
 20
1501.6499367084434
 30
0.0
 11
-457.49988519937199
 21
1501.6499367084434
 31
0.0
  0
LINE
  5
107
100
AcDbEntity
  8
IMPORTED
  6
CONTINUOUS
 62
               1
100
AcDbLine
 10
-582.49988505036038
 20
1501.6499367084434
 30
0.0
 11
-497.49988505036038
 21
1501.6499367084434
 31
0.0
  0
SOLID
  5
108
100
AcDbEntity
  8
IMPORTED
 62
               1
100
AcDbTrace
 10
-582.49988505036038
 20
1501.6499367084434
 30
0.0
 11
-542.50232645661038
 21
1505.1492696541104
 31
0.0
 12
-542.50232645661038
 22
1498.1506037627764
 32
0.0
 13
-542.50232645661038
 23
1498.1506037627764
 33
0.0
  0
SOLID
  5
109
100
AcDbEntity
  8
IMPORTED
 62
               1
100
AcDbTrace
 10
-497.49988505036038
 20
1501.6499367084434
 30
0.0
 11
-537.49744364411038
 21
1498.1506037627764
 31
0.0
 12
-537.49744364411038
 22
1505.1492696541104
 32
0.0
 13
-537.49744364411038
 23
1505.1492696541104
 33
0.0
  0
MTEXT
  5
10A
100
AcDbEntity
  8
IMPORTED
 62
               1
100
AcDbMText
 10
-561.166551717027
 20
1560.1534262172709
 30
0.0
 40
32.576822916666664
 41
0.0
 71
               1
 72
               1
  1
85
  7
_______
  0
POLYLINE
  5
10B
100
AcDbEntity
  8
IMPORTED
  6
CONTINUOUS
 62
              30
100
AcDb2dPolyline
 66
               1
 10
0.0
 20
0.0
 30
0.0
 70
             129
  0
VERTEX
  5
10C
100
AcDbEntity
  8
IMPORTED
  6
CONTINUOUS
 62
              30
100
AcDbVertex
100
AcDb2dVertex
 10
1414.9999149496393
 20
436.99983670844341
 30
0.0
  0
VERTEX
  5
10D
100
AcDbEntity
  8
IMPORTED
  6
CONTINUOUS
 62
              30
100
AcDbVertex
100
AcDb2dVertex
 10
1764.9999149496393
 20
436.99983670844341
 30
0.0
  0
VERTEX
  5
10E
100
AcDbEntity
  8
IMPORTED
  6
CONTINUOUS
 62
              30
100
AcDbVertex
100
AcDb2dVertex
 10
1764.9999149496393
 20
86.999836708443439
 30
0.0
  0
VERTEX
  5
10F
100
AcDbEntity
  8
IMPORTED
  6
CONTINUOUS
 62
              30
100
AcDbVertex
100
AcDb2dVertex
 10
1414.9999149496393
 20
86.999836708443439
 30
0.0
  0
VERTEX
  5
110
100
AcDbEntity
  8
IMPORTED
  6
CONTINUOUS
 62
              30
100
AcDbVertex
100
AcDb2dVertex
 10
1414.9999149496393
 20
436.99983670844341
 30
0.0
  0
VERTEX
  5
111
100
AcDbEntity
  8
IMPORTED
  6
CONTINUOUS
 62
              30
100
AcDbVertex
100
AcDb2dVertex
 10
1414.9999149496393
 20
436.99983670844341
 30
0.0
  0
SEQEND
  5
112
100
AcDbEntity
  8
IMPORTED
  6
CONTINUOUS
 62
              30
  0
LINE
  5
113
100
AcDbEntity
  8
IMPORTED
  6
CONTINUOUS
 62
              30
100
AcDbLine
 10
1414.9999149496393
 20
280.1074367084434
 30
0.0
 11
1571.8923149496395
 21
436.99983670844341
 31
0.0
  0
LINE
  5
114
100
AcDbEntity
  8
IMPORTED
  6
CONTINUOUS
 62
              30
100
AcDbLine
 10
1414.9999149496393
 20
110.40183670844343
 30
0.0
 11
1741.5979149496393
 21
436.99983670844341
 31
0.0
  0
LINE
  5
115
100
AcDbEntity
  8
IMPORTED
  6
CONTINUOUS
 62
              30
100
AcDbLine
 10
1561.3035149496393
 20
86.999836708443439
 30
0.0
 11
1764.9999149496393
 21
290.69623670844339
 31
0.0
  0
LINE
  5
116
100
AcDbEntity
  8
IMPORTED
  6
CONTINUOUS
 62
              30
100
AcDbLine
 10
1731.0091149496393
 20
86.999836708443439
 30
0.0
 11
1764.9999149496393
 21
120.99063670844342
 31
0.0
  0
LINE
  5
117
100
AcDbEntity
  8
IMPORTED
  6
CONTINUOUS
 62
              30
100
AcDbLine
 10
1414.9999149496393
 20
299.90643670844338
 30
0.0
 11
1552.0933149496393
 21
436.99983670844341
 31
0.0
  0
LINE
  5
118
100
AcDbEntity
  8
IMPORTED
  6
CONTINUOUS
 62
              30
100
AcDbLine
 10
1414.9999149496393
 20
130.20083670844343
 30
0.0
 11
1721.7989149496393
 21
436.99983670844341
 31
0.0
  0
LINE
  5
119
100
AcDbEntity
  8
IMPORTED
  6
CONTINUOUS
 62
              30
100
AcDbLine
 10
1541.5045149496393
 20
86.999836708443439
 30
0.0
 11
1764.9999149496393
 21
310.49523670844343
 31
0.0
  0
LINE
  5
11A
100
AcDbEntity
  8
IMPORTED
  6
CONTINUOUS
 62
              30
100
AcDbLine
 10
1711.2101149496393
 20
86.999836708443439
 30
0.0
 11
1764.9999149496393
 21
140.78963670844342
 31
0.0
  0
LINE
  5
11B
100
AcDbEntity
  8
IMPORTED
  6
CONTINUOUS
 62
              30
100
AcDbLine
 10
1414.9999149496393
 20
319.70543670844341
 30
0.0
 11
1532.2943149496393
 21
436.99983670844341
 31
0.0
  0
LINE
  5
11C
100
AcDbEntity
  8
IMPORTED
  6
CONTINUOUS
 62
              30
100
AcDbLine
 10
1414.9999149496393
 20
149.99983670844341
 30
0.0
 11
1701.9999149496393
 21
436.99983670844341
 31
0.0
  0
LINE
  5
11D
100
AcDbEntity
  8
IMPORTED
  6
CONTINUOUS
 62
              30
100
AcDbLine
 10
1521.7055149496393
 20
86.999836708443439
 30
0.0
 11
1764.9999149496393
 21
330.29423670844341
 31
0.0
  0
LINE
  5
11E
100
AcDbEntity
  8
IMPORTED
  6
CONTINUOUS
 62
              30
100
AcDbLine
 10
1691.4111149496393
 20
86.999836708443439
 30
0.0
 11
1764.9999149496393
 21
160.58863670844343
 31
0.0
  0
POLYLINE
  5
11F
100
AcDbEntity
  8
IMPORTED
  6
CONTINUOUS
 62
              30
100
AcDb2dPolyline
 66
               1
 10
0.0
 20
0.0
 30
0.0
 70
             129
  0
VERTEX
  5
120
100
AcDbEntity
  8
IMPORTED
  6
CONTINUOUS
 62
              30
100
AcDbVertex
100
AcDb2dVertex
 10
1364.9999149496393
 20
36.999936708443428
 30
0.0
  0
VERTEX
  5
121
100
AcDbEntity
  8
IMPORTED
  6
CONTINUOUS
 62
              30
100
AcDbVertex
100
AcDb2dVertex
 10
1814.9999149496393
 20
36.999936708443428
 30
0.0
  0
VERTEX
  5
122
100
AcDbEntity
  8
IMPORTED
  6
CONTINUOUS
 62
              30
100
AcDbVertex
100
AcDb2dVertex
 10
1814.9999149496393
 20
-63.000063291556557
 30
0.0
  0
VERTEX
  5
123
100
AcDbEntity
  8
IMPORTED
  6
CONTINUOUS
 62
              30
100
AcDbVertex
100
AcDb2dVertex
 10
1364.9999149496393
 20
-63.000063291556557
 30
0.0
  0
VERTEX
  5
124
100
AcDbEntity
  8
IMPORTED
  6
CONTINUOUS
 62
              30
100
AcDbVertex
100
AcDb2dVertex
 10
1364.9999149496393
 20
36.999936708443428
 30
0.0
  0
VERTEX
  5
125
100
AcDbEntity
  8
IMPORTED
  6
CONTINUOUS
 62
              30
100
AcDbVertex
100
AcDb2dVertex
 10
1364.9999149496393
 20
36.999936708443428
 30
0.0
  0
SEQEND
  5
126
100
AcDbEntity
  8
IMPORTED
  6
CONTINUOUS
 62
              30
  0
POLYLINE
  5
127
100
AcDbEntity
  8
IMPORTED
  6
CONTINUOUS
 62
              30
100
AcDb2dPolyline
 66
               1
 10
0.0
 20
0.0
 30
0.0
 70
             129
  0
VERTEX
  5
128
100
AcDbEntity
  8
IMPORTED
  6
CONTINUOUS
 62
              30
100
AcDbVertex
100
AcDb2dVertex
 10
1364.9999149496393
 20
86.999836708443439
 30
0.0
  0
VERTEX
  5
129
100
AcDbEntity
  8
IMPORTED
  6
CONTINUOUS
 62
              30
100
AcDbVertex
100
AcDb2dVertex
 10
1814.9999149496393
 20
86.999836708443439
 30
0.0
  0
VERTEX
  5
12A
100
AcDbEntity
  8
IMPORTED
  6
CONTINUOUS
 62
              30
100
AcDbVertex
100
AcDb2dVertex
 10
1814.9999149496393
 20
36.999836708443425
 30
0.0
  0
VERTEX
  5
12B
100
AcDbEntity
  8
IMPORTED
  6
CONTINUOUS
 62
              30
100
AcDbVertex
100
AcDb2dVertex
 10
1364.9999149496393
 20
36.999836708443425
 30
0.0
  0
VERTEX
  5
12C
100
AcDbEntity
  8
IMPORTED
  6
CONTINUOUS
 62
              30
100
AcDbVertex
100
AcDb2dVertex
 10
1364.9999149496393
 20
86.999836708443439
 30
0.0
  0
VERTEX
  5
12D
100
AcDbEntity
  8
IMPORTED
  6
CONTINUOUS
 62
              30
100
AcDbVertex
100
AcDb2dVertex
 10
1364.9999149496393
 20
86.999836708443439
 30
0.0
  0
SEQEND
  5
12E
100
AcDbEntity
  8
IMPORTED
  6
CONTINUOUS
 62
              30
  0
LINE
  5
12F
100
AcDbEntity
  8
IMPORTED
  6
CONTINUOUS
 62
              30
100
AcDbLine
 10
1721.8577149496393
 20
86.999836708443439
 30
0.0
 11
1771.8577149496393
 21
36.999836708443425
 31
0.0
  0
LINE
  5
130
100
AcDbEntity
  8
IMPORTED
  6
CONTINUOUS
 62
              30
100
AcDbLine
 10
1735.9999149496393
 20
86.999836708443439
 30
0.0
 11
1785.9999149496393
 21
36.999836708443425
 31
0.0
  0
LINE
  5
131
100
AcDbEntity
  8
IMPORTED
  6
CONTINUOUS
 62
              30
100
AcDbLine
 10
1571.8577149496393
 20
86.999836708443439
 30
0.0
 11
1621.8577149496393
 21
36.999836708443425
 31
0.0
  0
LINE
  5
132
100
AcDbEntity
  8
IMPORTED
  6
CONTINUOUS
 62
              30
100
AcDbLine
 10
1585.9999149496393
 20
86.999836708443439
 30
0.0
 11
1635.9999149496393
 21
36.999836708443425
 31
0.0
  0
LINE
  5
133
100
AcDbEntity
  8
IMPORTED
  6
CONTINUOUS
 62
              30
100
AcDbLine
 10
1421.8577149496393
 20
86.999836708443439
 30
0.0
 11
1471.8577149496393
 21
36.999836708443425
 31
0.0
  0
LINE
  5
134
100
AcDbEntity
  8
IMPORTED
  6
CONTINUOUS
 62
              30
100
AcDbLine
 10
1435.9999149496393
 20
86.999836708443439
 30
0.0
 11
1485.9999149496393
 21
36.999836708443425
 31
0.0
  0
LINE
  5
135
100
AcDbEntity
  8
IMPORTED
  6
CONTINUOUS
 62
              30
100
AcDbLine
 10
1785.1286149496393
 20
-63.000063291556557
 30
0.0
 11
1727.3936149496394
 21
36.999936708443428
 31
0.0
  0
LINE
  5
136
100
AcDbEntity
  8
IMPORTED
  6
CONTINUOUS
 62
              30
100
AcDbLine
 10
1741.8273149496395
 20
11.999836708443439
 30
0.0
 11
1756.2611149496395
 21
36.999836708443425
 31
0.0
  0
LINE
  5
137
100
AcDbEntity
  8
IMPORTED
  6
CONTINUOUS
 62
              30
100
AcDbLine
 10
1770.6948149496393
 20
-37.999863291556565
 30
0.0
 11
1756.2610149496393
 21
-63.000063291556557
 31
0.0
  0
LINE
  5
138
100
AcDbEntity
  8
IMPORTED
  6
CONTINUOUS
 62
              30
100
AcDbLine
 10
1701.1286149496393
 20
-63.000063291556557
 30
0.0
 11
1643.3936149496394
 21
36.999936708443428
 31
0.0
  0
LINE
  5
139
100
AcDbEntity
  8
IMPORTED
  6
CONTINUOUS
 62
              30
100
AcDbLine
 10
1657.8273149496395
 20
11.999836708443439
 30
0.0
 11
1672.2611149496395
 21
36.999836708443425
 31
0.0
  0
LINE
  5
13A
100
AcDbEntity
  8
IMPORTED
  6
CONTINUOUS
 62
              30
100
AcDbLine
 10
1686.6948149496393
 20
-37.999863291556565
 30
0.0
 11
1672.2610149496395
 21
-63.000063291556557
 31
0.0
  0
LINE
  5
13B
100
AcDbEntity
  8
IMPORTED
  6
CONTINUOUS
 62
              30
100
AcDbLine
 10
1617.1286149496393
 20
-63.000063291556557
 30
0.0
 11
1559.3936149496394
 21
36.999936708443428
 31
0.0
  0
LINE
  5
13C
100
AcDbEntity
  8
IMPORTED
  6
CONTINUOUS
 62
              30
100
AcDbLine
 10
1573.8273149496395
 20
11.999836708443439
 30
0.0
 11
1588.2611149496395
 21
36.999836708443425
 31
0.0
  0
LINE
  5
13D
100
AcDbEntity
  8
IMPORTED
  6
CONTINUOUS
 62
              30
100
AcDbLine
 10
1602.6948149496393
 20
-37.999863291556565
 30
0.0
 11
1588.2610149496395
 21
-63.000063291556557
 31
0.0
  0
LINE
  5
13E
100
AcDbEntity
  8
IMPORTED
  6
CONTINUOUS
 62
              30
100
AcDbLine
 10
1533.1286149496393
 20
-63.000063291556557
 30
0.0
 11
1475.3936149496394
 21
36.999936708443428
 31
0.0
  0
LINE
  5
13F
100
AcDbEntity
  8
IMPORTED
  6
CONTINUOUS
 62
              30
100
AcDbLine
 10
1489.8273149496395
 20
11.999836708443439
 30
0.0
 11
1504.2611149496395
 21
36.999836708443425
 31
0.0
  0
LINE
  5
140
100
AcDbEntity
  8
IMPORTED
  6
CONTINUOUS
 62
              30
100
AcDbLine
 10
1518.6948149496393
 20
-37.999863291556565
 30
0.0
 11
1504.2610149496395
 21
-63.000063291556557
 31
0.0
  0
LINE
  5
141
100
AcDbEntity
  8
IMPORTED
  6
CONTINUOUS
 62
              30
100
AcDbLine
 10
1449.1286149496393
 20
-63.000063291556557
 30
0.0
 11
1391.3936149496394
 21
36.999936708443428
 31
0.0
  0
LINE
  5
142
100
AcDbEntity
  8
IMPORTED
  6
CONTINUOUS
 62
              30
100
AcDbLine
 10
1405.8273149496395
 20
11.999836708443439
 30
0.0
 11
1420.2611149496395
 21
36.999836708443425
 31
0.0
  0
LINE
  5
143
100
AcDbEntity
  8
IMPORTED
  6
CONTINUOUS
 62
              30
100
AcDbLine
 10
1434.6948149496395
 20
-37.999863291556565
 30
0.0
 11
1420.2610149496395
 21
-63.000063291556557
 31
0.0
  0
LINE
  5
144
100
AcDbEntity
  8
IMPORTED
  6
CONTINUOUS
 62
              30
100
AcDbLine
 10
2159.9999149496393
 20
486.99983670844341
 30
0.0
 11
899.99991494963967
 21
486.99983670844341
 31
0.0
  0
LINE
  5
145
100
AcDbEntity
  8
IMPORTED
  6
CONTINUOUS
 62
              30
100
AcDbLine
 10
-339.99988505036038
 20
486.99983670844341
 30
0.0
 11
-2489.9998850503603
 21
486.99983670844341
 31
0.0
  0
MTEXT
  5
146
100
AcDbEntity
  8
IMPORTED
 62
              30
100
AcDbMText
 10
-2410.8554850503601
 20
561.67365977094323
 30
0.0
 40
54.2947390625
 41
0.0
 71
               1
 72
               1
  1
▽GL
  7
_______
  0
MTEXT
  5
147
100
AcDbEntity
  8
IMPORTED
 62
              30
100
AcDbMText
 10
-1435.9133850503604
 20
-507.26328175376926
 30
0.0
 40
65.153671484374996
 41
0.0
 71
               1
 72
               1
  1
正面図
  7
_______
  0
POLYLINE
  5
148
100
AcDbEntity
  8
IMPORTED
  6
CONTINUOUS
 62
              30
100
AcDb2dPolyline
 66
               1
 10
0.0
 20
0.0
 30
0.0
 70
             129
  0
VERTEX
  5
149
100
AcDbEntity
  8
IMPORTED
  6
CONTINUOUS
 62
              30
100
AcDbVertex
100
AcDb2dVertex
 10
-1480.9956850503604
 20
-492.34616329155654
 30
0.0
  0
VERTEX
  5
14A
100
AcDbEntity
  8
IMPORTED
  6
CONTINUOUS
 62
              30
100
AcDbVertex
100
AcDb2dVertex
 10
-1130.9956850503604
 20
-492.34616329155654
 30
0.0
  0
VERTEX
  5
14B
100
AcDbEntity
  8
IMPORTED
  6
CONTINUOUS
 62
              30
100
AcDbVertex
100
AcDb2dVertex
 10
-1130.9956850503604
 20
-592.34616329155642
 30
0.0
  0
VERTEX
  5
14C
100
AcDbEntity
  8
IMPORTED
  6
CONTINUOUS
 62
              30
100
AcDbVertex
100
AcDb2dVertex
 10
-1480.9956850503604
 20
-592.34616329155642
 30
0.0
  0
VERTEX
  5
14D
100
AcDbEntity
  8
IMPORTED
  6
CONTINUOUS
 62
              30
100
AcDbVertex
100
AcDb2dVertex
 10
-1480.9956850503604
 20
-492.34616329155654
 30
0.0
  0
VERTEX
  5
14E
100
AcDbEntity
  8
IMPORTED
  6
CONTINUOUS
 62
              30
100
AcDbVertex
100
AcDb2dVertex
 10
-1480.9956850503604
 20
-492.34616329155654
 30
0.0
  0
SEQEND
  5
14F
100
AcDbEntity
  8
IMPORTED
  6
CONTINUOUS
 62
              30
  0
MTEXT
  5
150
100
AcDbEntity
  8
IMPORTED
 62
              30
100
AcDbMText
 10
-1435.9133850503604
 20
-1950.4304957270631
 30
0.0
 40
65.153671484374996
 41
0.0
 71
               1
 72
               1
  1
平面図
  7
_______
  0
POLYLINE
  5
151
100
AcDbEntity
  8
IMPORTED
  6
CONTINUOUS
 62
              30
100
AcDb2dPolyline
 66
               1
 10
0.0
 20
0.0
 30
0.0
 70
             129
  0
VERTEX
  5
152
100
AcDbEntity
  8
IMPORTED
  6
CONTINUOUS
 62
              30
100
AcDbVertex
100
AcDb2dVertex
 10
-1480.9956850503604
 20
-1931.6794632915564
 30
0.0
  0
VERTEX
  5
153
100
AcDbEntity
  8
IMPORTED
  6
CONTINUOUS
 62
              30
100
AcDbVertex
100
AcDb2dVertex
 10
-1130.9956850503604
 20
-1931.6794632915564
 30
0.0
  0
VERTEX
  5
154
100
AcDbEntity
  8
IMPORTED
  6
CONTINUOUS
 62
              30
100
AcDbVertex
100
AcDb2dVertex
 10
-1130.9956850503604
 20
-2031.6794632915564
 30
0.0
  0
VERTEX
  5
155
100
AcDbEntity
  8
IMPORTED
  6
CONTINUOUS
 62
              30
100
AcDbVertex
100
AcDb2dVertex
 10
-1480.9956850503604
 20
-2031.6794632915564
 30
0.0
  0
VERTEX
  5
156
100
AcDbEntity
  8
IMPORTED
  6
CONTINUOUS
 62
              30
100
AcDbVertex
100
AcDb2dVertex
 10
-1480.9956850503604
 20
-1931.6794632915564
 30
0.0
  0
VERTEX
  5
157
100
AcDbEntity
  8
IMPORTED
  6
CONTINUOUS
 62
              30
100
AcDbVertex
100
AcDb2dVertex
 10
-1480.9956850503604
 20
-1931.6794632915564
 30
0.0
  0
SEQEND
  5
158
100
AcDbEntity
  8
IMPORTED
  6
CONTINUOUS
 62
              30
  0
POLYLINE
  5
159
100
AcDbEntity
  8
IMPORTED
  6
STYLE_02
 62
              30
100
AcDb2dPolyline
 66
               1
 10
0.0
 20
0.0
 30
0.0
 70
             129
  0
VERTEX
  5
15A
100
AcDbEntity
  8
IMPORTED
  6
STYLE_02
 62
              30
100
AcDbVertex
100
AcDb2dVertex
 10
-2214.9998850503603
 20
-1284.9999632915565
 30
0.0
  0
VERTEX
  5
15B
100
AcDbEntity
  8
IMPORTED
  6
STYLE_02
 62
              30
100
AcDbVertex
100
AcDb2dVertex
 10
-1864.9998850503603
 20
-1284.9999632915565
 30
0.0
  0
VERTEX
  5
15C
100
AcDbEntity
  8
IMPORTED
  6
STYLE_02
 62
              30
100
AcDbVertex
100
AcDb2dVertex
 10
-1864.9998850503603
 20
-1634.9999632915565
 30
0.0
  0
VERTEX
  5
15D
100
AcDbEntity
  8
IMPORTED
  6
STYLE_02
 62
              30
100
AcDbVertex
100
AcDb2dVertex
 10
-2214.9998850503603
 20
-1634.9999632915565
 30
0.0
  0
VERTEX
  5
15E
100
AcDbEntity
  8
IMPORTED
  6
STYLE_02
 62
              30
100
AcDbVertex
100
AcDb2dVertex
 10
-2214.9998850503603
 20
-1284.9999632915565
 30
0.0
  0
VERTEX
  5
15F
100
AcDbEntity
  8
IMPORTED
  6
STYLE_02
 62
              30
100
AcDbVertex
100
AcDb2dVertex
 10
-2214.9998850503603
 20
-1284.9999632915565
 30
0.0
  0
SEQEND
  5
160
100
AcDbEntity
  8
IMPORTED
  6
STYLE_02
 62
              30
  0
POLYLINE
  5
161
100
AcDbEntity
  8
IMPORTED
  6
STYLE_02
 62
              30
100
AcDb2dPolyline
 66
               1
 10
0.0
 20
0.0
 30
0.0
 70
             129
  0
VERTEX
  5
162
100
AcDbEntity
  8
IMPORTED
  6
STYLE_02
 62
              30
100
AcDbVertex
100
AcDb2dVertex
 10
-2264.9998850503603
 20
-1234.9999632915565
 30
0.0
  0
VERTEX
  5
163
100
AcDbEntity
  8
IMPORTED
  6
STYLE_02
 62
              30
100
AcDbVertex
100
AcDb2dVertex
 10
-1814.9998850503603
 20
-1234.9999632915565
 30
0.0
  0
VERTEX
  5
164
100
AcDbEntity
  8
IMPORTED
  6
STYLE_02
 62
              30
100
AcDbVertex
100
AcDb2dVertex
 10
-1814.9998850503603
 20
-1684.9999632915565
 30
0.0
  0
VERTEX
  5
165
100
AcDbEntity
  8
IMPORTED
  6
STYLE_02
 62
              30
100
AcDbVertex
100
AcDb2dVertex
 10
-2264.9998850503603
 20
-1684.9999632915565
 30
0.0
  0
VERTEX
  5
166
100
AcDbEntity
  8
IMPORTED
  6
STYLE_02
 62
              30
100
AcDbVertex
100
AcDb2dVertex
 10
-2264.9998850503603
 20
-1234.9999632915565
 30
0.0
  0
VERTEX
  5
167
100
AcDbEntity
  8
IMPORTED
  6
STYLE_02
 62
              30
100
AcDbVertex
100
AcDb2dVertex
 10
-2264.9998850503603
 20
-1234.9999632915565
 30
0.0
  0
SEQEND
  5
168
100
AcDbEntity
  8
IMPORTED
  6
STYLE_02
 62
              30
  0
POLYLINE
  5
169
100
AcDbEntity
  8
IMPORTED
  6
CONTINUOUS
 62
              30
100
AcDb2dPolyline
 66
               1
 10
0.0
 20
0.0
 30
0.0
 70
             129
  0
VERTEX
  5
16A
100
AcDbEntity
  8
IMPORTED
  6
CONTINUOUS
 62
              30
100
AcDbVertex
100
AcDb2dVertex
 10
1551.7499149496393
 20
1236.9998367084434
 30
0.0
  0
VERTEX
  5
16B
100
AcDbEntity
  8
IMPORTED
  6
CONTINUOUS
 62
              30
100
AcDbVertex
100
AcDb2dVertex
 10
1628.2499149496393
 20
1236.9998367084434
 30
0.0
  0
VERTEX
  5
16C
100
AcDbEntity
  8
IMPORTED
  6
CONTINUOUS
 62
              30
100
AcDbVertex
100
AcDb2dVertex
 10
1632.4999149496393
 20
1231.9998367084434
 30
0.0
  0
VERTEX
  5
16D
100
AcDbEntity
  8
IMPORTED
  6
CONTINUOUS
 62
              30
100
AcDbVertex
100
AcDb2dVertex
 10
1632.4999149496393
 20
86.999836708443439
 30
0.0
  0
VERTEX
  5
16E
100
AcDbEntity
  8
IMPORTED
  6
CONTINUOUS
 62
              30
100
AcDbVertex
100
AcDb2dVertex
 10
1547.4999149496393
 20
86.999836708443439
 30
0.0
  0
VERTEX
  5
16F
100
AcDbEntity
  8
IMPORTED
  6
CONTINUOUS
 62
              30
100
AcDbVertex
100
AcDb2dVertex
 10
1547.4999149496393
 20
1231.9998367084434
 30
0.0
  0
VERTEX
  5
170
100
AcDbEntity
  8
IMPORTED
  6
CONTINUOUS
 62
              30
100
AcDbVertex
100
AcDb2dVertex
 10
1551.7499149496393
 20
1236.9998367084434
 30
0.0
  0
SEQEND
  5
171
100
AcDbEntity
  8
IMPORTED
  6
CONTINUOUS
 62
              30
  0
MTEXT
  5
172
100
AcDbEntity
  8
IMPORTED
 62
              30
100
AcDbMText
 10
1461.8175149496394
 20
-507.37338175376931
 30
0.0
 40
65.153671484374996
 41
0.0
 71
               1
 72
               1
  1
側面図
  7
_______
  0
POLYLINE
  5
173
100
AcDbEntity
  8
IMPORTED
  6
CONTINUOUS
 62
              30
100
AcDb2dPolyline
 66
               1
 10
0.0
 20
0.0
 30
0.0
 70
             129
  0
VERTEX
  5
174
100
AcDbEntity
  8
IMPORTED
  6
CONTINUOUS
 62
              30
100
AcDbVertex
100
AcDb2dVertex
 10
1416.7350149496394
 20
-492.45626329155652
 30
0.0
  0
VERTEX
  5
175
100
AcDbEntity
  8
IMPORTED
  6
CONTINUOUS
 62
              30
100
AcDbVertex
100
AcDb2dVertex
 10
1766.7350149496394
 20
-492.45626329155652
 30
0.0
  0
VERTEX
  5
176
100
AcDbEntity
  8
IMPORTED
  6
CONTINUOUS
 62
              30
100
AcDbVertex
100
AcDb2dVertex
 10
1766.7350149496394
 20
-592.45626329155652
 30
0.0
  0
VERTEX
  5
177
100
AcDbEntity
  8
IMPORTED
  6
CONTINUOUS
 62
              30
100
AcDbVertex
100
AcDb2dVertex
 10
1416.7350149496394
 20
-592.45626329155652
 30
0.0
  0
VERTEX
  5
178
100
AcDbEntity
  8
IMPORTED
  6
CONTINUOUS
 62
              30
100
AcDbVertex
100
AcDb2dVertex
 10
1416.7350149496394
 20
-492.45626329155652
 30
0.0
  0
VERTEX
  5
179
100
AcDbEntity
  8
IMPORTED
  6
CONTINUOUS
 62
              30
100
AcDbVertex
100
AcDb2dVertex
 10
1416.7350149496394
 20
-492.45626329155652
 30
0.0
  0
SEQEND
  5
17A
100
AcDbEntity
  8
IMPORTED
  6
CONTINUOUS
 62
              30
  0
LINE
  5
17B
100
AcDbEntity
  8
IMPORTED
  6
CONTINUOUS
 62
              30
100
AcDbLine
 10
-1956.5998850503604
 20
-1459.9999632915565
 30
0.0
 11
-623.39988505036035
 21
-1459.9999632915565
 31
0.0
  0
MTEXT
  5
17C
100
AcDbEntity
  8
IMPORTED
 62
              30
100
AcDbMText
 10
989.14451494963953
 20
561.67365977094323
 30
0.0
 40
54.2947390625
 41
0.0
 71
               1
 72
               1
  1
▽GL
  7
_______
  0
MTEXT
  5
17D
100
AcDbEntity
  8
IMPORTED
 62
              30
100
AcDbMText
 10
2293.7361149496392
 20
2268.7390597709432
 30
0.0
 40
54.2947390625
 41
0.0
 71
               1
 72
               1
  1
記　　号
  7
_______
  0
MTEXT
  5
17E
100
AcDbEntity
  8
IMPORTED
 62
              30
100
AcDbMText
 10
3040.4191149496392
 20
2272.6170597709433
 30
0.0
 40
54.2947390625
 41
0.0
 71
               1
 72
               1
  1
F-100
  7
_______
  0
MTEXT
  5
17F
100
AcDbEntity
  8
IMPORTED
 62
              30
100
AcDbMText
 10
2293.7361149496392
 20
1910.6780597709435
 30
0.0
 40
54.2947390625
 41
0.0
 71
               1
 72
               1
  1
縮　　尺
  7
_______
  0
MTEXT
  5
180
100
AcDbEntity
  8
IMPORTED
 62
              30
100
AcDbMText
 10
2293.7361149496392
 20
2448.7390597709432
 30
0.0
 40
54.2947390625
 41
0.0
 71
               1
 72
               1
  1
仕　　様
  7
_______
  0
MTEXT
  5
181
100
AcDbEntity
  8
IMPORTED
 62
              30
100
AcDbMText
 10
2293.7361149496392
 20
2630.678059770943
 30
0.0
 40
54.2947390625
 41
0.0
 71
               1
 72
               1
  1
品　　名
  7
_______
  0
MTEXT
  5
182
100
AcDbEntity
  8
IMPORTED
 62
              30
100
AcDbMText
 10
2863.4991149496391
 20
2628.7390597709432
 30
0.0
 40
54.2947390625
 41
0.0
 71
               1
 72
               1
  1
ＥＳＷフェンス
  7
_______
  0
MTEXT
  5
183
100
AcDbEntity
  8
IMPORTED
 62
              30
100
AcDbMText
 10
2802.0080851193165
 20
2449.332059770943
 30
0.0
 40
54.2947390625
 41
0.0
 71
               1
 72
               1
  1
ＥＩＮスーパーウッド
  7
_______
  0
LINE
  5
184
100
AcDbEntity
  8
IMPORTED
  6
CONTINUOUS
 62
              30
100
AcDbLine
 10
3751.0000149496391
 20
2508.9999367084429
 30
0.0
 11
2251.0000149496395
 21
2508.9999367084429
 31
0.0
  0
LINE
  5
185
100
AcDbEntity
  8
IMPORTED
  6
CONTINUOUS
 62
              30
100
AcDbLine
 10
3751.0000149496391
 20
2328.9999367084429
 30
0.0
 11
2251.0000149496395
 21
2328.9999367084429
 31
0.0
  0
LINE
  5
186
100
AcDbEntity
  8
IMPORTED
  6
CONTINUOUS
 62
              30
100
AcDbLine
 10
3751.0000149496391
 20
2148.9999367084429
 30
0.0
 11
2251.0000149496395
 21
2148.9999367084429
 31
0.0
  0
LINE
  5
187
100
AcDbEntity
  8
IMPORTED
  6
CONTINUOUS
 62
              30
100
AcDbLine
 10
3751.0000149496391
 20
1968.9999367084433
 30
0.0
 11
2251.0000149496395
 21
1968.9999367084433
 31
0.0
  0
LINE
  5
188
100
AcDbEntity
  8
IMPORTED
  6
CONTINUOUS
 62
              30
100
AcDbLine
 10
3751.0000149496391
 20
1788.9999367084433
 30
0.0
 11
2251.0000149496395
 21
1788.9999367084433
 31
0.0
  0
LINE
  5
189
100
AcDbEntity
  8
IMPORTED
  6
CONTINUOUS
 62
              30
100
AcDbLine
 10
2651.0000149496391
 20
2688.9999367084429
 30
0.0
 11
2651.0000149496391
 21
1788.9999367084433
 31
0.0
  0
LINE
  5
18A
100
AcDbEntity
  8
IMPORTED
  6
CONTINUOUS
 62
              30
100
AcDbLine
 10
2251.0000149496395
 20
2688.9999367084429
 30
0.0
 11
2251.0000149496395
 21
1788.9999367084433
 31
0.0
  0
MTEXT
  5
18B
100
AcDbEntity
  8
IMPORTED
 62
              30
100
AcDbMText
 10
2900.9891149496393
 20
2092.6170597709433
 30
0.0
 40
54.2947390625
 41
0.0
 71
               1
 72
               1
  1
H600×L1500
  7
_______
  0
MTEXT
  5
18C
100
AcDbEntity
  8
IMPORTED
 62
              30
100
AcDbMText
 10
2293.7361149496392
 20
2088.7390597709432
 30
0.0
 40
54.2947390625
 41
0.0
 71
               1
 72
               1
  1
規格寸法
  7
_______
  0
LINE
  5
18D
100
AcDbEntity
  8
IMPORTED
  6
CONTINUOUS
 62
              30
100
AcDbLine
 10
-1964.2395850503603
 20
1081.9999367084433
 30
0.0
 11
-1793.1269850503602
 21
1048.0063367084433
 31
0.0
  0
LINE
  5
18E
100
AcDbEntity
  8
IMPORTED
  6
CONTINUOUS
 62
              30
100
AcDbLine
 10
-1793.1269850503602
 20
1048.0064367084433
 30
0.0
 11
-1626.2519850503604
 21
1017.0912367084434
 31
0.0
  0
LINE
  5
18F
100
AcDbEntity
  8
IMPORTED
  6
CONTINUOUS
 62
              30
100
AcDbLine
 10
-1626.2518850503602
 20
1017.0912367084434
 30
0.0
 11
-1459.3767850503602
 21
998.5418367084435
 31
0.0
  0
LINE
  5
190
100
AcDbEntity
  8
IMPORTED
  6
CONTINUOUS
 62
              30
100
AcDbLine
 10
-1459.3767850503602
 20
998.5417367084433
 30
0.0
 11
-1292.5014850503603
 21
992.3579367084435
 31
0.0
  0
LINE
  5
191
100
AcDbEntity
  8
IMPORTED
  6
CONTINUOUS
 62
              30
100
AcDbLine
 10
-1292.5015850503603
 20
992.35803670844348
 30
0.0
 11
-1125.6263850503603
 21
998.53963670844337
 31
0.0
  0
LINE
  5
192
100
AcDbEntity
  8
IMPORTED
  6
CONTINUOUS
 62
              30
100
AcDbLine
 10
-1125.6263850503603
 20
998.53963670844337
 30
0.0
 11
-958.75098505036021
 21
1017.0870367084433
 31
0.0
  0
LINE
  5
193
100
AcDbEntity
  8
IMPORTED
  6
CONTINUOUS
 62
              30
100
AcDbLine
 10
-958.7510850503603
 20
1017.0870367084433
 30
0.0
 11
-791.87548505036023
 21
1048.0000367084433
 31
0.0
  0
LINE
  5
194
100
AcDbEntity
  8
IMPORTED
  6
CONTINUOUS
 62
              30
100
AcDbLine
 10
-791.87548505036023
 20
1048.0000367084433
 30
0.0
 11
-617.09988505036029
 21
1086.9999367084433
 31
0.0
  0
MTEXT
  5
195
100
AcDbEntity
  8
IMPORTED
 62
              30
100
AcDbMText
 10
2969.4691149496393
 20
1908.7390597709434
 30
0.0
 40
54.2947390625
 41
0.0
 71
               1
 72
               1
  1
1：20(A3)
  7
_______
  0
LINE
  5
196
100
AcDbEntity
  8
IMPORTED
  6
CONTINUOUS
 62
              30
100
AcDbLine
 10
1547.4999149496393
 20
1231.9998367084434
 30
0.0
 11
1632.4999149496393
 21
1231.9998367084434
 31
0.0
  0
LINE
  5
197
100
AcDbEntity
  8
IMPORTED
  6
CONTINUOUS
 62
              30
100
AcDbLine
 10
1627.4999149496393
 20
1236.9998367084434
 30
0.0
 11
1627.4999149496393
 21
86.999836708443439
 31
0.0
  0
LINE
  5
198
100
AcDbEntity
  8
IMPORTED
  6
CONTINUOUS
 62
              30
100
AcDbLine
 10
1552.4999149496393
 20
86.999836708443439
 30
0.0
 11
1552.4999149496393
 21
1236.9998367084434
 31
0.0
  0
LINE
  5
199
100
AcDbEntity
  8
IMPORTED
  6
CONTINUOUS
 62
              30
100
AcDbLine
 10
-577.49988505036038
 20
86.999836708443439
 30
0.0
 11
-577.49988505036038
 21
1236.9998367084434
 31
0.0
  0
LINE
  5
19A
100
AcDbEntity
  8
IMPORTED
  6
CONTINUOUS
 62
              30
100
AcDbLine
 10
-502.49988505036038
 20
1236.9998367084434
 30
0.0
 11
-502.49988505036038
 21
86.999836708443439
 31
0.0
  0
POLYLINE
  5
19B
100
AcDbEntity
  8
IMPORTED
  6
CONTINUOUS
 62
              30
100
AcDb2dPolyline
 66
               1
 10
0.0
 20
0.0
 30
0.0
 70
             129
  0
VERTEX
  5
19C
100
AcDbEntity
  8
IMPORTED
  6
CONTINUOUS
 62
              30
100
AcDbVertex
100
AcDb2dVertex
 10
-578.24988505036038
 20
1236.9998367084434
 30
0.0
  0
VERTEX
  5
19D
100
AcDbEntity
  8
IMPORTED
  6
CONTINUOUS
 62
              30
100
AcDbVertex
100
AcDb2dVertex
 10
-501.74988505036038
 20
1236.9998367084434
 30
0.0
  0
VERTEX
  5
19E
100
AcDbEntity
  8
IMPORTED
  6
CONTINUOUS
 62
              30
100
AcDbVertex
100
AcDb2dVertex
 10
-497.49988505036038
 20
1231.9998367084434
 30
0.0
  0
VERTEX
  5
19F
100
AcDbEntity
  8
IMPORTED
  6
CONTINUOUS
 62
              30
100
AcDbVertex
100
AcDb2dVertex
 10
-497.49988505036038
 20
86.999836708443439
 30
0.0
  0
VERTEX
  5
1A0
100
AcDbEntity
  8
IMPORTED
  6
CONTINUOUS
 62
              30
100
AcDbVertex
100
AcDb2dVertex
 10
-582.49988505036038
 20
86.999836708443439
 30
0.0
  0
VERTEX
  5
1A1
100
AcDbEntity
  8
IMPORTED
  6
CONTINUOUS
 62
              30
100
AcDbVertex
100
AcDb2dVertex
 10
-582.49988505036038
 20
1231.9998367084434
 30
0.0
  0
VERTEX
  5
1A2
100
AcDbEntity
  8
IMPORTED
  6
CONTINUOUS
 62
              30
100
AcDbVertex
100
AcDb2dVertex
 10
-578.24988505036038
 20
1236.9998367084434
 30
0.0
  0
SEQEND
  5
1A3
100
AcDbEntity
  8
IMPORTED
  6
CONTINUOUS
 62
              30
  0
LINE
  5
1A4
100
AcDbEntity
  8
IMPORTED
  6
CONTINUOUS
 62
              30
100
AcDbLine
 10
-582.49988505036038
 20
1231.9998367084434
 30
0.0
 11
-497.49988505036038
 21
1231.9998367084434
 31
0.0
  0
LINE
  5
1A5
100
AcDbEntity
  8
IMPORTED
  6
CONTINUOUS
 62
              30
100
AcDbLine
 10
-2077.4998850503603
 20
86.999836708443439
 30
0.0
 11
-2077.4998850503603
 21
1236.9998367084434
 31
0.0
  0
LINE
  5
1A6
100
AcDbEntity
  8
IMPORTED
  6
CONTINUOUS
 62
              30
100
AcDbLine
 10
-2002.4998850503603
 20
1236.9998367084434
 30
0.0
 11
-2002.4998850503603
 21
86.999836708443439
 31
0.0
  0
POLYLINE
  5
1A7
100
AcDbEntity
  8
IMPORTED
  6
CONTINUOUS
 62
              30
100
AcDb2dPolyline
 66
               1
 10
0.0
 20
0.0
 30
0.0
 70
             129
  0
VERTEX
  5
1A8
100
AcDbEntity
  8
IMPORTED
  6
CONTINUOUS
 62
              30
100
AcDbVertex
100
AcDb2dVertex
 10
-2078.2498850503603
 20
1236.9998367084434
 30
0.0
  0
VERTEX
  5
1A9
100
AcDbEntity
  8
IMPORTED
  6
CONTINUOUS
 62
              30
100
AcDbVertex
100
AcDb2dVertex
 10
-2001.7498850503603
 20
1236.9998367084434
 30
0.0
  0
VERTEX
  5
1AA
100
AcDbEntity
  8
IMPORTED
  6
CONTINUOUS
 62
              30
100
AcDbVertex
100
AcDb2dVertex
 10
-1997.4998850503603
 20
1231.9998367084434
 30
0.0
  0
VERTEX
  5
1AB
100
AcDbEntity
  8
IMPORTED
  6
CONTINUOUS
 62
              30
100
AcDbVertex
100
AcDb2dVertex
 10
-1997.4998850503603
 20
86.999836708443439
 30
0.0
  0
VERTEX
  5
1AC
100
AcDbEntity
  8
IMPORTED
  6
CONTINUOUS
 62
              30
100
AcDbVertex
100
AcDb2dVertex
 10
-2082.4998850503603
 20
86.999836708443439
 30
0.0
  0
VERTEX
  5
1AD
100
AcDbEntity
  8
IMPORTED
  6
CONTINUOUS
 62
              30
100
AcDbVertex
100
AcDb2dVertex
 10
-2082.4998850503603
 20
1231.9998367084434
 30
0.0
  0
VERTEX
  5
1AE
100
AcDbEntity
  8
IMPORTED
  6
CONTINUOUS
 62
              30
100
AcDbVertex
100
AcDb2dVertex
 10
-2078.2498850503603
 20
1236.9998367084434
 30
0.0
  0
SEQEND
  5
1AF
100
AcDbEntity
  8
IMPORTED
  6
CONTINUOUS
 62
              30
  0
LINE
  5
1B0
100
AcDbEntity
  8
IMPORTED
  6
CONTINUOUS
 62
              30
100
AcDbLine
 10
-2082.4998850503603
 20
1231.9998367084434
 30
0.0
 11
-1997.4998850503603
 21
1231.9998367084434
 31
0.0
  0
MTEXT
  5
1B1
100
AcDbEntity
  8
IMPORTED
 62
              30
100
AcDbMText
 10
2185.7456149496393
 20
-2608.6504945415563
 30
0.0
 40
97.73046875
 41
0.0
 71
               1
 72
               1
  1
イー・トップ株式会社
  7
_______
  0
LINE
  5
1B2
100
AcDbEntity
  8
IMPORTED
  6
CONTINUOUS
 62
              30
100
AcDbLine
 10
-2112.1375233970753
 20
1082.7196221039455
 30
0.0
 11
-2286.8728850503603
 21
1048.0063367084433
 31
0.0
  0
LINE
  5
1B3
100
AcDbEntity
  8
IMPORTED
  6
CONTINUOUS
 62
              30
100
AcDbLine
 10
-2123.3998850503604
 20
-1459.9999632915565
 30
0.0
 11
-2309.9998850503603
 21
-1459.9999632915565
 31
0.0
  0
LINE
  5
1B4
100
AcDbEntity
  8
IMPORTED
  6
CONTINUOUS
 62
              30
100
AcDbLine
 10
-269.99988505036038
 20
-1459.9999632915565
 30
0.0
 11
-456.59988505036029
 21
-1459.9999632915565
 31
0.0
  0
LINE
  5
1B5
100
AcDbEntity
  8
IMPORTED
  6
CONTINUOUS
 62
              30
100
AcDbLine
 10
-4048.9998850503603
 20
-2510.9999632915565
 30
0.0
 11
3751.0001149496393
 21
-2510.9999632915565
 31
0.0
  0
POLYLINE
  5
1B6
100
AcDbEntity
  8
IMPORTED
  6
CONTINUOUS
 62
              30
100
AcDb2dPolyline
 66
               1
 10
0.0
 20
0.0
 30
0.0
 70
             129
  0
VERTEX
  5
1B7
100
AcDbEntity
  8
IMPORTED
  6
CONTINUOUS
 62
              30
100
AcDbVertex
100
AcDb2dVertex
 10
-4048.9998850503603
 20
2688.9999367084429
 30
0.0
  0
VERTEX
  5
1B8
100
AcDbEntity
  8
IMPORTED
  6
CONTINUOUS
 62
              30
100
AcDbVertex
100
AcDb2dVertex
 10
3751.0001149496393
 20
2688.9999367084429
 30
0.0
  0
VERTEX
  5
1B9
100
AcDbEntity
  8
IMPORTED
  6
CONTINUOUS
 62
              30
100
AcDbVertex
100
AcDb2dVertex
 10
3751.0001149496393
 20
-2811.0000632915567
 30
0.0
  0
VERTEX
  5
1BA
100
AcDbEntity
  8
IMPORTED
  6
CONTINUOUS
 62
              30
100
AcDbVertex
100
AcDb2dVertex
 10
-4048.9998850503603
 20
-2811.0000632915567
 30
0.0
  0
VERTEX
  5
1BB
100
AcDbEntity
  8
IMPORTED
  6
CONTINUOUS
 62
              30
100
AcDbVertex
100
AcDb2dVertex
 10
-4048.9998850503603
 20
2688.9999367084429
 30
0.0
  0
SEQEND
  5
1BC
100
AcDbEntity
  8
IMPORTED
  6
CONTINUOUS
 62
              30
  0
LINE
  5
1BD
100
AcDbEntity
  8
IMPORTED
  6
CONTINUOUS
 62
              30
100
AcDbLine
 10
-464.23958505036035
 20
1081.9999367084433
 30
0.0
 11
-293.12688505036033
 21
1048.0063367084433
 31
0.0
  0
CIRCLE
  5
1BE
100
AcDbEntity
  8
IMPORTED
  6
CONTINUOUS
 62
              30
100
AcDbCircle
 10
1589.9999149496393
 20
1086.9998367084434
 30
0.0
 40
5.0
  0
POLYLINE
  5
1BF
100
AcDbEntity
  8
IMPORTED
  6
CONTINUOUS
 62
              30
100
AcDb2dPolyline
 66
               1
 10
0.0
 20
0.0
 30
0.0
 70
             129
  0
VERTEX
  5
1C0
100
AcDbEntity
  8
IMPORTED
  6
CONTINUOUS
 62
              30
100
AcDbVertex
100
AcDb2dVertex
 10
1586.2999149496393
 20
1101.5444367084433
 30
0.0
  0
VERTEX
  5
1C1
100
AcDbEntity
  8
IMPORTED
  6
CONTINUOUS
 62
              30
100
AcDbVertex
100
AcDb2dVertex
 10
1586.2999149496393
 20
1101.5444367084433
 30
0.0
 42
-0.414213562373095
 70
               2
  0
VERTEX
  5
1C2
100
AcDbEntity
  8
IMPORTED
  6
CONTINUOUS
 62
              30
100
AcDbVertex
100
AcDb2dVertex
 10
1588.0553149496393
 20
1103.2998367084433
 30
0.0
  0
VERTEX
  5
1C3
100
AcDbEntity
  8
IMPORTED
  6
CONTINUOUS
 62
              30
100
AcDbVertex
100
AcDb2dVertex
 10
1589.7999149496393
 20
1103.2998367084433
 30
0.0
  0
VERTEX
  5
1C4
100
AcDbEntity
  8
IMPORTED
  6
CONTINUOUS
 62
              30
100
AcDbVertex
100
AcDb2dVertex
 10
1589.7999149496393
 20
1103.2998367084433
 30
0.0
  0
VERTEX
  5
1C5
100
AcDbEntity
  8
IMPORTED
  6
CONTINUOUS
 62
              30
100
AcDbVertex
100
AcDb2dVertex
 10
1590.2999149496393
 20
1103.2998367084433
 30
0.0
  0
VERTEX
  5
1C6
100
AcDbEntity
  8
IMPORTED
  6
CONTINUOUS
 62
              30
100
AcDbVertex
100
AcDb2dVertex
 10
1590.2999149496393
 20
1103.2998367084433
 30
0.0
  0
VERTEX
  5
1C7
100
AcDbEntity
  8
IMPORTED
  6
CONTINUOUS
 62
              30
100
AcDbVertex
100
AcDb2dVertex
 10
1592.0445149496393
 20
1103.2998367084433
 30
0.0
 42
-0.414213562373095
 70
               2
 50
1.8714839861558573E+17
  0
VERTEX
  5
1C8
100
AcDbEntity
  8
IMPORTED
  6
CONTINUOUS
 62
              30
100
AcDbVertex
100
AcDb2dVertex
 10
1593.7999149496393
 20
1101.5444367084433
 30
0.0
  0
VERTEX
  5
1C9
100
AcDbEntity
  8
IMPORTED
  6
CONTINUOUS
 62
              30
100
AcDbVertex
100
AcDb2dVertex
 10
1593.7999149496393
 20
1101.5444367084433
 30
0.0
  0
VERTEX
  5
1CA
100
AcDbEntity
  8
IMPORTED
  6
CONTINUOUS
 62
              30
100
AcDbVertex
100
AcDb2dVertex
 10
1593.7999149496393
 20
1072.4552367084434
 30
0.0
  0
VERTEX
  5
1CB
100
AcDbEntity
  8
IMPORTED
  6
CONTINUOUS
 62
              30
100
AcDbVertex
100
AcDb2dVertex
 10
1593.7999149496393
 20
1072.4552367084434
 30
0.0
 42
-0.414213562373095
 70
               2
  0
VERTEX
  5
1CC
100
AcDbEntity
  8
IMPORTED
  6
CONTINUOUS
 62
              30
100
AcDbVertex
100
AcDb2dVertex
 10
1592.0445149496393
 20
1070.6998367084434
 30
0.0
  0
VERTEX
  5
1CD
100
AcDbEntity
  8
IMPORTED
  6
CONTINUOUS
 62
              30
100
AcDbVertex
100
AcDb2dVertex
 10
1590.2999149496393
 20
1070.6998367084434
 30
0.0
  0
VERTEX
  5
1CE
100
AcDbEntity
  8
IMPORTED
  6
CONTINUOUS
 62
              30
100
AcDbVertex
100
AcDb2dVertex
 10
1590.2999149496393
 20
1070.6998367084434
 30
0.0
  0
VERTEX
  5
1CF
100
AcDbEntity
  8
IMPORTED
  6
CONTINUOUS
 62
              30
100
AcDbVertex
100
AcDb2dVertex
 10
1589.7999149496393
 20
1070.6998367084434
 30
0.0
  0
VERTEX
  5
1D0
100
AcDbEntity
  8
IMPORTED
  6
CONTINUOUS
 62
              30
100
AcDbVertex
100
AcDb2dVertex
 10
1589.7999149496393
 20
1070.6998367084434
 30
0.0
  0
VERTEX
  5
1D1
100
AcDbEntity
  8
IMPORTED
  6
CONTINUOUS
 62
              30
100
AcDbVertex
100
AcDb2dVertex
 10
1588.0553149496393
 20
1070.6998367084434
 30
0.0
 42
-0.414213562373095
 70
               2
 50
3.1191399769264294E+17
  0
VERTEX
  5
1D2
100
AcDbEntity
  8
IMPORTED
  6
CONTINUOUS
 62
              30
100
AcDbVertex
100
AcDb2dVertex
 10
1586.2999149496393
 20
1072.4552367084434
 30
0.0
  0
VERTEX
  5
1D3
100
AcDbEntity
  8
IMPORTED
  6
CONTINUOUS
 62
              30
100
AcDbVertex
100
AcDb2dVertex
 10
1586.2999149496393
 20
1072.4552367084434
 30
0.0
  0
VERTEX
  5
1D4
100
AcDbEntity
  8
IMPORTED
  6
CONTINUOUS
 62
              30
100
AcDbVertex
100
AcDb2dVertex
 10
1586.2999149496393
 20
1101.5444367084433
 30
0.0
  0
SEQEND
  5
1D5
100
AcDbEntity
  8
IMPORTED
  6
CONTINUOUS
 62
              30
  0
POLYLINE
  5
1D6
100
AcDbEntity
  8
IMPORTED
  6
CONTINUOUS
 62
              30
100
AcDb2dPolyline
 66
               1
 10
0.0
 20
0.0
 30
0.0
 70
             129
  0
VERTEX
  5
1D7
100
AcDbEntity
  8
IMPORTED
  6
CONTINUOUS
 62
              30
100
AcDbVertex
100
AcDb2dVertex
 10
-714.99988505036026
 20
436.99983670844341
 30
0.0
  0
VERTEX
  5
1D8
100
AcDbEntity
  8
IMPORTED
  6
CONTINUOUS
 62
              30
100
AcDbVertex
100
AcDb2dVertex
 10
-364.99988505036038
 20
436.99983670844341
 30
0.0
  0
VERTEX
  5
1D9
100
AcDbEntity
  8
IMPORTED
  6
CONTINUOUS
 62
              30
100
AcDbVertex
100
AcDb2dVertex
 10
-364.99988505036038
 20
86.999836708443439
 30
0.0
  0
VERTEX
  5
1DA
100
AcDbEntity
  8
IMPORTED
  6
CONTINUOUS
 62
              30
100
AcDbVertex
100
AcDb2dVertex
 10
-714.99988505036026
 20
86.999836708443439
 30
0.0
  0
VERTEX
  5
1DB
100
AcDbEntity
  8
IMPORTED
  6
CONTINUOUS
 62
              30
100
AcDbVertex
100
AcDb2dVertex
 10
-714.99988505036026
 20
436.99983670844341
 30
0.0
  0
VERTEX
  5
1DC
100
AcDbEntity
  8
IMPORTED
  6
CONTINUOUS
 62
              30
100
AcDbVertex
100
AcDb2dVertex
 10
-714.99988505036026
 20
436.99983670844341
 30
0.0
  0
SEQEND
  5
1DD
100
AcDbEntity
  8
IMPORTED
  6
CONTINUOUS
 62
              30
  0
LINE
  5
1DE
100
AcDbEntity
  8
IMPORTED
  6
CONTINUOUS
 62
              30
100
AcDbLine
 10
-714.99988505036026
 20
280.1074367084434
 30
0.0
 11
-558.10748505036031
 21
436.99983670844341
 31
0.0
  0
LINE
  5
1DF
100
AcDbEntity
  8
IMPORTED
  6
CONTINUOUS
 62
              30
100
AcDbLine
 10
-714.99988505036026
 20
110.40183670844343
 30
0.0
 11
-388.40188505036031
 21
436.99983670844341
 31
0.0
  0
LINE
  5
1E0
100
AcDbEntity
  8
IMPORTED
  6
CONTINUOUS
 62
              30
100
AcDbLine
 10
-568.6962850503603
 20
86.999836708443439
 30
0.0
 11
-364.99988505036038
 21
290.69623670844339
 31
0.0
  0
LINE
  5
1E1
100
AcDbEntity
  8
IMPORTED
  6
CONTINUOUS
 62
              30
100
AcDbLine
 10
-398.9906850503603
 20
86.999836708443439
 30
0.0
 11
-364.99988505036038
 21
120.99063670844342
 31
0.0
  0
LINE
  5
1E2
100
AcDbEntity
  8
IMPORTED
  6
CONTINUOUS
 62
              30
100
AcDbLine
 10
-714.99988505036026
 20
299.90643670844338
 30
0.0
 11
-577.90648505036029
 21
436.99983670844341
 31
0.0
  0
LINE
  5
1E3
100
AcDbEntity
  8
IMPORTED
  6
CONTINUOUS
 62
              30
100
AcDbLine
 10
-714.99988505036026
 20
130.20083670844343
 30
0.0
 11
-408.20088505036028
 21
436.99983670844341
 31
0.0
  0
LINE
  5
1E4
100
AcDbEntity
  8
IMPORTED
  6
CONTINUOUS
 62
              30
100
AcDbLine
 10
-588.49528505036028
 20
86.999836708443439
 30
0.0
 11
-364.99988505036038
 21
310.49523670844343
 31
0.0
  0
LINE
  5
1E5
100
AcDbEntity
  8
IMPORTED
  6
CONTINUOUS
 62
              30
100
AcDbLine
 10
-418.78968505036039
 20
86.999836708443439
 30
0.0
 11
-364.99988505036038
 21
140.78963670844342
 31
0.0
  0
LINE
  5
1E6
100
AcDbEntity
  8
IMPORTED
  6
CONTINUOUS
 62
              30
100
AcDbLine
 10
-714.99988505036026
 20
319.70543670844341
 30
0.0
 11
-597.70548505036027
 21
436.99983670844341
 31
0.0
  0
LINE
  5
1E7
100
AcDbEntity
  8
IMPORTED
  6
CONTINUOUS
 62
              30
100
AcDbLine
 10
-714.99988505036026
 20
149.99983670844341
 30
0.0
 11
-427.99988505036038
 21
436.99983670844341
 31
0.0
  0
LINE
  5
1E8
100
AcDbEntity
  8
IMPORTED
  6
CONTINUOUS
 62
              30
100
AcDbLine
 10
-608.29428505036037
 20
86.999836708443439
 30
0.0
 11
-364.99988505036038
 21
330.29423670844341
 31
0.0
  0
LINE
  5
1E9
100
AcDbEntity
  8
IMPORTED
  6
CONTINUOUS
 62
              30
100
AcDbLine
 10
-438.58868505036037
 20
86.999836708443439
 30
0.0
 11
-364.99988505036038
 21
160.58863670844343
 31
0.0
  0
POLYLINE
  5
1EA
100
AcDbEntity
  8
IMPORTED
  6
CONTINUOUS
 62
              30
100
AcDb2dPolyline
 66
               1
 10
0.0
 20
0.0
 30
0.0
 70
             129
  0
VERTEX
  5
1EB
100
AcDbEntity
  8
IMPORTED
  6
CONTINUOUS
 62
              30
100
AcDbVertex
100
AcDb2dVertex
 10
-764.99988505036026
 20
36.999936708443428
 30
0.0
  0
VERTEX
  5
1EC
100
AcDbEntity
  8
IMPORTED
  6
CONTINUOUS
 62
              30
100
AcDbVertex
100
AcDb2dVertex
 10
-314.99988505036038
 20
36.999936708443428
 30
0.0
  0
VERTEX
  5
1ED
100
AcDbEntity
  8
IMPORTED
  6
CONTINUOUS
 62
              30
100
AcDbVertex
100
AcDb2dVertex
 10
-314.99988505036038
 20
-63.000063291556557
 30
0.0
  0
VERTEX
  5
1EE
100
AcDbEntity
  8
IMPORTED
  6
CONTINUOUS
 62
              30
100
AcDbVertex
100
AcDb2dVertex
 10
-764.99988505036026
 20
-63.000063291556557
 30
0.0
  0
VERTEX
  5
1EF
100
AcDbEntity
  8
IMPORTED
  6
CONTINUOUS
 62
              30
100
AcDbVertex
100
AcDb2dVertex
 10
-764.99988505036026
 20
36.999936708443428
 30
0.0
  0
VERTEX
  5
1F0
100
AcDbEntity
  8
IMPORTED
  6
CONTINUOUS
 62
              30
100
AcDbVertex
100
AcDb2dVertex
 10
-764.99988505036026
 20
36.999936708443428
 30
0.0
  0
SEQEND
  5
1F1
100
AcDbEntity
  8
IMPORTED
  6
CONTINUOUS
 62
              30
  0
POLYLINE
  5
1F2
100
AcDbEntity
  8
IMPORTED
  6
CONTINUOUS
 62
              30
100
AcDb2dPolyline
 66
               1
 10
0.0
 20
0.0
 30
0.0
 70
             129
  0
VERTEX
  5
1F3
100
AcDbEntity
  8
IMPORTED
  6
CONTINUOUS
 62
              30
100
AcDbVertex
100
AcDb2dVertex
 10
-764.99988505036026
 20
86.999836708443439
 30
0.0
  0
VERTEX
  5
1F4
100
AcDbEntity
  8
IMPORTED
  6
CONTINUOUS
 62
              30
100
AcDbVertex
100
AcDb2dVertex
 10
-314.99988505036038
 20
86.999836708443439
 30
0.0
  0
VERTEX
  5
1F5
100
AcDbEntity
  8
IMPORTED
  6
CONTINUOUS
 62
              30
100
AcDbVertex
100
AcDb2dVertex
 10
-314.99988505036038
 20
36.999836708443425
 30
0.0
  0
VERTEX
  5
1F6
100
AcDbEntity
  8
IMPORTED
  6
CONTINUOUS
 62
              30
100
AcDbVertex
100
AcDb2dVertex
 10
-764.99988505036026
 20
36.999836708443425
 30
0.0
  0
VERTEX
  5
1F7
100
AcDbEntity
  8
IMPORTED
  6
CONTINUOUS
 62
              30
100
AcDbVertex
100
AcDb2dVertex
 10
-764.99988505036026
 20
86.999836708443439
 30
0.0
  0
VERTEX
  5
1F8
100
AcDbEntity
  8
IMPORTED
  6
CONTINUOUS
 62
              30
100
AcDbVertex
100
AcDb2dVertex
 10
-764.99988505036026
 20
86.999836708443439
 30
0.0
  0
SEQEND
  5
1F9
100
AcDbEntity
  8
IMPORTED
  6
CONTINUOUS
 62
              30
  0
LINE
  5
1FA
100
AcDbEntity
  8
IMPORTED
  6
CONTINUOUS
 62
              30
100
AcDbLine
 10
-408.14208505036038
 20
86.999836708443439
 30
0.0
 11
-358.14208505036038
 21
36.999836708443425
 31
0.0
  0
LINE
  5
1FB
100
AcDbEntity
  8
IMPORTED
  6
CONTINUOUS
 62
              30
100
AcDbLine
 10
-393.99988505036038
 20
86.999836708443439
 30
0.0
 11
-343.99988505036038
 21
36.999836708443425
 31
0.0
  0
LINE
  5
1FC
100
AcDbEntity
  8
IMPORTED
  6
CONTINUOUS
 62
              30
100
AcDbLine
 10
-558.14208505036038
 20
86.999836708443439
 30
0.0
 11
-508.14208505036038
 21
36.999836708443425
 31
0.0
  0
LINE
  5
1FD
100
AcDbEntity
  8
IMPORTED
  6
CONTINUOUS
 62
              30
100
AcDbLine
 10
-543.99988505036038
 20
86.999836708443439
 30
0.0
 11
-493.99988505036038
 21
36.999836708443425
 31
0.0
  0
LINE
  5
1FE
100
AcDbEntity
  8
IMPORTED
  6
CONTINUOUS
 62
              30
100
AcDbLine
 10
-708.14208505036027
 20
86.999836708443439
 30
0.0
 11
-658.14208505036027
 21
36.999836708443425
 31
0.0
  0
LINE
  5
1FF
100
AcDbEntity
  8
IMPORTED
  6
CONTINUOUS
 62
              30
100
AcDbLine
 10
-693.99988505036026
 20
86.999836708443439
 30
0.0
 11
-643.99988505036026
 21
36.999836708443425
 31
0.0
  0
LINE
  5
200
100
AcDbEntity
  8
IMPORTED
  6
CONTINUOUS
 62
              30
100
AcDbLine
 10
-344.87118505036034
 20
-63.000063291556557
 30
0.0
 11
-402.6061850503603
 21
36.999936708443428
 31
0.0
  0
LINE
  5
201
100
AcDbEntity
  8
IMPORTED
  6
CONTINUOUS
 62
              30
100
AcDbLine
 10
-388.17248505036036
 20
11.999836708443439
 30
0.0
 11
-373.73868505036035
 21
36.999836708443425
 31
0.0
  0
LINE
  5
202
100
AcDbEntity
  8
IMPORTED
  6
CONTINUOUS
 62
              30
100
AcDbLine
 10
-359.3049850503603
 20
-37.999863291556565
 30
0.0
 11
-373.73878505036032
 21
-63.000063291556557
 31
0.0
  0
LINE
  5
203
100
AcDbEntity
  8
IMPORTED
  6
CONTINUOUS
 62
              30
100
AcDbLine
 10
-428.87118505036028
 20
-63.000063291556557
 30
0.0
 11
-486.6061850503603
 21
36.999936708443428
 31
0.0
  0
LINE
  5
204
100
AcDbEntity
  8
IMPORTED
  6
CONTINUOUS
 62
              30
100
AcDbLine
 10
-472.17248505036036
 20
11.999836708443439
 30
0.0
 11
-457.73868505036035
 21
36.999836708443425
 31
0.0
  0
LINE
  5
205
100
AcDbEntity
  8
IMPORTED
  6
CONTINUOUS
 62
              30
100
AcDbLine
 10
-443.3049850503603
 20
-37.999863291556565
 30
0.0
 11
-457.73878505036032
 21
-63.000063291556557
 31
0.0
  0
LINE
  5
206
100
AcDbEntity
  8
IMPORTED
  6
CONTINUOUS
 62
              30
100
AcDbLine
 10
-512.87118505036028
 20
-63.000063291556557
 30
0.0
 11
-570.6061850503603
 21
36.999936708443428
 31
0.0
  0
LINE
  5
207
100
AcDbEntity
  8
IMPORTED
  6
CONTINUOUS
 62
              30
100
AcDbLine
 10
-556.17248505036036
 20
11.999836708443439
 30
0.0
 11
-541.73868505036035
 21
36.999836708443425
 31
0.0
  0
LINE
  5
208
100
AcDbEntity
  8
IMPORTED
  6
CONTINUOUS
 62
              30
100
AcDbLine
 10
-527.3049850503603
 20
-37.999863291556565
 30
0.0
 11
-541.73878505036032
 21
-63.000063291556557
 31
0.0
  0
LINE
  5
209
100
AcDbEntity
  8
IMPORTED
  6
CONTINUOUS
 62
              30
100
AcDbLine
 10
-596.87118505036028
 20
-63.000063291556557
 30
0.0
 11
-654.6061850503603
 21
36.999936708443428
 31
0.0
  0
LINE
  5
20A
100
AcDbEntity
  8
IMPORTED
  6
CONTINUOUS
 62
              30
100
AcDbLine
 10
-640.17248505036036
 20
11.999836708443439
 30
0.0
 11
-625.73868505036035
 21
36.999836708443425
 31
0.0
  0
LINE
  5
20B
100
AcDbEntity
  8
IMPORTED
  6
CONTINUOUS
 62
              30
100
AcDbLine
 10
-611.3049850503603
 20
-37.999863291556565
 30
0.0
 11
-625.73878505036032
 21
-63.000063291556557
 31
0.0
  0
LINE
  5
20C
100
AcDbEntity
  8
IMPORTED
  6
CONTINUOUS
 62
              30
100
AcDbLine
 10
-680.87118505036028
 20
-63.000063291556557
 30
0.0
 11
-738.6061850503603
 21
36.999936708443428
 31
0.0
  0
LINE
  5
20D
100
AcDbEntity
  8
IMPORTED
  6
CONTINUOUS
 62
              30
100
AcDbLine
 10
-724.17248505036025
 20
11.999836708443439
 30
0.0
 11
-709.73868505036023
 21
36.999836708443425
 31
0.0
  0
LINE
  5
20E
100
AcDbEntity
  8
IMPORTED
  6
CONTINUOUS
 62
              30
100
AcDbLine
 10
-695.3049850503603
 20
-37.999863291556565
 30
0.0
 11
-709.73878505036032
 21
-63.000063291556557
 31
0.0
  0
POLYLINE
  5
20F
100
AcDbEntity
  8
IMPORTED
  6
CONTINUOUS
 62
              30
100
AcDb2dPolyline
 66
               1
 10
0.0
 20
0.0
 30
0.0
 70
             129
  0
VERTEX
  5
210
100
AcDbEntity
  8
IMPORTED
  6
CONTINUOUS
 62
              30
100
AcDbVertex
100
AcDb2dVertex
 10
-582.49988505036038
 20
436.99983670844341
 30
0.0
  0
VERTEX
  5
211
100
AcDbEntity
  8
IMPORTED
  6
CONTINUOUS
 62
              30
100
AcDbVertex
100
AcDb2dVertex
 10
-497.49988505036038
 20
436.99983670844341
 30
0.0
  0
VERTEX
  5
212
100
AcDbEntity
  8
IMPORTED
  6
CONTINUOUS
 62
              30
100
AcDbVertex
100
AcDb2dVertex
 10
-497.49988505036038
 20
86.999836708443439
 30
0.0
  0
VERTEX
  5
213
100
AcDbEntity
  8
IMPORTED
  6
CONTINUOUS
 62
              30
100
AcDbVertex
100
AcDb2dVertex
 10
-582.49988505036038
 20
86.999836708443439
 30
0.0
  0
VERTEX
  5
214
100
AcDbEntity
  8
IMPORTED
  6
CONTINUOUS
 62
              30
100
AcDbVertex
100
AcDb2dVertex
 10
-582.49988505036038
 20
436.99983670844341
 30
0.0
  0
SEQEND
  5
215
100
AcDbEntity
  8
IMPORTED
  6
CONTINUOUS
 62
              30
  0
LINE
  5
216
100
AcDbEntity
  8
IMPORTED
  6
CONTINUOUS
 62
              30
100
AcDbLine
 10
-582.49978505036029
 20
429.06773670844342
 30
0.0
 11
-575.75758505036038
 21
436.99973670844338
 31
0.0
  0
LINE
  5
217
100
AcDbEntity
  8
IMPORTED
  6
CONTINUOUS
 62
              30
100
AcDbLine
 10
-582.49978505036029
 20
384.8735367084434
 30
0.0
 11
-538.19248505036035
 21
436.99973670844338
 31
0.0
  0
LINE
  5
218
100
AcDbEntity
  8
IMPORTED
  6
CONTINUOUS
 62
              30
100
AcDbLine
 10
-582.49978505036029
 20
340.67933670844343
 30
0.0
 11
-500.62748505036029
 21
436.99973670844338
 31
0.0
  0
LINE
  5
219
100
AcDbEntity
  8
IMPORTED
  6
CONTINUOUS
 62
              30
100
AcDbLine
 10
-582.49988505036038
 20
296.48513670844341
 30
0.0
 11
-497.49988505036038
 21
396.48513670844341
 31
0.0
  0
LINE
  5
21A
100
AcDbEntity
  8
IMPORTED
  6
CONTINUOUS
 62
              30
100
AcDbLine
 10
-582.49988505036038
 20
252.29103670844341
 30
0.0
 11
-497.49988505036038
 21
352.29103670844341
 31
0.0
  0
LINE
  5
21B
100
AcDbEntity
  8
IMPORTED
  6
CONTINUOUS
 62
              30
100
AcDbLine
 10
-582.49988505036038
 20
208.09693670844342
 30
0.0
 11
-497.49988505036038
 21
308.09693670844342
 31
0.0
  0
LINE
  5
21C
100
AcDbEntity
  8
IMPORTED
  6
CONTINUOUS
 62
              30
100
AcDbLine
 10
-582.49988505036038
 20
163.90273670844343
 30
0.0
 11
-497.49988505036038
 21
263.9027367084434
 31
0.0
  0
LINE
  5
21D
100
AcDbEntity
  8
IMPORTED
  6
CONTINUOUS
 62
              30
100
AcDbLine
 10
-582.49988505036038
 20
119.70853670844343
 30
0.0
 11
-497.49988505036038
 21
219.70853670844343
 31
0.0
  0
LINE
  5
21E
100
AcDbEntity
  8
IMPORTED
  6
CONTINUOUS
 62
              30
100
AcDbLine
 10
-572.73728505036036
 20
86.999836708443439
 30
0.0
 11
-497.49988505036038
 21
175.51443670844341
 31
0.0
  0
LINE
  5
21F
100
AcDbEntity
  8
IMPORTED
  6
CONTINUOUS
 62
              30
100
AcDbLine
 10
-535.17218505036033
 20
86.999836708443439
 30
0.0
 11
-497.49988505036038
 21
131.32023670844342
 31
0.0
  0
LINE
  5
220
100
AcDbEntity
  8
IMPORTED
  6
CONTINUOUS
 62
              30
100
AcDbLine
 10
-497.60718505036039
 20
86.999836708443439
 30
0.0
 11
-497.49988505036038
 21
87.126036708443422
 31
0.0
  0
LINE
  5
221
100
AcDbEntity
  8
IMPORTED
  6
CONTINUOUS
 62
              30
100
AcDbLine
 10
-570.3769850503603
 20
86.999836708443439
 30
0.0
 11
-582.49988505036038
 21
101.26203670844342
 31
0.0
  0
LINE
  5
222
100
AcDbEntity
  8
IMPORTED
  6
CONTINUOUS
 62
              30
100
AcDbLine
 10
-532.81198505036036
 20
86.999836708443439
 30
0.0
 11
-582.49988505036038
 21
145.45623670844341
 31
0.0
  0
LINE
  5
223
100
AcDbEntity
  8
IMPORTED
  6
CONTINUOUS
 62
              30
100
AcDbLine
 10
-497.49988505036038
 20
89.650436708443436
 30
0.0
 11
-582.49988505036038
 21
189.65043670844341
 31
0.0
  0
LINE
  5
224
100
AcDbEntity
  8
IMPORTED
  6
CONTINUOUS
 62
              30
100
AcDbLine
 10
-497.49988505036038
 20
133.84453670844343
 30
0.0
 11
-582.49988505036038
 21
233.8445367084434
 31
0.0
  0
LINE
  5
225
100
AcDbEntity
  8
IMPORTED
  6
CONTINUOUS
 62
              30
100
AcDbLine
 10
-497.49988505036038
 20
178.03873670844342
 30
0.0
 11
-582.49988505036038
 21
278.03873670844342
 31
0.0
  0
LINE
  5
226
100
AcDbEntity
  8
IMPORTED
  6
CONTINUOUS
 62
              30
100
AcDbLine
 10
-497.49988505036038
 20
222.23283670844341
 30
0.0
 11
-582.49988505036038
 21
322.23283670844341
 31
0.0
  0
LINE
  5
227
100
AcDbEntity
  8
IMPORTED
  6
CONTINUOUS
 62
              30
100
AcDbLine
 10
-497.49988505036038
 20
266.42703670844344
 30
0.0
 11
-582.49988505036038
 21
366.42703670844338
 31
0.0
  0
LINE
  5
228
100
AcDbEntity
  8
IMPORTED
  6
CONTINUOUS
 62
              30
100
AcDbLine
 10
-497.49988505036038
 20
310.62113670844343
 30
0.0
 11
-582.49988505036038
 21
410.62113670844337
 31
0.0
  0
LINE
  5
229
100
AcDbEntity
  8
IMPORTED
  6
CONTINUOUS
 62
              30
100
AcDbLine
 10
-497.49998505036035
 20
354.8153367084434
 30
0.0
 11
-567.35668505036028
 21
436.99973670844338
 31
0.0
  0
LINE
  5
22A
100
AcDbEntity
  8
IMPORTED
  6
CONTINUOUS
 62
              30
100
AcDbLine
 10
-497.49998505036035
 20
399.00953670844342
 30
0.0
 11
-529.79168505036034
 21
436.99973670844338
 31
0.0
  0
POLYLINE
  5
22B
100
AcDbEntity
  8
IMPORTED
  6
CONTINUOUS
 62
              30
100
AcDb2dPolyline
 66
               1
 10
0.0
 20
0.0
 30
0.0
 70
             129
  0
VERTEX
  5
22C
100
AcDbEntity
  8
IMPORTED
  6
CONTINUOUS
 62
              30
100
AcDbVertex
100
AcDb2dVertex
 10
-2214.9998850503603
 20
436.99983670844341
 30
0.0
  0
VERTEX
  5
22D
100
AcDbEntity
  8
IMPORTED
  6
CONTINUOUS
 62
              30
100
AcDbVertex
100
AcDb2dVertex
 10
-1864.9998850503603
 20
436.99983670844341
 30
0.0
  0
VERTEX
  5
22E
100
AcDbEntity
  8
IMPORTED
  6
CONTINUOUS
 62
              30
100
AcDbVertex
100
AcDb2dVertex
 10
-1864.9998850503603
 20
86.999836708443439
 30
0.0
  0
VERTEX
  5
22F
100
AcDbEntity
  8
IMPORTED
  6
CONTINUOUS
 62
              30
100
AcDbVertex
100
AcDb2dVertex
 10
-2214.9998850503603
 20
86.999836708443439
 30
0.0
  0
VERTEX
  5
230
100
AcDbEntity
  8
IMPORTED
  6
CONTINUOUS
 62
              30
100
AcDbVertex
100
AcDb2dVertex
 10
-2214.9998850503603
 20
436.99983670844341
 30
0.0
  0
VERTEX
  5
231
100
AcDbEntity
  8
IMPORTED
  6
CONTINUOUS
 62
              30
100
AcDbVertex
100
AcDb2dVertex
 10
-2214.9998850503603
 20
436.99983670844341
 30
0.0
  0
SEQEND
  5
232
100
AcDbEntity
  8
IMPORTED
  6
CONTINUOUS
 62
              30
  0
LINE
  5
233
100
AcDbEntity
  8
IMPORTED
  6
CONTINUOUS
 62
              30
100
AcDbLine
 10
-2214.9998850503603
 20
280.1074367084434
 30
0.0
 11
-2058.1074850503601
 21
436.99983670844341
 31
0.0
  0
LINE
  5
234
100
AcDbEntity
  8
IMPORTED
  6
CONTINUOUS
 62
              30
100
AcDbLine
 10
-2214.9998850503603
 20
110.40183670844343
 30
0.0
 11
-1888.4018850503603
 21
436.99983670844341
 31
0.0
  0
LINE
  5
235
100
AcDbEntity
  8
IMPORTED
  6
CONTINUOUS
 62
              30
100
AcDbLine
 10
-2068.6962850503601
 20
86.999836708443439
 30
0.0
 11
-1864.9998850503603
 21
290.69623670844339
 31
0.0
  0
LINE
  5
236
100
AcDbEntity
  8
IMPORTED
  6
CONTINUOUS
 62
              30
100
AcDbLine
 10
-1898.9906850503603
 20
86.999836708443439
 30
0.0
 11
-1864.9998850503603
 21
120.99063670844342
 31
0.0
  0
LINE
  5
237
100
AcDbEntity
  8
IMPORTED
  6
CONTINUOUS
 62
              30
100
AcDbLine
 10
-2214.9998850503603
 20
299.90643670844338
 30
0.0
 11
-2077.9064850503601
 21
436.99983670844341
 31
0.0
  0
LINE
  5
238
100
AcDbEntity
  8
IMPORTED
  6
CONTINUOUS
 62
              30
100
AcDbLine
 10
-2214.9998850503603
 20
130.20083670844343
 30
0.0
 11
-1908.2008850503603
 21
436.99983670844341
 31
0.0
  0
LINE
  5
239
100
AcDbEntity
  8
IMPORTED
  6
CONTINUOUS
 62
              30
100
AcDbLine
 10
-2088.4952850503601
 20
86.999836708443439
 30
0.0
 11
-1864.9998850503603
 21
310.49523670844343
 31
0.0
  0
LINE
  5
23A
100
AcDbEntity
  8
IMPORTED
  6
CONTINUOUS
 62
              30
100
AcDbLine
 10
-1918.7896850503603
 20
86.999836708443439
 30
0.0
 11
-1864.9998850503603
 21
140.78963670844342
 31
0.0
  0
LINE
  5
23B
100
AcDbEntity
  8
IMPORTED
  6
CONTINUOUS
 62
              30
100
AcDbLine
 10
-2214.9998850503603
 20
319.70543670844341
 30
0.0
 11
-2097.70548505036
 21
436.99983670844341
 31
0.0
  0
LINE
  5
23C
100
AcDbEntity
  8
IMPORTED
  6
CONTINUOUS
 62
              30
100
AcDbLine
 10
-2214.9998850503603
 20
149.99983670844341
 30
0.0
 11
-1927.9998850503603
 21
436.99983670844341
 31
0.0
  0
LINE
  5
23D
100
AcDbEntity
  8
IMPORTED
  6
CONTINUOUS
 62
              30
100
AcDbLine
 10
-2108.29428505036
 20
86.999836708443439
 30
0.0
 11
-1864.9998850503603
 21
330.29423670844341
 31
0.0
  0
LINE
  5
23E
100
AcDbEntity
  8
IMPORTED
  6
CONTINUOUS
 62
              30
100
AcDbLine
 10
-1938.5886850503603
 20
86.999836708443439
 30
0.0
 11
-1864.9998850503603
 21
160.58863670844343
 31
0.0
  0
POLYLINE
  5
23F
100
AcDbEntity
  8
IMPORTED
  6
CONTINUOUS
 62
              30
100
AcDb2dPolyline
 66
               1
 10
0.0
 20
0.0
 30
0.0
 70
             129
  0
VERTEX
  5
240
100
AcDbEntity
  8
IMPORTED
  6
CONTINUOUS
 62
              30
100
AcDbVertex
100
AcDb2dVertex
 10
-2264.9998850503603
 20
36.999936708443428
 30
0.0
  0
VERTEX
  5
241
100
AcDbEntity
  8
IMPORTED
  6
CONTINUOUS
 62
              30
100
AcDbVertex
100
AcDb2dVertex
 10
-1814.9998850503603
 20
36.999936708443428
 30
0.0
  0
VERTEX
  5
242
100
AcDbEntity
  8
IMPORTED
  6
CONTINUOUS
 62
              30
100
AcDbVertex
100
AcDb2dVertex
 10
-1814.9998850503603
 20
-63.000063291556557
 30
0.0
  0
VERTEX
  5
243
100
AcDbEntity
  8
IMPORTED
  6
CONTINUOUS
 62
              30
100
AcDbVertex
100
AcDb2dVertex
 10
-2264.9998850503603
 20
-63.000063291556557
 30
0.0
  0
VERTEX
  5
244
100
AcDbEntity
  8
IMPORTED
  6
CONTINUOUS
 62
              30
100
AcDbVertex
100
AcDb2dVertex
 10
-2264.9998850503603
 20
36.999936708443428
 30
0.0
  0
VERTEX
  5
245
100
AcDbEntity
  8
IMPORTED
  6
CONTINUOUS
 62
              30
100
AcDbVertex
100
AcDb2dVertex
 10
-2264.9998850503603
 20
36.999936708443428
 30
0.0
  0
SEQEND
  5
246
100
AcDbEntity
  8
IMPORTED
  6
CONTINUOUS
 62
              30
  0
POLYLINE
  5
247
100
AcDbEntity
  8
IMPORTED
  6
CONTINUOUS
 62
              30
100
AcDb2dPolyline
 66
               1
 10
0.0
 20
0.0
 30
0.0
 70
             129
  0
VERTEX
  5
248
100
AcDbEntity
  8
IMPORTED
  6
CONTINUOUS
 62
              30
100
AcDbVertex
100
AcDb2dVertex
 10
-2264.9998850503603
 20
86.999836708443439
 30
0.0
  0
VERTEX
  5
249
100
AcDbEntity
  8
IMPORTED
  6
CONTINUOUS
 62
              30
100
AcDbVertex
100
AcDb2dVertex
 10
-1814.9998850503603
 20
86.999836708443439
 30
0.0
  0
VERTEX
  5
24A
100
AcDbEntity
  8
IMPORTED
  6
CONTINUOUS
 62
              30
100
AcDbVertex
100
AcDb2dVertex
 10
-1814.9998850503603
 20
36.999836708443425
 30
0.0
  0
VERTEX
  5
24B
100
AcDbEntity
  8
IMPORTED
  6
CONTINUOUS
 62
              30
100
AcDbVertex
100
AcDb2dVertex
 10
-2264.9998850503603
 20
36.999836708443425
 30
0.0
  0
VERTEX
  5
24C
100
AcDbEntity
  8
IMPORTED
  6
CONTINUOUS
 62
              30
100
AcDbVertex
100
AcDb2dVertex
 10
-2264.9998850503603
 20
86.999836708443439
 30
0.0
  0
VERTEX
  5
24D
100
AcDbEntity
  8
IMPORTED
  6
CONTINUOUS
 62
              30
100
AcDbVertex
100
AcDb2dVertex
 10
-2264.9998850503603
 20
86.999836708443439
 30
0.0
  0
SEQEND
  5
24E
100
AcDbEntity
  8
IMPORTED
  6
CONTINUOUS
 62
              30
  0
LINE
  5
24F
100
AcDbEntity
  8
IMPORTED
  6
CONTINUOUS
 62
              30
100
AcDbLine
 10
-1908.1420850503603
 20
86.999836708443439
 30
0.0
 11
-1858.1420850503603
 21
36.999836708443425
 31
0.0
  0
LINE
  5
250
100
AcDbEntity
  8
IMPORTED
  6
CONTINUOUS
 62
              30
100
AcDbLine
 10
-1893.9998850503603
 20
86.999836708443439
 30
0.0
 11
-1843.9998850503603
 21
36.999836708443425
 31
0.0
  0
LINE
  5
251
100
AcDbEntity
  8
IMPORTED
  6
CONTINUOUS
 62
              30
100
AcDbLine
 10
-2058.14208505036
 20
86.999836708443439
 30
0.0
 11
-2008.1420850503603
 21
36.999836708443425
 31
0.0
  0
LINE
  5
252
100
AcDbEntity
  8
IMPORTED
  6
CONTINUOUS
 62
              30
100
AcDbLine
 10
-2043.9998850503603
 20
86.999836708443439
 30
0.0
 11
-1993.9998850503603
 21
36.999836708443425
 31
0.0
  0
LINE
  5
253
100
AcDbEntity
  8
IMPORTED
  6
CONTINUOUS
 62
              30
100
AcDbLine
 10
-2208.1420850503605
 20
86.999836708443439
 30
0.0
 11
-2158.14208505036
 21
36.999836708443425
 31
0.0
  0
LINE
  5
254
100
AcDbEntity
  8
IMPORTED
  6
CONTINUOUS
 62
              30
100
AcDbLine
 10
-2193.9998850503603
 20
86.999836708443439
 30
0.0
 11
-2143.9998850503603
 21
36.999836708443425
 31
0.0
  0
LINE
  5
255
100
AcDbEntity
  8
IMPORTED
  6
CONTINUOUS
 62
              30
100
AcDbLine
 10
-1844.8711850503603
 20
-63.000063291556557
 30
0.0
 11
-1902.6061850503602
 21
36.999936708443428
 31
0.0
  0
LINE
  5
256
100
AcDbEntity
  8
IMPORTED
  6
CONTINUOUS
 62
              30
100
AcDbLine
 10
-1888.1724850503604
 20
11.999836708443439
 30
0.0
 11
-1873.7386850503603
 21
36.999836708443425
 31
0.0
  0
LINE
  5
257
100
AcDbEntity
  8
IMPORTED
  6
CONTINUOUS
 62
              30
100
AcDbLine
 10
-1859.3049850503603
 20
-37.999863291556565
 30
0.0
 11
-1873.7387850503603
 21
-63.000063291556557
 31
0.0
  0
LINE
  5
258
100
AcDbEntity
  8
IMPORTED
  6
CONTINUOUS
 62
              30
100
AcDbLine
 10
-1928.8711850503603
 20
-63.000063291556557
 30
0.0
 11
-1986.6061850503602
 21
36.999936708443428
 31
0.0
  0
LINE
  5
259
100
AcDbEntity
  8
IMPORTED
  6
CONTINUOUS
 62
              30
100
AcDbLine
 10
-1972.1724850503604
 20
11.999836708443439
 30
0.0
 11
-1957.7386850503603
 21
36.999836708443425
 31
0.0
  0
LINE
  5
25A
100
AcDbEntity
  8
IMPORTED
  6
CONTINUOUS
 62
              30
100
AcDbLine
 10
-1943.3049850503603
 20
-37.999863291556565
 30
0.0
 11
-1957.7387850503603
 21
-63.000063291556557
 31
0.0
  0
LINE
  5
25B
100
AcDbEntity
  8
IMPORTED
  6
CONTINUOUS
 62
              30
100
AcDbLine
 10
-2012.8711850503603
 20
-63.000063291556557
 30
0.0
 11
-2070.6061850503602
 21
36.999936708443428
 31
0.0
  0
LINE
  5
25C
100
AcDbEntity
  8
IMPORTED
  6
CONTINUOUS
 62
              30
100
AcDbLine
 10
-2056.1724850503601
 20
11.999836708443439
 30
0.0
 11
-2041.7386850503603
 21
36.999836708443425
 31
0.0
  0
LINE
  5
25D
100
AcDbEntity
  8
IMPORTED
  6
CONTINUOUS
 62
              30
100
AcDbLine
 10
-2027.3049850503603
 20
-37.999863291556565
 30
0.0
 11
-2041.7387850503603
 21
-63.000063291556557
 31
0.0
  0
LINE
  5
25E
100
AcDbEntity
  8
IMPORTED
  6
CONTINUOUS
 62
              30
100
AcDbLine
 10
-2096.8711850503601
 20
-63.000063291556557
 30
0.0
 11
-2154.6061850503602
 21
36.999936708443428
 31
0.0
  0
LINE
  5
25F
100
AcDbEntity
  8
IMPORTED
  6
CONTINUOUS
 62
              30
100
AcDbLine
 10
-2140.1724850503601
 20
11.999836708443439
 30
0.0
 11
-2125.7386850503603
 21
36.999836708443425
 31
0.0
  0
LINE
  5
260
100
AcDbEntity
  8
IMPORTED
  6
CONTINUOUS
 62
              30
100
AcDbLine
 10
-2111.3049850503603
 20
-37.999863291556565
 30
0.0
 11
-2125.7387850503601
 21
-63.000063291556557
 31
0.0
  0
LINE
  5
261
100
AcDbEntity
  8
IMPORTED
  6
CONTINUOUS
 62
              30
100
AcDbLine
 10
-2180.8711850503601
 20
-63.000063291556557
 30
0.0
 11
-2238.6061850503602
 21
36.999936708443428
 31
0.0
  0
LINE
  5
262
100
AcDbEntity
  8
IMPORTED
  6
CONTINUOUS
 62
              30
100
AcDbLine
 10
-2224.1724850503601
 20
11.999836708443439
 30
0.0
 11
-2209.7386850503603
 21
36.999836708443425
 31
0.0
  0
LINE
  5
263
100
AcDbEntity
  8
IMPORTED
  6
CONTINUOUS
 62
              30
100
AcDbLine
 10
-2195.3049850503603
 20
-37.999863291556565
 30
0.0
 11
-2209.7387850503601
 21
-63.000063291556557
 31
0.0
  0
POLYLINE
  5
264
100
AcDbEntity
  8
IMPORTED
  6
CONTINUOUS
 62
              30
100
AcDb2dPolyline
 66
               1
 10
0.0
 20
0.0
 30
0.0
 70
             129
  0
VERTEX
  5
265
100
AcDbEntity
  8
IMPORTED
  6
CONTINUOUS
 62
              30
100
AcDbVertex
100
AcDb2dVertex
 10
-2082.4998850503603
 20
436.99983670844341
 30
0.0
  0
VERTEX
  5
266
100
AcDbEntity
  8
IMPORTED
  6
CONTINUOUS
 62
              30
100
AcDbVertex
100
AcDb2dVertex
 10
-1997.4998850503603
 20
436.99983670844341
 30
0.0
  0
VERTEX
  5
267
100
AcDbEntity
  8
IMPORTED
  6
CONTINUOUS
 62
              30
100
AcDbVertex
100
AcDb2dVertex
 10
-1997.4998850503603
 20
86.999836708443439
 30
0.0
  0
VERTEX
  5
268
100
AcDbEntity
  8
IMPORTED
  6
CONTINUOUS
 62
              30
100
AcDbVertex
100
AcDb2dVertex
 10
-2082.4998850503603
 20
86.999836708443439
 30
0.0
  0
VERTEX
  5
269
100
AcDbEntity
  8
IMPORTED
  6
CONTINUOUS
 62
              30
100
AcDbVertex
100
AcDb2dVertex
 10
-2082.4998850503603
 20
436.99983670844341
 30
0.0
  0
SEQEND
  5
26A
100
AcDbEntity
  8
IMPORTED
  6
CONTINUOUS
 62
              30
  0
LINE
  5
26B
100
AcDbEntity
  8
IMPORTED
  6
CONTINUOUS
 62
              30
100
AcDbLine
 10
-2082.4997850503601
 20
429.06773670844342
 30
0.0
 11
-2075.7575850503604
 21
436.99973670844338
 31
0.0
  0
LINE
  5
26C
100
AcDbEntity
  8
IMPORTED
  6
CONTINUOUS
 62
              30
100
AcDbLine
 10
-2082.4997850503601
 20
384.8735367084434
 30
0.0
 11
-2038.1924850503603
 21
436.99973670844338
 31
0.0
  0
LINE
  5
26D
100
AcDbEntity
  8
IMPORTED
  6
CONTINUOUS
 62
              30
100
AcDbLine
 10
-2082.4997850503601
 20
340.67933670844343
 30
0.0
 11
-2000.6274850503603
 21
436.99973670844338
 31
0.0
  0
LINE
  5
26E
100
AcDbEntity
  8
IMPORTED
  6
CONTINUOUS
 62
              30
100
AcDbLine
 10
-2082.4998850503603
 20
296.48513670844341
 30
0.0
 11
-1997.4998850503603
 21
396.48513670844341
 31
0.0
  0
LINE
  5
26F
100
AcDbEntity
  8
IMPORTED
  6
CONTINUOUS
 62
              30
100
AcDbLine
 10
-2082.4998850503603
 20
252.29103670844341
 30
0.0
 11
-1997.4998850503603
 21
352.29103670844341
 31
0.0
  0
LINE
  5
270
100
AcDbEntity
  8
IMPORTED
  6
CONTINUOUS
 62
              30
100
AcDbLine
 10
-2082.4998850503603
 20
208.09693670844342
 30
0.0
 11
-1997.4998850503603
 21
308.09693670844342
 31
0.0
  0
LINE
  5
271
100
AcDbEntity
  8
IMPORTED
  6
CONTINUOUS
 62
              30
100
AcDbLine
 10
-2082.4998850503603
 20
163.90273670844343
 30
0.0
 11
-1997.4998850503603
 21
263.9027367084434
 31
0.0
  0
LINE
  5
272
100
AcDbEntity
  8
IMPORTED
  6
CONTINUOUS
 62
              30
100
AcDbLine
 10
-2082.4998850503603
 20
119.70853670844343
 30
0.0
 11
-1997.4998850503603
 21
219.70853670844343
 31
0.0
  0
LINE
  5
273
100
AcDbEntity
  8
IMPORTED
  6
CONTINUOUS
 62
              30
100
AcDbLine
 10
-2072.7372850503602
 20
86.999836708443439
 30
0.0
 11
-1997.4998850503603
 21
175.51443670844341
 31
0.0
  0
LINE
  5
274
100
AcDbEntity
  8
IMPORTED
  6
CONTINUOUS
 62
              30
100
AcDbLine
 10
-2035.1721850503602
 20
86.999836708443439
 30
0.0
 11
-1997.4998850503603
 21
131.32023670844342
 31
0.0
  0
LINE
  5
275
100
AcDbEntity
  8
IMPORTED
  6
CONTINUOUS
 62
              30
100
AcDbLine
 10
-1997.6071850503604
 20
86.999836708443439
 30
0.0
 11
-1997.4998850503603
 21
87.126036708443422
 31
0.0
  0
LINE
  5
276
100
AcDbEntity
  8
IMPORTED
  6
CONTINUOUS
 62
              30
100
AcDbLine
 10
-2070.37698505036
 20
86.999836708443439
 30
0.0
 11
-2082.4998850503603
 21
101.26203670844342
 31
0.0
  0
LINE
  5
277
100
AcDbEntity
  8
IMPORTED
  6
CONTINUOUS
 62
              30
100
AcDbLine
 10
-2032.8119850503604
 20
86.999836708443439
 30
0.0
 11
-2082.4998850503603
 21
145.45623670844341
 31
0.0
  0
LINE
  5
278
100
AcDbEntity
  8
IMPORTED
  6
CONTINUOUS
 62
              30
100
AcDbLine
 10
-1997.4998850503603
 20
89.650436708443436
 30
0.0
 11
-2082.4998850503603
 21
189.65043670844341
 31
0.0
  0
LINE
  5
279
100
AcDbEntity
  8
IMPORTED
  6
CONTINUOUS
 62
              30
100
AcDbLine
 10
-1997.4998850503603
 20
133.84453670844343
 30
0.0
 11
-2082.4998850503603
 21
233.8445367084434
 31
0.0
  0
LINE
  5
27A
100
AcDbEntity
  8
IMPORTED
  6
CONTINUOUS
 62
              30
100
AcDbLine
 10
-1997.4998850503603
 20
178.03873670844342
 30
0.0
 11
-2082.4998850503603
 21
278.03873670844342
 31
0.0
  0
LINE
  5
27B
100
AcDbEntity
  8
IMPORTED
  6
CONTINUOUS
 62
              30
100
AcDbLine
 10
-1997.4998850503603
 20
222.23283670844341
 30
0.0
 11
-2082.4998850503603
 21
322.23283670844341
 31
0.0
  0
LINE
  5
27C
100
AcDbEntity
  8
IMPORTED
  6
CONTINUOUS
 62
              30
100
AcDbLine
 10
-1997.4998850503603
 20
266.42703670844344
 30
0.0
 11
-2082.4998850503603
 21
366.42703670844338
 31
0.0
  0
LINE
  5
27D
100
AcDbEntity
  8
IMPORTED
  6
CONTINUOUS
 62
              30
100
AcDbLine
 10
-1997.4998850503603
 20
310.62113670844343
 30
0.0
 11
-2082.4998850503603
 21
410.62113670844337
 31
0.0
  0
LINE
  5
27E
100
AcDbEntity
  8
IMPORTED
  6
CONTINUOUS
 62
              30
100
AcDbLine
 10
-1997.4999850503602
 20
354.8153367084434
 30
0.0
 11
-2067.3566850503603
 21
436.99973670844338
 31
0.0
  0
LINE
  5
27F
100
AcDbEntity
  8
IMPORTED
  6
CONTINUOUS
 62
              30
100
AcDbLine
 10
-1997.4999850503602
 20
399.00953670844342
 30
0.0
 11
-2029.7916850503602
 21
436.99973670844338
 31
0.0
  0
LINE
  5
280
100
AcDbEntity
  8
IMPORTED
  6
CONTINUOUS
 62
              30
100
AcDbLine
 10
1547.5000149496393
 20
429.06773670844342
 30
0.0
 11
1554.2422149496394
 21
436.99973670844338
 31
0.0
  0
LINE
  5
281
100
AcDbEntity
  8
IMPORTED
  6
CONTINUOUS
 62
              30
100
AcDbLine
 10
1547.5000149496393
 20
384.8735367084434
 30
0.0
 11
1591.8073149496395
 21
436.99973670844338
 31
0.0
  0
LINE
  5
282
100
AcDbEntity
  8
IMPORTED
  6
CONTINUOUS
 62
              30
100
AcDbLine
 10
1547.5000149496393
 20
340.67933670844343
 30
0.0
 11
1629.3723149496393
 21
436.99973670844338
 31
0.0
  0
LINE
  5
283
100
AcDbEntity
  8
IMPORTED
  6
CONTINUOUS
 62
              30
100
AcDbLine
 10
1547.4999149496393
 20
296.48513670844341
 30
0.0
 11
1632.4999149496393
 21
396.48513670844341
 31
0.0
  0
LINE
  5
284
100
AcDbEntity
  8
IMPORTED
  6
CONTINUOUS
 62
              30
100
AcDbLine
 10
1547.4999149496393
 20
252.29103670844341
 30
0.0
 11
1632.4999149496393
 21
352.29103670844341
 31
0.0
  0
LINE
  5
285
100
AcDbEntity
  8
IMPORTED
  6
CONTINUOUS
 62
              30
100
AcDbLine
 10
1547.4999149496393
 20
208.09693670844342
 30
0.0
 11
1632.4999149496393
 21
308.09693670844342
 31
0.0
  0
LINE
  5
286
100
AcDbEntity
  8
IMPORTED
  6
CONTINUOUS
 62
              30
100
AcDbLine
 10
1547.4999149496393
 20
163.90273670844343
 30
0.0
 11
1632.4999149496393
 21
263.9027367084434
 31
0.0
  0
LINE
  5
287
100
AcDbEntity
  8
IMPORTED
  6
CONTINUOUS
 62
              30
100
AcDbLine
 10
1547.4999149496393
 20
119.70853670844343
 30
0.0
 11
1632.4999149496393
 21
219.70853670844343
 31
0.0
  0
LINE
  5
288
100
AcDbEntity
  8
IMPORTED
  6
CONTINUOUS
 62
              30
100
AcDbLine
 10
1557.2625149496394
 20
86.999836708443439
 30
0.0
 11
1632.4999149496393
 21
175.51443670844341
 31
0.0
  0
LINE
  5
289
100
AcDbEntity
  8
IMPORTED
  6
CONTINUOUS
 62
              30
100
AcDbLine
 10
1594.8276149496394
 20
86.999836708443439
 30
0.0
 11
1632.4999149496393
 21
131.32023670844342
 31
0.0
  0
LINE
  5
28A
100
AcDbEntity
  8
IMPORTED
  6
CONTINUOUS
 62
              30
100
AcDbLine
 10
1632.3926149496394
 20
86.999836708443439
 30
0.0
 11
1632.4999149496393
 21
87.126036708443422
 31
0.0
  0
LINE
  5
28B
100
AcDbEntity
  8
IMPORTED
  6
CONTINUOUS
 62
              30
100
AcDbLine
 10
1559.6228149496394
 20
86.999836708443439
 30
0.0
 11
1547.4999149496393
 21
101.26203670844342
 31
0.0
  0
LINE
  5
28C
100
AcDbEntity
  8
IMPORTED
  6
CONTINUOUS
 62
              30
100
AcDbLine
 10
1597.1878149496395
 20
86.999836708443439
 30
0.0
 11
1547.4999149496393
 21
145.45623670844341
 31
0.0
  0
LINE
  5
28D
100
AcDbEntity
  8
IMPORTED
  6
CONTINUOUS
 62
              30
100
AcDbLine
 10
1632.4999149496393
 20
89.650436708443436
 30
0.0
 11
1547.4999149496393
 21
189.65043670844341
 31
0.0
  0
LINE
  5
28E
100
AcDbEntity
  8
IMPORTED
  6
CONTINUOUS
 62
              30
100
AcDbLine
 10
1632.4999149496393
 20
133.84453670844343
 30
0.0
 11
1547.4999149496393
 21
233.8445367084434
 31
0.0
  0
LINE
  5
28F
100
AcDbEntity
  8
IMPORTED
  6
CONTINUOUS
 62
              30
100
AcDbLine
 10
1632.4999149496393
 20
178.03873670844342
 30
0.0
 11
1547.4999149496393
 21
278.03873670844342
 31
0.0
  0
LINE
  5
290
100
AcDbEntity
  8
IMPORTED
  6
CONTINUOUS
 62
              30
100
AcDbLine
 10
1632.4999149496393
 20
222.23283670844341
 30
0.0
 11
1547.4999149496393
 21
322.23283670844341
 31
0.0
  0
LINE
  5
291
100
AcDbEntity
  8
IMPORTED
  6
CONTINUOUS
 62
              30
100
AcDbLine
 10
1632.4999149496393
 20
266.42703670844344
 30
0.0
 11
1547.4999149496393
 21
366.42703670844338
 31
0.0
  0
LINE
  5
292
100
AcDbEntity
  8
IMPORTED
  6
CONTINUOUS
 62
              30
100
AcDbLine
 10
1632.4999149496393
 20
310.62113670844343
 30
0.0
 11
1547.4999149496393
 21
410.62113670844337
 31
0.0
  0
LINE
  5
293
100
AcDbEntity
  8
IMPORTED
  6
CONTINUOUS
 62
              30
100
AcDbLine
 10
1632.4998149496394
 20
354.8153367084434
 30
0.0
 11
1562.6431149496393
 21
436.99973670844338
 31
0.0
  0
LINE
  5
294
100
AcDbEntity
  8
IMPORTED
  6
CONTINUOUS
 62
              30
100
AcDbLine
 10
1632.4998149496394
 20
399.00953670844342
 30
0.0
 11
1600.2081149496394
 21
436.99973670844338
 31
0.0
  0
POLYLINE
  5
295
100
AcDbEntity
  8
IMPORTED
  6
STYLE_02
 62
              30
100
AcDb2dPolyline
 66
               1
 10
0.0
 20
0.0
 30
0.0
 70
             129
  0
VERTEX
  5
296
100
AcDbEntity
  8
IMPORTED
  6
STYLE_02
 62
              30
100
AcDbVertex
100
AcDb2dVertex
 10
-714.99988505036026
 20
-1284.9999632915565
 30
0.0
  0
VERTEX
  5
297
100
AcDbEntity
  8
IMPORTED
  6
STYLE_02
 62
              30
100
AcDbVertex
100
AcDb2dVertex
 10
-364.99988505036038
 20
-1284.9999632915565
 30
0.0
  0
VERTEX
  5
298
100
AcDbEntity
  8
IMPORTED
  6
STYLE_02
 62
              30
100
AcDbVertex
100
AcDb2dVertex
 10
-364.99988505036038
 20
-1634.9999632915565
 30
0.0
  0
VERTEX
  5
299
100
AcDbEntity
  8
IMPORTED
  6
STYLE_02
 62
              30
100
AcDbVertex
100
AcDb2dVertex
 10
-714.99988505036026
 20
-1634.9999632915565
 30
0.0
  0
VERTEX
  5
29A
100
AcDbEntity
  8
IMPORTED
  6
STYLE_02
 62
              30
100
AcDbVertex
100
AcDb2dVertex
 10
-714.99988505036026
 20
-1284.9999632915565
 30
0.0
  0
VERTEX
  5
29B
100
AcDbEntity
  8
IMPORTED
  6
STYLE_02
 62
              30
100
AcDbVertex
100
AcDb2dVertex
 10
-714.99988505036026
 20
-1284.9999632915565
 30
0.0
  0
SEQEND
  5
29C
100
AcDbEntity
  8
IMPORTED
  6
STYLE_02
 62
              30
  0
POLYLINE
  5
29D
100
AcDbEntity
  8
IMPORTED
  6
STYLE_02
 62
              30
100
AcDb2dPolyline
 66
               1
 10
0.0
 20
0.0
 30
0.0
 70
             129
  0
VERTEX
  5
29E
100
AcDbEntity
  8
IMPORTED
  6
STYLE_02
 62
              30
100
AcDbVertex
100
AcDb2dVertex
 10
-764.99988505036026
 20
-1234.9999632915565
 30
0.0
  0
VERTEX
  5
29F
100
AcDbEntity
  8
IMPORTED
  6
STYLE_02
 62
              30
100
AcDbVertex
100
AcDb2dVertex
 10
-314.99988505036038
 20
-1234.9999632915565
 30
0.0
  0
VERTEX
  5
2A0
100
AcDbEntity
  8
IMPORTED
  6
STYLE_02
 62
              30
100
AcDbVertex
100
AcDb2dVertex
 10
-314.99988505036038
 20
-1684.9999632915565
 30
0.0
  0
VERTEX
  5
2A1
100
AcDbEntity
  8
IMPORTED
  6
STYLE_02
 62
              30
100
AcDbVertex
100
AcDb2dVertex
 10
-764.99988505036026
 20
-1684.9999632915565
 30
0.0
  0
VERTEX
  5
2A2
100
AcDbEntity
  8
IMPORTED
  6
STYLE_02
 62
              30
100
AcDbVertex
100
AcDb2dVertex
 10
-764.99988505036026
 20
-1234.9999632915565
 30
0.0
  0
VERTEX
  5
2A3
100
AcDbEntity
  8
IMPORTED
  6
STYLE_02
 62
              30
100
AcDbVertex
100
AcDb2dVertex
 10
-764.99988505036026
 20
-1234.9999632915565
 30
0.0
  0
SEQEND
  5
2A4
100
AcDbEntity
  8
IMPORTED
  6
STYLE_02
 62
              30
  0
POLYLINE
  5
2A5
100
AcDbEntity
  8
IMPORTED
  6
CONTINUOUS
 62
              30
100
AcDb2dPolyline
 66
               1
 10
0.0
 20
0.0
 30
0.0
 70
             129
  0
VERTEX
  5
2A6
100
AcDbEntity
  8
IMPORTED
  6
CONTINUOUS
 62
              30
100
AcDbVertex
100
AcDb2dVertex
 10
-2103.0998850503602
 20
1070.9999367084433
 30
0.0
 42
-0.414213562373095
 70
               2
 50
3.1191399769264294E+17
  0
VERTEX
  5
2A7
100
AcDbEntity
  8
IMPORTED
  6
CONTINUOUS
 62
              30
100
AcDbVertex
100
AcDb2dVertex
 10
-2119.0998850503602
 20
1086.9999367084433
 30
0.0
 42
-0.414213562373095
 70
               2
  0
VERTEX
  5
2A8
100
AcDbEntity
  8
IMPORTED
  6
CONTINUOUS
 62
              30
100
AcDbVertex
100
AcDb2dVertex
 10
-2103.0998850503602
 20
1102.9999367084433
 30
0.0
  0
VERTEX
  5
2A9
100
AcDbEntity
  8
IMPORTED
  6
CONTINUOUS
 62
              30
100
AcDbVertex
100
AcDb2dVertex
 10
-2103.0998850503602
 20
1102.9999367084433
 30
0.0
 42
-0.2680316608241996
 70
               2
 50
9.3574199307792870E+17
  0
VERTEX
  5
2AA
100
AcDbEntity
  8
IMPORTED
  6
CONTINUOUS
 62
              30
100
AcDbVertex
100
AcDb2dVertex
 10
-2089.2484015958798
 20
1094.9999367084433
 30
0.0
  0
VERTEX
  5
2AB
100
AcDbEntity
  8
IMPORTED
  6
CONTINUOUS
 62
              30
100
AcDbVertex
100
AcDb2dVertex
 10
-2085.0998850503602
 20
1094.9999367084433
 30
0.0
  0
VERTEX
  5
2AC
100
AcDbEntity
  8
IMPORTED
  6
CONTINUOUS
 62
              30
100
AcDbVertex
100
AcDb2dVertex
 10
-2085.0998850503602
 20
1094.9999367084433
 30
0.0
 42
-0.414213562373095
 70
               2
 50
1.8714839861558573E+17
  0
VERTEX
  5
2AD
100
AcDbEntity
  8
IMPORTED
  6
CONTINUOUS
 62
              30
100
AcDbVertex
100
AcDb2dVertex
 10
-2084.0998850503602
 20
1093.9999367084433
 30
0.0
  0
VERTEX
  5
2AE
100
AcDbEntity
  8
IMPORTED
  6
CONTINUOUS
 62
              30
100
AcDbVertex
100
AcDb2dVertex
 10
-2084.0998850503602
 20
1086.9999367084433
 30
0.0
  0
VERTEX
  5
2AF
100
AcDbEntity
  8
IMPORTED
  6
CONTINUOUS
 62
              30
100
AcDbVertex
100
AcDb2dVertex
 10
-2084.0998850503602
 20
1079.9999367084433
 30
0.0
  0
VERTEX
  5
2B0
100
AcDbEntity
  8
IMPORTED
  6
CONTINUOUS
 62
              30
100
AcDbVertex
100
AcDb2dVertex
 10
-2084.0998850503602
 20
1079.9999367084433
 30
0.0
 42
-0.414213562373095
 70
               2
  0
VERTEX
  5
2B1
100
AcDbEntity
  8
IMPORTED
  6
CONTINUOUS
 62
              30
100
AcDbVertex
100
AcDb2dVertex
 10
-2085.0998850503602
 20
1078.9999367084433
 30
0.0
  0
VERTEX
  5
2B2
100
AcDbEntity
  8
IMPORTED
  6
CONTINUOUS
 62
              30
100
AcDbVertex
100
AcDb2dVertex
 10
-2089.2484015958798
 20
1078.9999367084433
 30
0.0
  0
VERTEX
  5
2B3
100
AcDbEntity
  8
IMPORTED
  6
CONTINUOUS
 62
              30
100
AcDbVertex
100
AcDb2dVertex
 10
-2089.2484015958798
 20
1078.9999367084433
 30
0.0
 42
-0.2680316608241996
 70
               2
 50
-33.056226014222247
  0
VERTEX
  5
2B4
100
AcDbEntity
  8
IMPORTED
  6
CONTINUOUS
 62
              30
100
AcDbVertex
100
AcDb2dVertex
 10
-2103.0998850503602
 20
1070.9999367084433
 30
0.0
  0
SEQEND
  5
2B5
100
AcDbEntity
  8
IMPORTED
  6
CONTINUOUS
 62
              30
  0
POLYLINE
  5
2B6
100
AcDbEntity
  8
IMPORTED
  6
CONTINUOUS
 62
              30
100
AcDb2dPolyline
 66
               1
 10
0.0
 20
0.0
 30
0.0
 70
             129
  0
VERTEX
  5
2B7
100
AcDbEntity
  8
IMPORTED
  6
CONTINUOUS
 62
              30
100
AcDbVertex
100
AcDb2dVertex
 10
-2113.0998850503602
 20
1086.9999367084433
 30
0.0
 42
0.414213562373095
 70
               2
  0
VERTEX
  5
2B8
100
AcDbEntity
  8
IMPORTED
  6
CONTINUOUS
 62
              30
100
AcDbVertex
100
AcDb2dVertex
 10
-2103.0998850503602
 20
1076.9999367084433
 30
0.0
  0
VERTEX
  5
2B9
100
AcDbEntity
  8
IMPORTED
  6
CONTINUOUS
 62
              30
100
AcDbVertex
100
AcDb2dVertex
 10
-2103.0998850503602
 20
1076.9999367084433
 30
0.0
 42
0.414213562373095
 70
               2
 50
3.1191399769264294E+17
  0
VERTEX
  5
2BA
100
AcDbEntity
  8
IMPORTED
  6
CONTINUOUS
 62
              30
100
AcDbVertex
100
AcDb2dVertex
 10
-2093.0998850503602
 20
1086.9999367084433
 30
0.0
  0
VERTEX
  5
2BB
100
AcDbEntity
  8
IMPORTED
  6
CONTINUOUS
 62
              30
100
AcDbVertex
100
AcDb2dVertex
 10
-2093.0998850503602
 20
1086.9999367084433
 30
0.0
 42
0.414213562373095
 70
               2
  0
VERTEX
  5
2BC
100
AcDbEntity
  8
IMPORTED
  6
CONTINUOUS
 62
              30
100
AcDbVertex
100
AcDb2dVertex
 10
-2103.0998850503602
 20
1096.9999367084433
 30
0.0
  0
VERTEX
  5
2BD
100
AcDbEntity
  8
IMPORTED
  6
CONTINUOUS
 62
              30
100
AcDbVertex
100
AcDb2dVertex
 10
-2103.0998850503602
 20
1096.9999367084433
 30
0.0
 42
0.414213562373095
 70
               2
 50
9.3574199307792870E+17
  0
VERTEX
  5
2BE
100
AcDbEntity
  8
IMPORTED
  6
CONTINUOUS
 62
              30
100
AcDbVertex
100
AcDb2dVertex
 10
-2113.0998850503602
 20
1086.9999367084433
 30
0.0
  0
SEQEND
  5
2BF
100
AcDbEntity
  8
IMPORTED
  6
CONTINUOUS
 62
              30
  0
POLYLINE
  5
2C0
100
AcDbEntity
  8
IMPORTED
  6
STYLE_05
 62
              30
100
AcDb2dPolyline
 66
               1
 10
0.0
 20
0.0
 30
0.0
 70
               1
 75
               5
  0
VERTEX
  5
2C1
100
AcDbEntity
  8
IMPORTED
  6
STYLE_05
 62
              30
100
AcDbVertex
100
AcDb2dVertex
 10
-2084.0998850503602
 20
1090.9999367084433
 30
0.0
  0
VERTEX
  5
2C2
100
AcDbEntity
  8
IMPORTED
  6
STYLE_05
 62
              30
100
AcDbVertex
100
AcDb2dVertex
 10
-2068.0998850503602
 20
1090.9999367084433
 30
0.0
  0
VERTEX
  5
2C3
100
AcDbEntity
  8
IMPORTED
  6
STYLE_05
 62
              30
100
AcDbVertex
100
AcDb2dVertex
 10
-2068.0998850503602
 20
1082.9999367084433
 30
0.0
  0
VERTEX
  5
2C4
100
AcDbEntity
  8
IMPORTED
  6
STYLE_05
 62
              30
100
AcDbVertex
100
AcDb2dVertex
 10
-2084.0998850503602
 20
1082.9999367084433
 30
0.0
  0
SEQEND
  5
2C5
100
AcDbEntity
  8
IMPORTED
  6
STYLE_05
 62
              30
  0
LINE
  5
2C7
100
AcDbEntity
  8
IMPORTED
  6
STYLE_05
 62
              30
100
AcDbLine
 10
-2082.0998850503602
 20
1082.9999367084433
 30
0.0
 11
-2082.0998850503602
 21
1090.9999367084433
 31
0.0
  0
LINE
  5
2C8
100
AcDbEntity
  8
IMPORTED
  6
STYLE_05
 62
              30
100
AcDbLine
 10
-2080.0998850503602
 20
1082.9999367084433
 30
0.0
 11
-2080.0998850503602
 21
1090.9999367084433
 31
0.0
  0
LINE
  5
2C9
100
AcDbEntity
  8
IMPORTED
  6
STYLE_05
 62
              30
100
AcDbLine
 10
-2078.0998850503602
 20
1082.9999367084433
 30
0.0
 11
-2078.0998850503602
 21
1090.9999367084433
 31
0.0
  0
LINE
  5
2CA
100
AcDbEntity
  8
IMPORTED
  6
STYLE_05
 62
              30
100
AcDbLine
 10
-2076.0998850503602
 20
1082.9999367084433
 30
0.0
 11
-2076.0998850503602
 21
1090.9999367084433
 31
0.0
  0
LINE
  5
2CB
100
AcDbEntity
  8
IMPORTED
  6
STYLE_05
 62
              30
100
AcDbLine
 10
-2074.0998850503602
 20
1082.9999367084433
 30
0.0
 11
-2074.0998850503602
 21
1090.9999367084433
 31
0.0
  0
LINE
  5
2CC
100
AcDbEntity
  8
IMPORTED
  6
STYLE_05
 62
              30
100
AcDbLine
 10
-2072.0998850503602
 20
1082.9999367084433
 30
0.0
 11
-2072.0998850503602
 21
1090.9999367084433
 31
0.0
  0
LINE
  5
2CD
100
AcDbEntity
  8
IMPORTED
  6
STYLE_05
 62
              30
100
AcDbLine
 10
-2070.0998850503602
 20
1082.9999367084433
 30
0.0
 11
-2070.0998850503602
 21
1090.9999367084433
 31
0.0
  0
POLYLINE
  5
2CE
100
AcDbEntity
  8
IMPORTED
  6
CONTINUOUS
 62
              30
100
AcDb2dPolyline
 66
               1
 10
0.0
 20
0.0
 30
0.0
 70
             129
  0
VERTEX
  5
2CF
100
AcDbEntity
  8
IMPORTED
  6
CONTINUOUS
 62
              30
100
AcDbVertex
100
AcDb2dVertex
 10
-2084.0998850503602
 20
1102.9999367084433
 30
0.0
  0
VERTEX
  5
2D0
100
AcDbEntity
  8
IMPORTED
  6
CONTINUOUS
 62
              30
100
AcDbVertex
100
AcDb2dVertex
 10
-2082.4998850503603
 20
1102.9999367084433
 30
0.0
  0
VERTEX
  5
2D1
100
AcDbEntity
  8
IMPORTED
  6
CONTINUOUS
 62
              30
100
AcDbVertex
100
AcDb2dVertex
 10
-2082.4998850503603
 20
1070.9999367084433
 30
0.0
  0
VERTEX
  5
2D2
100
AcDbEntity
  8
IMPORTED
  6
CONTINUOUS
 62
              30
100
AcDbVertex
100
AcDb2dVertex
 10
-2084.0998850503602
 20
1070.9999367084433
 30
0.0
  0
VERTEX
  5
2D3
100
AcDbEntity
  8
IMPORTED
  6
CONTINUOUS
 62
              30
100
AcDbVertex
100
AcDb2dVertex
 10
-2084.0998850503602
 20
1102.9999367084433
 30
0.0
  0
SEQEND
  5
2D4
100
AcDbEntity
  8
IMPORTED
  6
CONTINUOUS
 62
              30
  0
POLYLINE
  5
2D5
100
AcDbEntity
  8
IMPORTED
  6
STYLE_05
 62
              30
100
AcDb2dPolyline
 66
               1
 10
0.0
 20
0.0
 30
0.0
 70
               1
 75
               5
  0
VERTEX
  5
2D6
100
AcDbEntity
  8
IMPORTED
  6
STYLE_05
 62
              30
100
AcDbVertex
100
AcDb2dVertex
 10
-2077.4998850503603
 20
1101.9999999999998
 30
0.0
  0
VERTEX
  5
2D7
100
AcDbEntity
  8
IMPORTED
  6
STYLE_05
 62
              30
100
AcDbVertex
100
AcDb2dVertex
 10
-2072.0998850503602
 20
1101.9999999999998
 30
0.0
  0
VERTEX
  5
2D8
100
AcDbEntity
  8
IMPORTED
  6
STYLE_05
 62
              30
100
AcDbVertex
100
AcDb2dVertex
 10
-2072.0998850503602
 20
1070.9999999999998
 30
0.0
  0
VERTEX
  5
2D9
100
AcDbEntity
  8
IMPORTED
  6
STYLE_05
 62
              30
100
AcDbVertex
100
AcDb2dVertex
 10
-2077.4998850503603
 20
1070.9999999999998
 30
0.0
  0
SEQEND
  5
2DA
100
AcDbEntity
  8
IMPORTED
  6
STYLE_05
 62
              30
  0
POLYLINE
  5
2DC
100
AcDbEntity
  8
IMPORTED
  6
CONTINUOUS
 62
              30
100
AcDb2dPolyline
 66
               1
 10
0.0
 20
0.0
 30
0.0
 70
             129
  0
VERTEX
  5
2DD
100
AcDbEntity
  8
IMPORTED
  6
CONTINUOUS
 62
              30
100
AcDbVertex
100
AcDb2dVertex
 10
-1976.8998850503604
 20
1070.9999367084433
 30
0.0
 42
0.414213562373095
 70
               2
 50
3.1191399769264294E+17
  0
VERTEX
  5
2DE
100
AcDbEntity
  8
IMPORTED
  6
CONTINUOUS
 62
              30
100
AcDbVertex
100
AcDb2dVertex
 10
-1960.8998850503604
 20
1086.9999367084433
 30
0.0
 42
0.414213562373095
 70
               2
  0
VERTEX
  5
2DF
100
AcDbEntity
  8
IMPORTED
  6
CONTINUOUS
 62
              30
100
AcDbVertex
100
AcDb2dVertex
 10
-1976.8998850503604
 20
1102.9999367084433
 30
0.0
  0
VERTEX
  5
2E0
100
AcDbEntity
  8
IMPORTED
  6
CONTINUOUS
 62
              30
100
AcDbVertex
100
AcDb2dVertex
 10
-1976.8998850503604
 20
1102.9999367084433
 30
0.0
 42
0.2680316608241996
 70
               2
 50
9.3574199307792870E+17
  0
VERTEX
  5
2E1
100
AcDbEntity
  8
IMPORTED
  6
CONTINUOUS
 62
              30
100
AcDbVertex
100
AcDb2dVertex
 10
-1990.7513685048407
 20
1094.9999367084433
 30
0.0
  0
VERTEX
  5
2E2
100
AcDbEntity
  8
IMPORTED
  6
CONTINUOUS
 62
              30
100
AcDbVertex
100
AcDb2dVertex
 10
-1994.8998850503604
 20
1094.9999367084433
 30
0.0
  0
VERTEX
  5
2E3
100
AcDbEntity
  8
IMPORTED
  6
CONTINUOUS
 62
              30
100
AcDbVertex
100
AcDb2dVertex
 10
-1994.8998850503604
 20
1094.9999367084433
 30
0.0
 42
0.414213562373095
 70
               2
 50
9.3574199307792870E+17
  0
VERTEX
  5
2E4
100
AcDbEntity
  8
IMPORTED
  6
CONTINUOUS
 62
              30
100
AcDbVertex
100
AcDb2dVertex
 10
-1995.8998850503604
 20
1093.9999367084433
 30
0.0
  0
VERTEX
  5
2E5
100
AcDbEntity
  8
IMPORTED
  6
CONTINUOUS
 62
              30
100
AcDbVertex
100
AcDb2dVertex
 10
-1995.8998850503604
 20
1086.9999367084433
 30
0.0
  0
VERTEX
  5
2E6
100
AcDbEntity
  8
IMPORTED
  6
CONTINUOUS
 62
              30
100
AcDbVertex
100
AcDb2dVertex
 10
-1995.8998850503604
 20
1079.9999367084433
 30
0.0
  0
VERTEX
  5
2E7
100
AcDbEntity
  8
IMPORTED
  6
CONTINUOUS
 62
              30
100
AcDbVertex
100
AcDb2dVertex
 10
-1995.8998850503604
 20
1079.9999367084433
 30
0.0
 42
0.414213562373095
 70
               2
  0
VERTEX
  5
2E8
100
AcDbEntity
  8
IMPORTED
  6
CONTINUOUS
 62
              30
100
AcDbVertex
100
AcDb2dVertex
 10
-1994.8998850503604
 20
1078.9999367084433
 30
0.0
  0
VERTEX
  5
2E9
100
AcDbEntity
  8
IMPORTED
  6
CONTINUOUS
 62
              30
100
AcDbVertex
100
AcDb2dVertex
 10
-1990.7513685048407
 20
1078.9999367084433
 30
0.0
  0
VERTEX
  5
2EA
100
AcDbEntity
  8
IMPORTED
  6
CONTINUOUS
 62
              30
100
AcDbVertex
100
AcDb2dVertex
 10
-1990.7513685048407
 20
1078.9999367084433
 30
0.0
 42
0.2680316608241996
 70
               2
 50
33.056226014222183
  0
VERTEX
  5
2EB
100
AcDbEntity
  8
IMPORTED
  6
CONTINUOUS
 62
              30
100
AcDbVertex
100
AcDb2dVertex
 10
-1976.8998850503604
 20
1070.9999367084433
 30
0.0
  0
SEQEND
  5
2EC
100
AcDbEntity
  8
IMPORTED
  6
CONTINUOUS
 62
              30
  0
POLYLINE
  5
2ED
100
AcDbEntity
  8
IMPORTED
  6
CONTINUOUS
 62
              30
100
AcDb2dPolyline
 66
               1
 10
0.0
 20
0.0
 30
0.0
 70
             129
  0
VERTEX
  5
2EE
100
AcDbEntity
  8
IMPORTED
  6
CONTINUOUS
 62
              30
100
AcDbVertex
100
AcDb2dVertex
 10
-1966.8998850503604
 20
1086.9999367084433
 30
0.0
 42
-0.414213562373095
 70
               2
  0
VERTEX
  5
2EF
100
AcDbEntity
  8
IMPORTED
  6
CONTINUOUS
 62
              30
100
AcDbVertex
100
AcDb2dVertex
 10
-1976.8998850503604
 20
1076.9999367084433
 30
0.0
  0
VERTEX
  5
2F0
100
AcDbEntity
  8
IMPORTED
  6
CONTINUOUS
 62
              30
100
AcDbVertex
100
AcDb2dVertex
 10
-1976.8998850503604
 20
1076.9999367084433
 30
0.0
 42
-0.414213562373095
 70
               2
 50
3.1191399769264294E+17
  0
VERTEX
  5
2F1
100
AcDbEntity
  8
IMPORTED
  6
CONTINUOUS
 62
              30
100
AcDbVertex
100
AcDb2dVertex
 10
-1986.8998850503604
 20
1086.9999367084433
 30
0.0
  0
VERTEX
  5
2F2
100
AcDbEntity
  8
IMPORTED
  6
CONTINUOUS
 62
              30
100
AcDbVertex
100
AcDb2dVertex
 10
-1986.8998850503604
 20
1086.9999367084433
 30
0.0
 42
-0.414213562373095
 70
               2
  0
VERTEX
  5
2F3
100
AcDbEntity
  8
IMPORTED
  6
CONTINUOUS
 62
              30
100
AcDbVertex
100
AcDb2dVertex
 10
-1976.8998850503604
 20
1096.9999367084433
 30
0.0
  0
VERTEX
  5
2F4
100
AcDbEntity
  8
IMPORTED
  6
CONTINUOUS
 62
              30
100
AcDbVertex
100
AcDb2dVertex
 10
-1976.8998850503604
 20
1096.9999367084433
 30
0.0
 42
-0.414213562373095
 70
               2
 50
1.8714839861558573E+17
  0
VERTEX
  5
2F5
100
AcDbEntity
  8
IMPORTED
  6
CONTINUOUS
 62
              30
100
AcDbVertex
100
AcDb2dVertex
 10
-1966.8998850503604
 20
1086.9999367084433
 30
0.0
  0
SEQEND
  5
2F6
100
AcDbEntity
  8
IMPORTED
  6
CONTINUOUS
 62
              30
  0
POLYLINE
  5
2F7
100
AcDbEntity
  8
IMPORTED
  6
STYLE_05
 62
              30
100
AcDb2dPolyline
 66
               1
 10
0.0
 20
0.0
 30
0.0
 70
               1
 75
               5
  0
VERTEX
  5
2F8
100
AcDbEntity
  8
IMPORTED
  6
STYLE_05
 62
              30
100
AcDbVertex
100
AcDb2dVertex
 10
-2011.8998850503604
 20
1090.9999367084433
 30
0.0
  0
VERTEX
  5
2F9
100
AcDbEntity
  8
IMPORTED
  6
STYLE_05
 62
              30
100
AcDbVertex
100
AcDb2dVertex
 10
-1995.8998850503604
 20
1090.9999367084433
 30
0.0
  0
VERTEX
  5
2FA
100
AcDbEntity
  8
IMPORTED
  6
STYLE_05
 62
              30
100
AcDbVertex
100
AcDb2dVertex
 10
-1995.8998850503604
 20
1082.9999367084433
 30
0.0
  0
VERTEX
  5
2FB
100
AcDbEntity
  8
IMPORTED
  6
STYLE_05
 62
              30
100
AcDbVertex
100
AcDb2dVertex
 10
-2011.8998850503604
 20
1082.9999367084433
 30
0.0
  0
SEQEND
  5
2FC
100
AcDbEntity
  8
IMPORTED
  6
STYLE_05
 62
              30
  0
LINE
  5
2FE
100
AcDbEntity
  8
IMPORTED
  6
STYLE_05
 62
              30
100
AcDbLine
 10
-1997.8998850503604
 20
1082.9999367084433
 30
0.0
 11
-1997.8998850503604
 21
1090.9999367084433
 31
0.0
  0
LINE
  5
2FF
100
AcDbEntity
  8
IMPORTED
  6
STYLE_05
 62
              30
100
AcDbLine
 10
-1999.8998850503604
 20
1082.9999367084433
 30
0.0
 11
-1999.8998850503604
 21
1090.9999367084433
 31
0.0
  0
LINE
  5
300
100
AcDbEntity
  8
IMPORTED
  6
STYLE_05
 62
              30
100
AcDbLine
 10
-2001.8998850503604
 20
1082.9999367084433
 30
0.0
 11
-2001.8998850503604
 21
1090.9999367084433
 31
0.0
  0
LINE
  5
301
100
AcDbEntity
  8
IMPORTED
  6
STYLE_05
 62
              30
100
AcDbLine
 10
-2003.8998850503604
 20
1082.9999367084433
 30
0.0
 11
-2003.8998850503604
 21
1090.9999367084433
 31
0.0
  0
LINE
  5
302
100
AcDbEntity
  8
IMPORTED
  6
STYLE_05
 62
              30
100
AcDbLine
 10
-2005.8998850503604
 20
1082.9999367084433
 30
0.0
 11
-2005.8998850503604
 21
1090.9999367084433
 31
0.0
  0
LINE
  5
303
100
AcDbEntity
  8
IMPORTED
  6
STYLE_05
 62
              30
100
AcDbLine
 10
-2007.8998850503604
 20
1082.9999367084433
 30
0.0
 11
-2007.8998850503604
 21
1090.9999367084433
 31
0.0
  0
LINE
  5
304
100
AcDbEntity
  8
IMPORTED
  6
STYLE_05
 62
              30
100
AcDbLine
 10
-2009.8998850503604
 20
1082.9999367084433
 30
0.0
 11
-2009.8998850503604
 21
1090.9999367084433
 31
0.0
  0
POLYLINE
  5
305
100
AcDbEntity
  8
IMPORTED
  6
CONTINUOUS
 62
              30
100
AcDb2dPolyline
 66
               1
 10
0.0
 20
0.0
 30
0.0
 70
             129
  0
VERTEX
  5
306
100
AcDbEntity
  8
IMPORTED
  6
CONTINUOUS
 62
              30
100
AcDbVertex
100
AcDb2dVertex
 10
-1995.8998850503604
 20
1102.9999367084433
 30
0.0
  0
VERTEX
  5
307
100
AcDbEntity
  8
IMPORTED
  6
CONTINUOUS
 62
              30
100
AcDbVertex
100
AcDb2dVertex
 10
-1997.4998850503603
 20
1102.9999367084433
 30
0.0
  0
VERTEX
  5
308
100
AcDbEntity
  8
IMPORTED
  6
CONTINUOUS
 62
              30
100
AcDbVertex
100
AcDb2dVertex
 10
-1997.4998850503603
 20
1070.9999367084433
 30
0.0
  0
VERTEX
  5
309
100
AcDbEntity
  8
IMPORTED
  6
CONTINUOUS
 62
              30
100
AcDbVertex
100
AcDb2dVertex
 10
-1995.8998850503604
 20
1070.9999367084433
 30
0.0
  0
VERTEX
  5
30A
100
AcDbEntity
  8
IMPORTED
  6
CONTINUOUS
 62
              30
100
AcDbVertex
100
AcDb2dVertex
 10
-1995.8998850503604
 20
1102.9999367084433
 30
0.0
  0
SEQEND
  5
30B
100
AcDbEntity
  8
IMPORTED
  6
CONTINUOUS
 62
              30
  0
POLYLINE
  5
30C
100
AcDbEntity
  8
IMPORTED
  6
STYLE_05
 62
              30
100
AcDb2dPolyline
 66
               1
 10
0.0
 20
0.0
 30
0.0
 70
               1
 75
               5
  0
VERTEX
  5
30D
100
AcDbEntity
  8
IMPORTED
  6
STYLE_05
 62
              30
100
AcDbVertex
100
AcDb2dVertex
 10
-2007.8998850503604
 20
1101.9999999999998
 30
0.0
  0
VERTEX
  5
30E
100
AcDbEntity
  8
IMPORTED
  6
STYLE_05
 62
              30
100
AcDbVertex
100
AcDb2dVertex
 10
-2002.4998850503603
 20
1101.9999999999998
 30
0.0
  0
VERTEX
  5
30F
100
AcDbEntity
  8
IMPORTED
  6
STYLE_05
 62
              30
100
AcDbVertex
100
AcDb2dVertex
 10
-2002.4998850503603
 20
1070.9999999999998
 30
0.0
  0
VERTEX
  5
310
100
AcDbEntity
  8
IMPORTED
  6
STYLE_05
 62
              30
100
AcDbVertex
100
AcDb2dVertex
 10
-2007.8998850503604
 20
1070.9999999999998
 30
0.0
  0
SEQEND
  5
311
100
AcDbEntity
  8
IMPORTED
  6
STYLE_05
 62
              30
  0
POLYLINE
  5
313
100
AcDbEntity
  8
IMPORTED
  6
CONTINUOUS
 62
              30
100
AcDb2dPolyline
 66
               1
 10
0.0
 20
0.0
 30
0.0
 70
             129
  0
VERTEX
  5
314
100
AcDbEntity
  8
IMPORTED
  6
CONTINUOUS
 62
              30
100
AcDbVertex
100
AcDb2dVertex
 10
-603.09988505036006
 20
1070.9999367084433
 30
0.0
 42
-0.414213562373095
 70
               2
 50
3.1191399769264294E+17
  0
VERTEX
  5
315
100
AcDbEntity
  8
IMPORTED
  6
CONTINUOUS
 62
              30
100
AcDbVertex
100
AcDb2dVertex
 10
-619.09988505036006
 20
1086.9999367084433
 30
0.0
 42
-0.414213562373095
 70
               2
  0
VERTEX
  5
316
100
AcDbEntity
  8
IMPORTED
  6
CONTINUOUS
 62
              30
100
AcDbVertex
100
AcDb2dVertex
 10
-603.09988505036006
 20
1102.9999367084433
 30
0.0
  0
VERTEX
  5
317
100
AcDbEntity
  8
IMPORTED
  6
CONTINUOUS
 62
              30
100
AcDbVertex
100
AcDb2dVertex
 10
-603.09988505036006
 20
1102.9999367084433
 30
0.0
 42
-0.2680316608241996
 70
               2
 50
9.3574199307792870E+17
  0
VERTEX
  5
318
100
AcDbEntity
  8
IMPORTED
  6
CONTINUOUS
 62
              30
100
AcDbVertex
100
AcDb2dVertex
 10
-589.24840159587973
 20
1094.9999367084433
 30
0.0
  0
VERTEX
  5
319
100
AcDbEntity
  8
IMPORTED
  6
CONTINUOUS
 62
              30
100
AcDbVertex
100
AcDb2dVertex
 10
-585.09988505036006
 20
1094.9999367084433
 30
0.0
  0
VERTEX
  5
31A
100
AcDbEntity
  8
IMPORTED
  6
CONTINUOUS
 62
              30
100
AcDbVertex
100
AcDb2dVertex
 10
-585.09988505036006
 20
1094.9999367084433
 30
0.0
 42
-0.414213562373095
 70
               2
 50
1.8714839861558573E+17
  0
VERTEX
  5
31B
100
AcDbEntity
  8
IMPORTED
  6
CONTINUOUS
 62
              30
100
AcDbVertex
100
AcDb2dVertex
 10
-584.09988505036006
 20
1093.9999367084433
 30
0.0
  0
VERTEX
  5
31C
100
AcDbEntity
  8
IMPORTED
  6
CONTINUOUS
 62
              30
100
AcDbVertex
100
AcDb2dVertex
 10
-584.09988505036006
 20
1086.9999367084433
 30
0.0
  0
VERTEX
  5
31D
100
AcDbEntity
  8
IMPORTED
  6
CONTINUOUS
 62
              30
100
AcDbVertex
100
AcDb2dVertex
 10
-584.09988505036006
 20
1079.9999367084433
 30
0.0
  0
VERTEX
  5
31E
100
AcDbEntity
  8
IMPORTED
  6
CONTINUOUS
 62
              30
100
AcDbVertex
100
AcDb2dVertex
 10
-584.09988505036006
 20
1079.9999367084433
 30
0.0
 42
-0.414213562373095
 70
               2
  0
VERTEX
  5
31F
100
AcDbEntity
  8
IMPORTED
  6
CONTINUOUS
 62
              30
100
AcDbVertex
100
AcDb2dVertex
 10
-585.09988505036006
 20
1078.9999367084433
 30
0.0
  0
VERTEX
  5
320
100
AcDbEntity
  8
IMPORTED
  6
CONTINUOUS
 62
              30
100
AcDbVertex
100
AcDb2dVertex
 10
-589.24840159587973
 20
1078.9999367084433
 30
0.0
  0
VERTEX
  5
321
100
AcDbEntity
  8
IMPORTED
  6
CONTINUOUS
 62
              30
100
AcDbVertex
100
AcDb2dVertex
 10
-589.24840159587973
 20
1078.9999367084433
 30
0.0
 42
-0.2680316608241996
 70
               2
 50
-33.056226014222247
  0
VERTEX
  5
322
100
AcDbEntity
  8
IMPORTED
  6
CONTINUOUS
 62
              30
100
AcDbVertex
100
AcDb2dVertex
 10
-603.09988505036006
 20
1070.9999367084433
 30
0.0
  0
SEQEND
  5
323
100
AcDbEntity
  8
IMPORTED
  6
CONTINUOUS
 62
              30
  0
POLYLINE
  5
324
100
AcDbEntity
  8
IMPORTED
  6
CONTINUOUS
 62
              30
100
AcDb2dPolyline
 66
               1
 10
0.0
 20
0.0
 30
0.0
 70
             129
  0
VERTEX
  5
325
100
AcDbEntity
  8
IMPORTED
  6
CONTINUOUS
 62
              30
100
AcDbVertex
100
AcDb2dVertex
 10
-613.09988505036006
 20
1086.9999367084433
 30
0.0
 42
0.414213562373095
 70
               2
  0
VERTEX
  5
326
100
AcDbEntity
  8
IMPORTED
  6
CONTINUOUS
 62
              30
100
AcDbVertex
100
AcDb2dVertex
 10
-603.09988505036006
 20
1076.9999367084433
 30
0.0
  0
VERTEX
  5
327
100
AcDbEntity
  8
IMPORTED
  6
CONTINUOUS
 62
              30
100
AcDbVertex
100
AcDb2dVertex
 10
-603.09988505036006
 20
1076.9999367084433
 30
0.0
 42
0.414213562373095
 70
               2
 50
3.1191399769264294E+17
  0
VERTEX
  5
328
100
AcDbEntity
  8
IMPORTED
  6
CONTINUOUS
 62
              30
100
AcDbVertex
100
AcDb2dVertex
 10
-593.09988505036006
 20
1086.9999367084433
 30
0.0
  0
VERTEX
  5
329
100
AcDbEntity
  8
IMPORTED
  6
CONTINUOUS
 62
              30
100
AcDbVertex
100
AcDb2dVertex
 10
-593.09988505036006
 20
1086.9999367084433
 30
0.0
 42
0.414213562373095
 70
               2
  0
VERTEX
  5
32A
100
AcDbEntity
  8
IMPORTED
  6
CONTINUOUS
 62
              30
100
AcDbVertex
100
AcDb2dVertex
 10
-603.09988505036006
 20
1096.9999367084433
 30
0.0
  0
VERTEX
  5
32B
100
AcDbEntity
  8
IMPORTED
  6
CONTINUOUS
 62
              30
100
AcDbVertex
100
AcDb2dVertex
 10
-603.09988505036006
 20
1096.9999367084433
 30
0.0
 42
0.414213562373095
 70
               2
 50
9.3574199307792870E+17
  0
VERTEX
  5
32C
100
AcDbEntity
  8
IMPORTED
  6
CONTINUOUS
 62
              30
100
AcDbVertex
100
AcDb2dVertex
 10
-613.09988505036006
 20
1086.9999367084433
 30
0.0
  0
SEQEND
  5
32D
100
AcDbEntity
  8
IMPORTED
  6
CONTINUOUS
 62
              30
  0
POLYLINE
  5
32E
100
AcDbEntity
  8
IMPORTED
  6
STYLE_05
 62
              30
100
AcDb2dPolyline
 66
               1
 10
0.0
 20
0.0
 30
0.0
 70
               1
 75
               5
  0
VERTEX
  5
32F
100
AcDbEntity
  8
IMPORTED
  6
STYLE_05
 62
              30
100
AcDbVertex
100
AcDb2dVertex
 10
-584.09988505036006
 20
1090.9999367084433
 30
0.0
  0
VERTEX
  5
330
100
AcDbEntity
  8
IMPORTED
  6
STYLE_05
 62
              30
100
AcDbVertex
100
AcDb2dVertex
 10
-568.09988505036006
 20
1090.9999367084433
 30
0.0
  0
VERTEX
  5
331
100
AcDbEntity
  8
IMPORTED
  6
STYLE_05
 62
              30
100
AcDbVertex
100
AcDb2dVertex
 10
-568.09988505036006
 20
1082.9999367084433
 30
0.0
  0
VERTEX
  5
332
100
AcDbEntity
  8
IMPORTED
  6
STYLE_05
 62
              30
100
AcDbVertex
100
AcDb2dVertex
 10
-584.09988505036006
 20
1082.9999367084433
 30
0.0
  0
SEQEND
  5
333
100
AcDbEntity
  8
IMPORTED
  6
STYLE_05
 62
              30
  0
LINE
  5
335
100
AcDbEntity
  8
IMPORTED
  6
STYLE_05
 62
              30
100
AcDbLine
 10
-582.09988505036006
 20
1082.9999367084433
 30
0.0
 11
-582.09988505036006
 21
1090.9999367084433
 31
0.0
  0
LINE
  5
336
100
AcDbEntity
  8
IMPORTED
  6
STYLE_05
 62
              30
100
AcDbLine
 10
-580.09988505036006
 20
1082.9999367084433
 30
0.0
 11
-580.09988505036006
 21
1090.9999367084433
 31
0.0
  0
LINE
  5
337
100
AcDbEntity
  8
IMPORTED
  6
STYLE_05
 62
              30
100
AcDbLine
 10
-578.09988505036006
 20
1082.9999367084433
 30
0.0
 11
-578.09988505036006
 21
1090.9999367084433
 31
0.0
  0
LINE
  5
338
100
AcDbEntity
  8
IMPORTED
  6
STYLE_05
 62
              30
100
AcDbLine
 10
-576.09988505036006
 20
1082.9999367084433
 30
0.0
 11
-576.09988505036006
 21
1090.9999367084433
 31
0.0
  0
LINE
  5
339
100
AcDbEntity
  8
IMPORTED
  6
STYLE_05
 62
              30
100
AcDbLine
 10
-574.09988505036006
 20
1082.9999367084433
 30
0.0
 11
-574.09988505036006
 21
1090.9999367084433
 31
0.0
  0
LINE
  5
33A
100
AcDbEntity
  8
IMPORTED
  6
STYLE_05
 62
              30
100
AcDbLine
 10
-572.09988505036006
 20
1082.9999367084433
 30
0.0
 11
-572.09988505036006
 21
1090.9999367084433
 31
0.0
  0
LINE
  5
33B
100
AcDbEntity
  8
IMPORTED
  6
STYLE_05
 62
              30
100
AcDbLine
 10
-570.09988505036006
 20
1082.9999367084433
 30
0.0
 11
-570.09988505036006
 21
1090.9999367084433
 31
0.0
  0
POLYLINE
  5
33C
100
AcDbEntity
  8
IMPORTED
  6
CONTINUOUS
 62
              30
100
AcDb2dPolyline
 66
               1
 10
0.0
 20
0.0
 30
0.0
 70
             129
  0
VERTEX
  5
33D
100
AcDbEntity
  8
IMPORTED
  6
CONTINUOUS
 62
              30
100
AcDbVertex
100
AcDb2dVertex
 10
-584.09988505036006
 20
1102.9999367084433
 30
0.0
  0
VERTEX
  5
33E
100
AcDbEntity
  8
IMPORTED
  6
CONTINUOUS
 62
              30
100
AcDbVertex
100
AcDb2dVertex
 10
-582.49988505036015
 20
1102.9999367084433
 30
0.0
  0
VERTEX
  5
33F
100
AcDbEntity
  8
IMPORTED
  6
CONTINUOUS
 62
              30
100
AcDbVertex
100
AcDb2dVertex
 10
-582.49988505036015
 20
1070.9999367084433
 30
0.0
  0
VERTEX
  5
340
100
AcDbEntity
  8
IMPORTED
  6
CONTINUOUS
 62
              30
100
AcDbVertex
100
AcDb2dVertex
 10
-584.09988505036006
 20
1070.9999367084433
 30
0.0
  0
VERTEX
  5
341
100
AcDbEntity
  8
IMPORTED
  6
CONTINUOUS
 62
              30
100
AcDbVertex
100
AcDb2dVertex
 10
-584.09988505036006
 20
1102.9999367084433
 30
0.0
  0
SEQEND
  5
342
100
AcDbEntity
  8
IMPORTED
  6
CONTINUOUS
 62
              30
  0
POLYLINE
  5
343
100
AcDbEntity
  8
IMPORTED
  6
STYLE_05
 62
              30
100
AcDb2dPolyline
 66
               1
 10
0.0
 20
0.0
 30
0.0
 70
               1
 75
               5
  0
VERTEX
  5
344
100
AcDbEntity
  8
IMPORTED
  6
STYLE_05
 62
              30
100
AcDbVertex
100
AcDb2dVertex
 10
-577.49988505036015
 20
1101.9999999999998
 30
0.0
  0
VERTEX
  5
345
100
AcDbEntity
  8
IMPORTED
  6
STYLE_05
 62
              30
100
AcDbVertex
100
AcDb2dVertex
 10
-572.09988505036006
 20
1101.9999999999998
 30
0.0
  0
VERTEX
  5
346
100
AcDbEntity
  8
IMPORTED
  6
STYLE_05
 62
              30
100
AcDbVertex
100
AcDb2dVertex
 10
-572.09988505036006
 20
1070.9999999999998
 30
0.0
  0
VERTEX
  5
347
100
AcDbEntity
  8
IMPORTED
  6
STYLE_05
 62
              30
100
AcDbVertex
100
AcDb2dVertex
 10
-577.49988505036015
 20
1070.9999999999998
 30
0.0
  0
SEQEND
  5
348
100
AcDbEntity
  8
IMPORTED
  6
STYLE_05
 62
              30
  0
POLYLINE
  5
34A
100
AcDbEntity
  8
IMPORTED
  6
CONTINUOUS
 62
              30
100
AcDb2dPolyline
 66
               1
 10
0.0
 20
0.0
 30
0.0
 70
             129
  0
VERTEX
  5
34B
100
AcDbEntity
  8
IMPORTED
  6
CONTINUOUS
 62
              30
100
AcDbVertex
100
AcDb2dVertex
 10
-476.89988505036024
 20
1070.9999367084433
 30
0.0
 42
0.414213562373095
 70
               2
 50
3.1191399769264294E+17
  0
VERTEX
  5
34C
100
AcDbEntity
  8
IMPORTED
  6
CONTINUOUS
 62
              30
100
AcDbVertex
100
AcDb2dVertex
 10
-460.89988505036024
 20
1086.9999367084433
 30
0.0
 42
0.414213562373095
 70
               2
  0
VERTEX
  5
34D
100
AcDbEntity
  8
IMPORTED
  6
CONTINUOUS
 62
              30
100
AcDbVertex
100
AcDb2dVertex
 10
-476.89988505036024
 20
1102.9999367084433
 30
0.0
  0
VERTEX
  5
34E
100
AcDbEntity
  8
IMPORTED
  6
CONTINUOUS
 62
              30
100
AcDbVertex
100
AcDb2dVertex
 10
-476.89988505036024
 20
1102.9999367084433
 30
0.0
 42
0.2680316608241996
 70
               2
 50
9.3574199307792870E+17
  0
VERTEX
  5
34F
100
AcDbEntity
  8
IMPORTED
  6
CONTINUOUS
 62
              30
100
AcDbVertex
100
AcDb2dVertex
 10
-490.75136850484057
 20
1094.9999367084433
 30
0.0
  0
VERTEX
  5
350
100
AcDbEntity
  8
IMPORTED
  6
CONTINUOUS
 62
              30
100
AcDbVertex
100
AcDb2dVertex
 10
-494.89988505036024
 20
1094.9999367084433
 30
0.0
  0
VERTEX
  5
351
100
AcDbEntity
  8
IMPORTED
  6
CONTINUOUS
 62
              30
100
AcDbVertex
100
AcDb2dVertex
 10
-494.89988505036024
 20
1094.9999367084433
 30
0.0
 42
0.414213562373095
 70
               2
 50
9.3574199307792870E+17
  0
VERTEX
  5
352
100
AcDbEntity
  8
IMPORTED
  6
CONTINUOUS
 62
              30
100
AcDbVertex
100
AcDb2dVertex
 10
-495.89988505036024
 20
1093.9999367084433
 30
0.0
  0
VERTEX
  5
353
100
AcDbEntity
  8
IMPORTED
  6
CONTINUOUS
 62
              30
100
AcDbVertex
100
AcDb2dVertex
 10
-495.89988505036024
 20
1086.9999367084433
 30
0.0
  0
VERTEX
  5
354
100
AcDbEntity
  8
IMPORTED
  6
CONTINUOUS
 62
              30
100
AcDbVertex
100
AcDb2dVertex
 10
-495.89988505036024
 20
1079.9999367084433
 30
0.0
  0
VERTEX
  5
355
100
AcDbEntity
  8
IMPORTED
  6
CONTINUOUS
 62
              30
100
AcDbVertex
100
AcDb2dVertex
 10
-495.89988505036024
 20
1079.9999367084433
 30
0.0
 42
0.414213562373095
 70
               2
  0
VERTEX
  5
356
100
AcDbEntity
  8
IMPORTED
  6
CONTINUOUS
 62
              30
100
AcDbVertex
100
AcDb2dVertex
 10
-494.89988505036024
 20
1078.9999367084433
 30
0.0
  0
VERTEX
  5
357
100
AcDbEntity
  8
IMPORTED
  6
CONTINUOUS
 62
              30
100
AcDbVertex
100
AcDb2dVertex
 10
-490.75136850484057
 20
1078.9999367084433
 30
0.0
  0
VERTEX
  5
358
100
AcDbEntity
  8
IMPORTED
  6
CONTINUOUS
 62
              30
100
AcDbVertex
100
AcDb2dVertex
 10
-490.75136850484057
 20
1078.9999367084433
 30
0.0
 42
0.2680316608241996
 70
               2
 50
33.056226014222183
  0
VERTEX
  5
359
100
AcDbEntity
  8
IMPORTED
  6
CONTINUOUS
 62
              30
100
AcDbVertex
100
AcDb2dVertex
 10
-476.89988505036024
 20
1070.9999367084433
 30
0.0
  0
SEQEND
  5
35A
100
AcDbEntity
  8
IMPORTED
  6
CONTINUOUS
 62
              30
  0
POLYLINE
  5
35B
100
AcDbEntity
  8
IMPORTED
  6
CONTINUOUS
 62
              30
100
AcDb2dPolyline
 66
               1
 10
0.0
 20
0.0
 30
0.0
 70
             129
  0
VERTEX
  5
35C
100
AcDbEntity
  8
IMPORTED
  6
CONTINUOUS
 62
              30
100
AcDbVertex
100
AcDb2dVertex
 10
-466.89988505036024
 20
1086.9999367084433
 30
0.0
 42
-0.414213562373095
 70
               2
  0
VERTEX
  5
35D
100
AcDbEntity
  8
IMPORTED
  6
CONTINUOUS
 62
              30
100
AcDbVertex
100
AcDb2dVertex
 10
-476.89988505036024
 20
1076.9999367084433
 30
0.0
  0
VERTEX
  5
35E
100
AcDbEntity
  8
IMPORTED
  6
CONTINUOUS
 62
              30
100
AcDbVertex
100
AcDb2dVertex
 10
-476.89988505036024
 20
1076.9999367084433
 30
0.0
 42
-0.414213562373095
 70
               2
 50
3.1191399769264294E+17
  0
VERTEX
  5
35F
100
AcDbEntity
  8
IMPORTED
  6
CONTINUOUS
 62
              30
100
AcDbVertex
100
AcDb2dVertex
 10
-486.89988505036024
 20
1086.9999367084433
 30
0.0
  0
VERTEX
  5
360
100
AcDbEntity
  8
IMPORTED
  6
CONTINUOUS
 62
              30
100
AcDbVertex
100
AcDb2dVertex
 10
-486.89988505036024
 20
1086.9999367084433
 30
0.0
 42
-0.414213562373095
 70
               2
  0
VERTEX
  5
361
100
AcDbEntity
  8
IMPORTED
  6
CONTINUOUS
 62
              30
100
AcDbVertex
100
AcDb2dVertex
 10
-476.89988505036024
 20
1096.9999367084433
 30
0.0
  0
VERTEX
  5
362
100
AcDbEntity
  8
IMPORTED
  6
CONTINUOUS
 62
              30
100
AcDbVertex
100
AcDb2dVertex
 10
-476.89988505036024
 20
1096.9999367084433
 30
0.0
 42
-0.414213562373095
 70
               2
 50
1.8714839861558573E+17
  0
VERTEX
  5
363
100
AcDbEntity
  8
IMPORTED
  6
CONTINUOUS
 62
              30
100
AcDbVertex
100
AcDb2dVertex
 10
-466.89988505036024
 20
1086.9999367084433
 30
0.0
  0
SEQEND
  5
364
100
AcDbEntity
  8
IMPORTED
  6
CONTINUOUS
 62
              30
  0
POLYLINE
  5
365
100
AcDbEntity
  8
IMPORTED
  6
STYLE_05
 62
              30
100
AcDb2dPolyline
 66
               1
 10
0.0
 20
0.0
 30
0.0
 70
               1
 75
               5
  0
VERTEX
  5
366
100
AcDbEntity
  8
IMPORTED
  6
STYLE_05
 62
              30
100
AcDbVertex
100
AcDb2dVertex
 10
-511.89988505036024
 20
1090.9999367084433
 30
0.0
  0
VERTEX
  5
367
100
AcDbEntity
  8
IMPORTED
  6
STYLE_05
 62
              30
100
AcDbVertex
100
AcDb2dVertex
 10
-495.89988505036024
 20
1090.9999367084433
 30
0.0
  0
VERTEX
  5
368
100
AcDbEntity
  8
IMPORTED
  6
STYLE_05
 62
              30
100
AcDbVertex
100
AcDb2dVertex
 10
-495.89988505036024
 20
1082.9999367084433
 30
0.0
  0
VERTEX
  5
369
100
AcDbEntity
  8
IMPORTED
  6
STYLE_05
 62
              30
100
AcDbVertex
100
AcDb2dVertex
 10
-511.89988505036024
 20
1082.9999367084433
 30
0.0
  0
SEQEND
  5
36A
100
AcDbEntity
  8
IMPORTED
  6
STYLE_05
 62
              30
  0
LINE
  5
36C
100
AcDbEntity
  8
IMPORTED
  6
STYLE_05
 62
              30
100
AcDbLine
 10
-497.89988505036024
 20
1082.9999367084433
 30
0.0
 11
-497.89988505036024
 21
1090.9999367084433
 31
0.0
  0
LINE
  5
36D
100
AcDbEntity
  8
IMPORTED
  6
STYLE_05
 62
              30
100
AcDbLine
 10
-499.89988505036024
 20
1082.9999367084433
 30
0.0
 11
-499.89988505036024
 21
1090.9999367084433
 31
0.0
  0
LINE
  5
36E
100
AcDbEntity
  8
IMPORTED
  6
STYLE_05
 62
              30
100
AcDbLine
 10
-501.89988505036024
 20
1082.9999367084433
 30
0.0
 11
-501.89988505036024
 21
1090.9999367084433
 31
0.0
  0
LINE
  5
36F
100
AcDbEntity
  8
IMPORTED
  6
STYLE_05
 62
              30
100
AcDbLine
 10
-503.89988505036024
 20
1082.9999367084433
 30
0.0
 11
-503.89988505036024
 21
1090.9999367084433
 31
0.0
  0
LINE
  5
370
100
AcDbEntity
  8
IMPORTED
  6
STYLE_05
 62
              30
100
AcDbLine
 10
-505.89988505036024
 20
1082.9999367084433
 30
0.0
 11
-505.89988505036024
 21
1090.9999367084433
 31
0.0
  0
LINE
  5
371
100
AcDbEntity
  8
IMPORTED
  6
STYLE_05
 62
              30
100
AcDbLine
 10
-507.89988505036024
 20
1082.9999367084433
 30
0.0
 11
-507.89988505036024
 21
1090.9999367084433
 31
0.0
  0
LINE
  5
372
100
AcDbEntity
  8
IMPORTED
  6
STYLE_05
 62
              30
100
AcDbLine
 10
-509.89988505036024
 20
1082.9999367084433
 30
0.0
 11
-509.89988505036024
 21
1090.9999367084433
 31
0.0
  0
POLYLINE
  5
373
100
AcDbEntity
  8
IMPORTED
  6
CONTINUOUS
 62
              30
100
AcDb2dPolyline
 66
               1
 10
0.0
 20
0.0
 30
0.0
 70
             129
  0
VERTEX
  5
374
100
AcDbEntity
  8
IMPORTED
  6
CONTINUOUS
 62
              30
100
AcDbVertex
100
AcDb2dVertex
 10
-495.89988505036024
 20
1102.9999367084433
 30
0.0
  0
VERTEX
  5
375
100
AcDbEntity
  8
IMPORTED
  6
CONTINUOUS
 62
              30
100
AcDbVertex
100
AcDb2dVertex
 10
-497.49988505036015
 20
1102.9999367084433
 30
0.0
  0
VERTEX
  5
376
100
AcDbEntity
  8
IMPORTED
  6
CONTINUOUS
 62
              30
100
AcDbVertex
100
AcDb2dVertex
 10
-497.49988505036015
 20
1070.9999367084433
 30
0.0
  0
VERTEX
  5
377
100
AcDbEntity
  8
IMPORTED
  6
CONTINUOUS
 62
              30
100
AcDbVertex
100
AcDb2dVertex
 10
-495.89988505036024
 20
1070.9999367084433
 30
0.0
  0
VERTEX
  5
378
100
AcDbEntity
  8
IMPORTED
  6
CONTINUOUS
 62
              30
100
AcDbVertex
100
AcDb2dVertex
 10
-495.89988505036024
 20
1102.9999367084433
 30
0.0
  0
SEQEND
  5
379
100
AcDbEntity
  8
IMPORTED
  6
CONTINUOUS
 62
              30
  0
POLYLINE
  5
37A
100
AcDbEntity
  8
IMPORTED
  6
STYLE_05
 62
              30
100
AcDb2dPolyline
 66
               1
 10
0.0
 20
0.0
 30
0.0
 70
               1
 75
               5
  0
VERTEX
  5
37B
100
AcDbEntity
  8
IMPORTED
  6
STYLE_05
 62
              30
100
AcDbVertex
100
AcDb2dVertex
 10
-507.89988505036024
 20
1101.9999999999998
 30
0.0
  0
VERTEX
  5
37C
100
AcDbEntity
  8
IMPORTED
  6
STYLE_05
 62
              30
100
AcDbVertex
100
AcDb2dVertex
 10
-502.49988505036015
 20
1101.9999999999998
 30
0.0
  0
VERTEX
  5
37D
100
AcDbEntity
  8
IMPORTED
  6
STYLE_05
 62
              30
100
AcDbVertex
100
AcDb2dVertex
 10
-502.49988505036015
 20
1070.9999999999998
 30
0.0
  0
VERTEX
  5
37E
100
AcDbEntity
  8
IMPORTED
  6
STYLE_05
 62
              30
100
AcDbVertex
100
AcDb2dVertex
 10
-507.89988505036024
 20
1070.9999999999998
 30
0.0
  0
SEQEND
  5
37F
100
AcDbEntity
  8
IMPORTED
  6
STYLE_05
 62
              30
  0
POLYLINE
  5
381
100
AcDbEntity
  8
IMPORTED
  6
CONTINUOUS
 62
              30
100
AcDb2dPolyline
 66
               1
 10
0.0
 20
0.0
 30
0.0
 70
               1
 75
               5
  0
VERTEX
  5
382
100
AcDbEntity
  8
IMPORTED
  6
CONTINUOUS
 62
              30
100
AcDbVertex
100
AcDb2dVertex
 10
-2082.4998850503603
 20
-1422.4999632915565
 30
0.0
  0
VERTEX
  5
383
100
AcDbEntity
  8
IMPORTED
  6
CONTINUOUS
 62
              30
100
AcDbVertex
100
AcDb2dVertex
 10
-2077.4998850503603
 20
-1417.4999632915565
 30
0.0
  0
VERTEX
  5
384
100
AcDbEntity
  8
IMPORTED
  6
CONTINUOUS
 62
              30
100
AcDbVertex
100
AcDb2dVertex
 10
-2002.4998850503603
 20
-1417.4999632915565
 30
0.0
  0
VERTEX
  5
385
100
AcDbEntity
  8
IMPORTED
  6
CONTINUOUS
 62
              30
100
AcDbVertex
100
AcDb2dVertex
 10
-1997.4998850503603
 20
-1422.4999632915565
 30
0.0
  0
VERTEX
  5
386
100
AcDbEntity
  8
IMPORTED
  6
CONTINUOUS
 62
              30
100
AcDbVertex
100
AcDb2dVertex
 10
-1997.4998850503603
 20
-1497.4999632915565
 30
0.0
  0
VERTEX
  5
387
100
AcDbEntity
  8
IMPORTED
  6
CONTINUOUS
 62
              30
100
AcDbVertex
100
AcDb2dVertex
 10
-2002.4998850503603
 20
-1502.4999632915565
 30
0.0
  0
VERTEX
  5
388
100
AcDbEntity
  8
IMPORTED
  6
CONTINUOUS
 62
              30
100
AcDbVertex
100
AcDb2dVertex
 10
-2077.4998850503603
 20
-1502.4999632915565
 30
0.0
  0
VERTEX
  5
389
100
AcDbEntity
  8
IMPORTED
  6
CONTINUOUS
 62
              30
100
AcDbVertex
100
AcDb2dVertex
 10
-2082.4998850503603
 20
-1497.4999632915565
 30
0.0
  0
SEQEND
  5
38A
100
AcDbEntity
  8
IMPORTED
  6
CONTINUOUS
 62
              30
  0
POLYLINE
  5
38C
100
AcDbEntity
  8
IMPORTED
  6
STYLE_02
 62
              30
100
AcDb2dPolyline
 66
               1
 10
0.0
 20
0.0
 30
0.0
 70
               1
 75
               5
  0
VERTEX
  5
38D
100
AcDbEntity
  8
IMPORTED
  6
STYLE_02
 62
              30
100
AcDbVertex
100
AcDb2dVertex
 10
-2067.9223850503604
 20
-1427.4999632915565
 30
0.0
  0
VERTEX
  5
38E
100
AcDbEntity
  8
IMPORTED
  6
STYLE_02
 62
              30
100
AcDbVertex
100
AcDb2dVertex
 10
-2072.4998850503603
 20
-1432.0774632915563
 30
0.0
  0
VERTEX
  5
38F
100
AcDbEntity
  8
IMPORTED
  6
STYLE_02
 62
              30
100
AcDbVertex
100
AcDb2dVertex
 10
-2072.4998850503603
 20
-1487.9224632915564
 30
0.0
  0
VERTEX
  5
390
100
AcDbEntity
  8
IMPORTED
  6
STYLE_02
 62
              30
100
AcDbVertex
100
AcDb2dVertex
 10
-2067.9223850503604
 20
-1492.4999632915565
 30
0.0
  0
VERTEX
  5
391
100
AcDbEntity
  8
IMPORTED
  6
STYLE_02
 62
              30
100
AcDbVertex
100
AcDb2dVertex
 10
-2012.0773850503604
 20
-1492.4999632915565
 30
0.0
  0
VERTEX
  5
392
100
AcDbEntity
  8
IMPORTED
  6
STYLE_02
 62
              30
100
AcDbVertex
100
AcDb2dVertex
 10
-2007.4998850503603
 20
-1487.9224632915564
 30
0.0
  0
VERTEX
  5
393
100
AcDbEntity
  8
IMPORTED
  6
STYLE_02
 62
              30
100
AcDbVertex
100
AcDb2dVertex
 10
-2007.4998850503603
 20
-1432.0774632915563
 30
0.0
  0
VERTEX
  5
394
100
AcDbEntity
  8
IMPORTED
  6
STYLE_02
 62
              30
100
AcDbVertex
100
AcDb2dVertex
 10
-2012.0773850503604
 20
-1427.4999632915565
 30
0.0
  0
SEQEND
  5
395
100
AcDbEntity
  8
IMPORTED
  6
STYLE_02
 62
              30
  0
POLYLINE
  5
397
100
AcDbEntity
  8
IMPORTED
  6
STYLE_02
 62
              30
100
AcDb2dPolyline
 66
               1
 10
0.0
 20
0.0
 30
0.0
 70
               1
 75
               5
  0
VERTEX
  5
398
100
AcDbEntity
  8
IMPORTED
  6
STYLE_02
 62
              30
100
AcDbVertex
100
AcDb2dVertex
 10
-2075.4998850503603
 20
-1428.6764632915563
 30
0.0
  0
VERTEX
  5
399
100
AcDbEntity
  8
IMPORTED
  6
STYLE_02
 62
              30
100
AcDbVertex
100
AcDb2dVertex
 10
-2071.3233850503602
 20
-1424.4999632915565
 30
0.0
  0
VERTEX
  5
39A
100
AcDbEntity
  8
IMPORTED
  6
STYLE_02
 62
              30
100
AcDbVertex
100
AcDb2dVertex
 10
-2008.6763850503603
 20
-1424.4999632915565
 30
0.0
  0
VERTEX
  5
39B
100
AcDbEntity
  8
IMPORTED
  6
STYLE_02
 62
              30
100
AcDbVertex
100
AcDb2dVertex
 10
-2004.4998850503603
 20
-1428.6764632915563
 30
0.0
  0
VERTEX
  5
39C
100
AcDbEntity
  8
IMPORTED
  6
STYLE_02
 62
              30
100
AcDbVertex
100
AcDb2dVertex
 10
-2004.4998850503603
 20
-1491.3234632915564
 30
0.0
  0
VERTEX
  5
39D
100
AcDbEntity
  8
IMPORTED
  6
STYLE_02
 62
              30
100
AcDbVertex
100
AcDb2dVertex
 10
-2008.6763850503603
 20
-1495.4999632915565
 30
0.0
  0
VERTEX
  5
39E
100
AcDbEntity
  8
IMPORTED
  6
STYLE_02
 62
              30
100
AcDbVertex
100
AcDb2dVertex
 10
-2071.3233850503602
 20
-1495.4999632915565
 30
0.0
  0
VERTEX
  5
39F
100
AcDbEntity
  8
IMPORTED
  6
STYLE_02
 62
              30
100
AcDbVertex
100
AcDb2dVertex
 10
-2075.4998850503603
 20
-1491.3234632915564
 30
0.0
  0
SEQEND
  5
3A0
100
AcDbEntity
  8
IMPORTED
  6
STYLE_02
 62
              30
  0
POLYLINE
  5
3A2
100
AcDbEntity
  8
IMPORTED
  6
CONTINUOUS
 62
              30
100
AcDb2dPolyline
 66
               1
 10
0.0
 20
0.0
 30
0.0
 70
             129
  0
VERTEX
  5
3A3
100
AcDbEntity
  8
IMPORTED
  6
CONTINUOUS
 62
              30
100
AcDbVertex
100
AcDb2dVertex
 10
-2090.49998505036
 20
-1451.9999632915565
 30
0.0
  0
VERTEX
  5
3A4
100
AcDbEntity
  8
IMPORTED
  6
CONTINUOUS
 62
              30
100
AcDbVertex
100
AcDb2dVertex
 10
-2084.0998850503602
 20
-1451.9999632915565
 30
0.0
  0
VERTEX
  5
3A5
100
AcDbEntity
  8
IMPORTED
  6
CONTINUOUS
 62
              30
100
AcDbVertex
100
AcDb2dVertex
 10
-2084.0998850503602
 20
-1467.9999632915565
 30
0.0
  0
VERTEX
  5
3A6
100
AcDbEntity
  8
IMPORTED
  6
CONTINUOUS
 62
              30
100
AcDbVertex
100
AcDb2dVertex
 10
-2090.49998505036
 20
-1467.9999632915565
 30
0.0
  0
VERTEX
  5
3A7
100
AcDbEntity
  8
IMPORTED
  6
CONTINUOUS
 62
              30
100
AcDbVertex
100
AcDb2dVertex
 10
-2092.8984850503603
 20
-1467.9999632915565
 30
0.0
  0
VERTEX
  5
3A8
100
AcDbEntity
  8
IMPORTED
  6
CONTINUOUS
 62
              30
100
AcDbVertex
100
AcDb2dVertex
 10
-2097.8984850503603
 20
-1462.9999632915565
 30
0.0
  0
VERTEX
  5
3A9
100
AcDbEntity
  8
IMPORTED
  6
CONTINUOUS
 62
              30
100
AcDbVertex
100
AcDb2dVertex
 10
-2120.3998850503604
 20
-1462.9999632915565
 30
0.0
  0
VERTEX
  5
3AA
100
AcDbEntity
  8
IMPORTED
  6
CONTINUOUS
 62
              30
100
AcDbVertex
100
AcDb2dVertex
 10
-2120.3998850503604
 20
-1462.9999632915565
 30
0.0
 42
-0.414213562373095
 70
               2
 50
3.1191399769264294E+17
  0
VERTEX
  5
3AB
100
AcDbEntity
  8
IMPORTED
  6
CONTINUOUS
 62
              30
100
AcDbVertex
100
AcDb2dVertex
 10
-2123.3998850503604
 20
-1459.9999632915565
 30
0.0
  0
VERTEX
  5
3AC
100
AcDbEntity
  8
IMPORTED
  6
CONTINUOUS
 62
              30
100
AcDbVertex
100
AcDb2dVertex
 10
-2123.3998850503604
 20
-1459.9999632915565
 30
0.0
 42
-0.414213562373095
 70
               2
  0
VERTEX
  5
3AD
100
AcDbEntity
  8
IMPORTED
  6
CONTINUOUS
 62
              30
100
AcDbVertex
100
AcDb2dVertex
 10
-2120.3998850503604
 20
-1456.9999632915565
 30
0.0
  0
VERTEX
  5
3AE
100
AcDbEntity
  8
IMPORTED
  6
CONTINUOUS
 62
              30
100
AcDbVertex
100
AcDb2dVertex
 10
-2097.8984850503603
 20
-1456.9999632915565
 30
0.0
  0
VERTEX
  5
3AF
100
AcDbEntity
  8
IMPORTED
  6
CONTINUOUS
 62
              30
100
AcDbVertex
100
AcDb2dVertex
 10
-2092.8984850503603
 20
-1451.9999632915565
 30
0.0
  0
SEQEND
  5
3B0
100
AcDbEntity
  8
IMPORTED
  6
CONTINUOUS
 62
              30
  0
POLYLINE
  5
3B1
100
AcDbEntity
  8
IMPORTED
  6
STYLE_05
 62
              30
100
AcDb2dPolyline
 66
               1
 10
0.0
 20
0.0
 30
0.0
 70
               1
 75
               5
  0
VERTEX
  5
3B2
100
AcDbEntity
  8
IMPORTED
  6
STYLE_05
 62
              30
100
AcDbVertex
100
AcDb2dVertex
 10
-2084.0998850503602
 20
-1455.9999632915565
 30
0.0
  0
VERTEX
  5
3B3
100
AcDbEntity
  8
IMPORTED
  6
STYLE_05
 62
              30
100
AcDbVertex
100
AcDb2dVertex
 10
-2068.0998850503602
 20
-1455.9999632915565
 30
0.0
  0
VERTEX
  5
3B4
100
AcDbEntity
  8
IMPORTED
  6
STYLE_05
 62
              30
100
AcDbVertex
100
AcDb2dVertex
 10
-2068.0998850503602
 20
-1463.9999632915565
 30
0.0
  0
VERTEX
  5
3B5
100
AcDbEntity
  8
IMPORTED
  6
STYLE_05
 62
              30
100
AcDbVertex
100
AcDb2dVertex
 10
-2084.0998850503602
 20
-1463.9999632915565
 30
0.0
  0
SEQEND
  5
3B6
100
AcDbEntity
  8
IMPORTED
  6
STYLE_05
 62
              30
  0
LINE
  5
3B8
100
AcDbEntity
  8
IMPORTED
  6
STYLE_05
 62
              30
100
AcDbLine
 10
-2080.0998850503602
 20
-1463.9999632915565
 30
0.0
 11
-2080.0998850503602
 21
-1455.9999632915565
 31
0.0
  0
LINE
  5
3B9
100
AcDbEntity
  8
IMPORTED
  6
STYLE_05
 62
              30
100
AcDbLine
 10
-2078.0998850503602
 20
-1463.9999632915565
 30
0.0
 11
-2078.0998850503602
 21
-1455.9999632915565
 31
0.0
  0
LINE
  5
3BA
100
AcDbEntity
  8
IMPORTED
  6
STYLE_05
 62
              30
100
AcDbLine
 10
-2076.0998850503602
 20
-1463.9999632915565
 30
0.0
 11
-2076.0998850503602
 21
-1455.9999632915565
 31
0.0
  0
LINE
  5
3BB
100
AcDbEntity
  8
IMPORTED
  6
STYLE_05
 62
              30
100
AcDbLine
 10
-2074.0998850503602
 20
-1463.9999632915565
 30
0.0
 11
-2074.0998850503602
 21
-1455.9999632915565
 31
0.0
  0
LINE
  5
3BC
100
AcDbEntity
  8
IMPORTED
  6
STYLE_05
 62
              30
100
AcDbLine
 10
-2072.0998850503602
 20
-1463.9999632915565
 30
0.0
 11
-2072.0998850503602
 21
-1455.9999632915565
 31
0.0
  0
LINE
  5
3BD
100
AcDbEntity
  8
IMPORTED
  6
STYLE_05
 62
              30
100
AcDbLine
 10
-2070.0998850503602
 20
-1463.9999632915565
 30
0.0
 11
-2070.0998850503602
 21
-1455.9999632915565
 31
0.0
  0
POLYLINE
  5
3BE
100
AcDbEntity
  8
IMPORTED
  6
STYLE_05
 62
              30
100
AcDb2dPolyline
 66
               1
 10
0.0
 20
0.0
 30
0.0
 70
               1
 75
               5
  0
VERTEX
  5
3BF
100
AcDbEntity
  8
IMPORTED
  6
STYLE_05
 62
              30
100
AcDbVertex
100
AcDb2dVertex
 10
-2072.4998850503603
 20
-1448.4999632915565
 30
0.0
  0
VERTEX
  5
3C0
100
AcDbEntity
  8
IMPORTED
  6
STYLE_05
 62
              30
100
AcDbVertex
100
AcDb2dVertex
 10
-2067.0998850503602
 20
-1448.4999632915565
 30
0.0
  0
VERTEX
  5
3C1
100
AcDbEntity
  8
IMPORTED
  6
STYLE_05
 62
              30
100
AcDbVertex
100
AcDb2dVertex
 10
-2067.0998850503602
 20
-1479.4999632915565
 30
0.0
  0
VERTEX
  5
3C2
100
AcDbEntity
  8
IMPORTED
  6
STYLE_05
 62
              30
100
AcDbVertex
100
AcDb2dVertex
 10
-2072.4998850503603
 20
-1479.4999632915565
 30
0.0
  0
SEQEND
  5
3C3
100
AcDbEntity
  8
IMPORTED
  6
STYLE_05
 62
              30
  0
POLYLINE
  5
3C5
100
AcDbEntity
  8
IMPORTED
  6
CONTINUOUS
 62
              30
100
AcDb2dPolyline
 66
               1
 10
0.0
 20
0.0
 30
0.0
 70
             129
  0
VERTEX
  5
3C6
100
AcDbEntity
  8
IMPORTED
  6
CONTINUOUS
 62
              30
100
AcDbVertex
100
AcDb2dVertex
 10
-2084.0998850503602
 20
-1443.9999632915565
 30
0.0
  0
VERTEX
  5
3C7
100
AcDbEntity
  8
IMPORTED
  6
CONTINUOUS
 62
              30
100
AcDbVertex
100
AcDb2dVertex
 10
-2082.4998850503603
 20
-1443.9999632915565
 30
0.0
  0
VERTEX
  5
3C8
100
AcDbEntity
  8
IMPORTED
  6
CONTINUOUS
 62
              30
100
AcDbVertex
100
AcDb2dVertex
 10
-2082.4998850503603
 20
-1475.9999632915565
 30
0.0
  0
VERTEX
  5
3C9
100
AcDbEntity
  8
IMPORTED
  6
CONTINUOUS
 62
              30
100
AcDbVertex
100
AcDb2dVertex
 10
-2084.0998850503602
 20
-1475.9999632915565
 30
0.0
  0
VERTEX
  5
3CA
100
AcDbEntity
  8
IMPORTED
  6
CONTINUOUS
 62
              30
100
AcDbVertex
100
AcDb2dVertex
 10
-2084.0998850503602
 20
-1443.9999632915565
 30
0.0
  0
SEQEND
  5
3CB
100
AcDbEntity
  8
IMPORTED
  6
CONTINUOUS
 62
              30
  0
POLYLINE
  5
3CC
100
AcDbEntity
  8
IMPORTED
  6
CONTINUOUS
 62
              30
100
AcDb2dPolyline
 66
               1
 10
0.0
 20
0.0
 30
0.0
 70
             129
  0
VERTEX
  5
3CD
100
AcDbEntity
  8
IMPORTED
  6
CONTINUOUS
 62
              30
100
AcDbVertex
100
AcDb2dVertex
 10
-1989.4997850503603
 20
-1451.9999632915565
 30
0.0
  0
VERTEX
  5
3CE
100
AcDbEntity
  8
IMPORTED
  6
CONTINUOUS
 62
              30
100
AcDbVertex
100
AcDb2dVertex
 10
-1995.8998850503604
 20
-1451.9999632915565
 30
0.0
  0
VERTEX
  5
3CF
100
AcDbEntity
  8
IMPORTED
  6
CONTINUOUS
 62
              30
100
AcDbVertex
100
AcDb2dVertex
 10
-1995.8998850503604
 20
-1467.9999632915565
 30
0.0
  0
VERTEX
  5
3D0
100
AcDbEntity
  8
IMPORTED
  6
CONTINUOUS
 62
              30
100
AcDbVertex
100
AcDb2dVertex
 10
-1989.4997850503603
 20
-1467.9999632915565
 30
0.0
  0
VERTEX
  5
3D1
100
AcDbEntity
  8
IMPORTED
  6
CONTINUOUS
 62
              30
100
AcDbVertex
100
AcDb2dVertex
 10
-1987.1012850503603
 20
-1467.9999632915565
 30
0.0
  0
VERTEX
  5
3D2
100
AcDbEntity
  8
IMPORTED
  6
CONTINUOUS
 62
              30
100
AcDbVertex
100
AcDb2dVertex
 10
-1982.1012850503603
 20
-1462.9999632915565
 30
0.0
  0
VERTEX
  5
3D3
100
AcDbEntity
  8
IMPORTED
  6
CONTINUOUS
 62
              30
100
AcDbVertex
100
AcDb2dVertex
 10
-1959.5998850503602
 20
-1462.9999632915565
 30
0.0
  0
VERTEX
  5
3D4
100
AcDbEntity
  8
IMPORTED
  6
CONTINUOUS
 62
              30
100
AcDbVertex
100
AcDb2dVertex
 10
-1959.5998850503602
 20
-1462.9999632915565
 30
0.0
 42
0.414213562373095
 70
               2
 50
3.1191399769264294E+17
  0
VERTEX
  5
3D5
100
AcDbEntity
  8
IMPORTED
  6
CONTINUOUS
 62
              30
100
AcDbVertex
100
AcDb2dVertex
 10
-1956.5998850503602
 20
-1459.9999632915565
 30
0.0
  0
VERTEX
  5
3D6
100
AcDbEntity
  8
IMPORTED
  6
CONTINUOUS
 62
              30
100
AcDbVertex
100
AcDb2dVertex
 10
-1956.5998850503602
 20
-1459.9999632915565
 30
0.0
 42
0.414213562373095
 70
               2
  0
VERTEX
  5
3D7
100
AcDbEntity
  8
IMPORTED
  6
CONTINUOUS
 62
              30
100
AcDbVertex
100
AcDb2dVertex
 10
-1959.5998850503602
 20
-1456.9999632915565
 30
0.0
  0
VERTEX
  5
3D8
100
AcDbEntity
  8
IMPORTED
  6
CONTINUOUS
 62
              30
100
AcDbVertex
100
AcDb2dVertex
 10
-1982.1012850503603
 20
-1456.9999632915565
 30
0.0
  0
VERTEX
  5
3D9
100
AcDbEntity
  8
IMPORTED
  6
CONTINUOUS
 62
              30
100
AcDbVertex
100
AcDb2dVertex
 10
-1987.1012850503603
 20
-1451.9999632915565
 30
0.0
  0
SEQEND
  5
3DA
100
AcDbEntity
  8
IMPORTED
  6
CONTINUOUS
 62
              30
  0
POLYLINE
  5
3DB
100
AcDbEntity
  8
IMPORTED
  6
STYLE_05
 62
              30
100
AcDb2dPolyline
 66
               1
 10
0.0
 20
0.0
 30
0.0
 70
               1
 75
               5
  0
VERTEX
  5
3DC
100
AcDbEntity
  8
IMPORTED
  6
STYLE_05
 62
              30
100
AcDbVertex
100
AcDb2dVertex
 10
-2011.8998850503604
 20
-1455.9999632915565
 30
0.0
  0
VERTEX
  5
3DD
100
AcDbEntity
  8
IMPORTED
  6
STYLE_05
 62
              30
100
AcDbVertex
100
AcDb2dVertex
 10
-1995.8998850503604
 20
-1455.9999632915565
 30
0.0
  0
VERTEX
  5
3DE
100
AcDbEntity
  8
IMPORTED
  6
STYLE_05
 62
              30
100
AcDbVertex
100
AcDb2dVertex
 10
-1995.8998850503604
 20
-1463.9999632915565
 30
0.0
  0
VERTEX
  5
3DF
100
AcDbEntity
  8
IMPORTED
  6
STYLE_05
 62
              30
100
AcDbVertex
100
AcDb2dVertex
 10
-2011.8998850503604
 20
-1463.9999632915565
 30
0.0
  0
SEQEND
  5
3E0
100
AcDbEntity
  8
IMPORTED
  6
STYLE_05
 62
              30
  0
LINE
  5
3E2
100
AcDbEntity
  8
IMPORTED
  6
STYLE_05
 62
              30
100
AcDbLine
 10
-1999.8998850503604
 20
-1463.9999632915565
 30
0.0
 11
-1999.8998850503604
 21
-1455.9999632915565
 31
0.0
  0
LINE
  5
3E3
100
AcDbEntity
  8
IMPORTED
  6
STYLE_05
 62
              30
100
AcDbLine
 10
-2001.8998850503604
 20
-1463.9999632915565
 30
0.0
 11
-2001.8998850503604
 21
-1455.9999632915565
 31
0.0
  0
LINE
  5
3E4
100
AcDbEntity
  8
IMPORTED
  6
STYLE_05
 62
              30
100
AcDbLine
 10
-2003.8998850503604
 20
-1463.9999632915565
 30
0.0
 11
-2003.8998850503604
 21
-1455.9999632915565
 31
0.0
  0
LINE
  5
3E5
100
AcDbEntity
  8
IMPORTED
  6
STYLE_05
 62
              30
100
AcDbLine
 10
-2005.8998850503604
 20
-1463.9999632915565
 30
0.0
 11
-2005.8998850503604
 21
-1455.9999632915565
 31
0.0
  0
LINE
  5
3E6
100
AcDbEntity
  8
IMPORTED
  6
STYLE_05
 62
              30
100
AcDbLine
 10
-2007.8998850503604
 20
-1463.9999632915565
 30
0.0
 11
-2007.8998850503604
 21
-1455.9999632915565
 31
0.0
  0
LINE
  5
3E7
100
AcDbEntity
  8
IMPORTED
  6
STYLE_05
 62
              30
100
AcDbLine
 10
-2009.8998850503604
 20
-1463.9999632915565
 30
0.0
 11
-2009.8998850503604
 21
-1455.9999632915565
 31
0.0
  0
POLYLINE
  5
3E8
100
AcDbEntity
  8
IMPORTED
  6
STYLE_05
 62
              30
100
AcDb2dPolyline
 66
               1
 10
0.0
 20
0.0
 30
0.0
 70
               1
 75
               5
  0
VERTEX
  5
3E9
100
AcDbEntity
  8
IMPORTED
  6
STYLE_05
 62
              30
100
AcDbVertex
100
AcDb2dVertex
 10
-2012.8998850503604
 20
-1448.4999632915565
 30
0.0
  0
VERTEX
  5
3EA
100
AcDbEntity
  8
IMPORTED
  6
STYLE_05
 62
              30
100
AcDbVertex
100
AcDb2dVertex
 10
-2007.4998850503603
 20
-1448.4999632915565
 30
0.0
  0
VERTEX
  5
3EB
100
AcDbEntity
  8
IMPORTED
  6
STYLE_05
 62
              30
100
AcDbVertex
100
AcDb2dVertex
 10
-2007.4998850503603
 20
-1479.4999632915565
 30
0.0
  0
VERTEX
  5
3EC
100
AcDbEntity
  8
IMPORTED
  6
STYLE_05
 62
              30
100
AcDbVertex
100
AcDb2dVertex
 10
-2012.8998850503604
 20
-1479.4999632915565
 30
0.0
  0
SEQEND
  5
3ED
100
AcDbEntity
  8
IMPORTED
  6
STYLE_05
 62
              30
  0
POLYLINE
  5
3EF
100
AcDbEntity
  8
IMPORTED
  6
CONTINUOUS
 62
              30
100
AcDb2dPolyline
 66
               1
 10
0.0
 20
0.0
 30
0.0
 70
             129
  0
VERTEX
  5
3F0
100
AcDbEntity
  8
IMPORTED
  6
CONTINUOUS
 62
              30
100
AcDbVertex
100
AcDb2dVertex
 10
-1995.8998850503604
 20
-1443.9999632915565
 30
0.0
  0
VERTEX
  5
3F1
100
AcDbEntity
  8
IMPORTED
  6
CONTINUOUS
 62
              30
100
AcDbVertex
100
AcDb2dVertex
 10
-1997.4998850503603
 20
-1443.9999632915565
 30
0.0
  0
VERTEX
  5
3F2
100
AcDbEntity
  8
IMPORTED
  6
CONTINUOUS
 62
              30
100
AcDbVertex
100
AcDb2dVertex
 10
-1997.4998850503603
 20
-1475.9999632915565
 30
0.0
  0
VERTEX
  5
3F3
100
AcDbEntity
  8
IMPORTED
  6
CONTINUOUS
 62
              30
100
AcDbVertex
100
AcDb2dVertex
 10
-1995.8998850503604
 20
-1475.9999632915565
 30
0.0
  0
VERTEX
  5
3F4
100
AcDbEntity
  8
IMPORTED
  6
CONTINUOUS
 62
              30
100
AcDbVertex
100
AcDb2dVertex
 10
-1995.8998850503604
 20
-1443.9999632915565
 30
0.0
  0
SEQEND
  5
3F5
100
AcDbEntity
  8
IMPORTED
  6
CONTINUOUS
 62
              30
  0
POLYLINE
  5
3F6
100
AcDbEntity
  8
IMPORTED
  6
CONTINUOUS
 62
              30
100
AcDb2dPolyline
 66
               1
 10
0.0
 20
0.0
 30
0.0
 70
               1
 75
               5
  0
VERTEX
  5
3F7
100
AcDbEntity
  8
IMPORTED
  6
CONTINUOUS
 62
              30
100
AcDbVertex
100
AcDb2dVertex
 10
-582.49988505036015
 20
-1422.4999632915565
 30
0.0
  0
VERTEX
  5
3F8
100
AcDbEntity
  8
IMPORTED
  6
CONTINUOUS
 62
              30
100
AcDbVertex
100
AcDb2dVertex
 10
-577.49988505036015
 20
-1417.4999632915565
 30
0.0
  0
VERTEX
  5
3F9
100
AcDbEntity
  8
IMPORTED
  6
CONTINUOUS
 62
              30
100
AcDbVertex
100
AcDb2dVertex
 10
-502.49988505036015
 20
-1417.4999632915565
 30
0.0
  0
VERTEX
  5
3FA
100
AcDbEntity
  8
IMPORTED
  6
CONTINUOUS
 62
              30
100
AcDbVertex
100
AcDb2dVertex
 10
-497.49988505036015
 20
-1422.4999632915565
 30
0.0
  0
VERTEX
  5
3FB
100
AcDbEntity
  8
IMPORTED
  6
CONTINUOUS
 62
              30
100
AcDbVertex
100
AcDb2dVertex
 10
-497.49988505036015
 20
-1497.4999632915565
 30
0.0
  0
VERTEX
  5
3FC
100
AcDbEntity
  8
IMPORTED
  6
CONTINUOUS
 62
              30
100
AcDbVertex
100
AcDb2dVertex
 10
-502.49988505036015
 20
-1502.4999632915565
 30
0.0
  0
VERTEX
  5
3FD
100
AcDbEntity
  8
IMPORTED
  6
CONTINUOUS
 62
              30
100
AcDbVertex
100
AcDb2dVertex
 10
-577.49988505036015
 20
-1502.4999632915565
 30
0.0
  0
VERTEX
  5
3FE
100
AcDbEntity
  8
IMPORTED
  6
CONTINUOUS
 62
              30
100
AcDbVertex
100
AcDb2dVertex
 10
-582.49988505036015
 20
-1497.4999632915565
 30
0.0
  0
SEQEND
  5
3FF
100
AcDbEntity
  8
IMPORTED
  6
CONTINUOUS
 62
              30
  0
POLYLINE
  5
401
100
AcDbEntity
  8
IMPORTED
  6
STYLE_02
 62
              30
100
AcDb2dPolyline
 66
               1
 10
0.0
 20
0.0
 30
0.0
 70
               1
 75
               5
  0
VERTEX
  5
402
100
AcDbEntity
  8
IMPORTED
  6
STYLE_02
 62
              30
100
AcDbVertex
100
AcDb2dVertex
 10
-567.92238505036028
 20
-1427.4999632915565
 30
0.0
  0
VERTEX
  5
403
100
AcDbEntity
  8
IMPORTED
  6
STYLE_02
 62
              30
100
AcDbVertex
100
AcDb2dVertex
 10
-572.49988505036015
 20
-1432.0774632915563
 30
0.0
  0
VERTEX
  5
404
100
AcDbEntity
  8
IMPORTED
  6
STYLE_02
 62
              30
100
AcDbVertex
100
AcDb2dVertex
 10
-572.49988505036015
 20
-1487.9224632915564
 30
0.0
  0
VERTEX
  5
405
100
AcDbEntity
  8
IMPORTED
  6
STYLE_02
 62
              30
100
AcDbVertex
100
AcDb2dVertex
 10
-567.92238505036028
 20
-1492.4999632915565
 30
0.0
  0
VERTEX
  5
406
100
AcDbEntity
  8
IMPORTED
  6
STYLE_02
 62
              30
100
AcDbVertex
100
AcDb2dVertex
 10
-512.07738505036025
 20
-1492.4999632915565
 30
0.0
  0
VERTEX
  5
407
100
AcDbEntity
  8
IMPORTED
  6
STYLE_02
 62
              30
100
AcDbVertex
100
AcDb2dVertex
 10
-507.49988505036015
 20
-1487.9224632915564
 30
0.0
  0
VERTEX
  5
408
100
AcDbEntity
  8
IMPORTED
  6
STYLE_02
 62
              30
100
AcDbVertex
100
AcDb2dVertex
 10
-507.49988505036015
 20
-1432.0774632915563
 30
0.0
  0
VERTEX
  5
409
100
AcDbEntity
  8
IMPORTED
  6
STYLE_02
 62
              30
100
AcDbVertex
100
AcDb2dVertex
 10
-512.07738505036025
 20
-1427.4999632915565
 30
0.0
  0
SEQEND
  5
40A
100
AcDbEntity
  8
IMPORTED
  6
STYLE_02
 62
              30
  0
POLYLINE
  5
40C
100
AcDbEntity
  8
IMPORTED
  6
STYLE_02
 62
              30
100
AcDb2dPolyline
 66
               1
 10
0.0
 20
0.0
 30
0.0
 70
               1
 75
               5
  0
VERTEX
  5
40D
100
AcDbEntity
  8
IMPORTED
  6
STYLE_02
 62
              30
100
AcDbVertex
100
AcDb2dVertex
 10
-575.49988505036015
 20
-1428.6764632915563
 30
0.0
  0
VERTEX
  5
40E
100
AcDbEntity
  8
IMPORTED
  6
STYLE_02
 62
              30
100
AcDbVertex
100
AcDb2dVertex
 10
-571.32338505036012
 20
-1424.4999632915565
 30
0.0
  0
VERTEX
  5
40F
100
AcDbEntity
  8
IMPORTED
  6
STYLE_02
 62
              30
100
AcDbVertex
100
AcDb2dVertex
 10
-508.67638505036018
 20
-1424.4999632915565
 30
0.0
  0
VERTEX
  5
410
100
AcDbEntity
  8
IMPORTED
  6
STYLE_02
 62
              30
100
AcDbVertex
100
AcDb2dVertex
 10
-504.49988505036015
 20
-1428.6764632915563
 30
0.0
  0
VERTEX
  5
411
100
AcDbEntity
  8
IMPORTED
  6
STYLE_02
 62
              30
100
AcDbVertex
100
AcDb2dVertex
 10
-504.49988505036015
 20
-1491.3234632915564
 30
0.0
  0
VERTEX
  5
412
100
AcDbEntity
  8
IMPORTED
  6
STYLE_02
 62
              30
100
AcDbVertex
100
AcDb2dVertex
 10
-508.67638505036018
 20
-1495.4999632915565
 30
0.0
  0
VERTEX
  5
413
100
AcDbEntity
  8
IMPORTED
  6
STYLE_02
 62
              30
100
AcDbVertex
100
AcDb2dVertex
 10
-571.32338505036012
 20
-1495.4999632915565
 30
0.0
  0
VERTEX
  5
414
100
AcDbEntity
  8
IMPORTED
  6
STYLE_02
 62
              30
100
AcDbVertex
100
AcDb2dVertex
 10
-575.49988505036015
 20
-1491.3234632915564
 30
0.0
  0
SEQEND
  5
415
100
AcDbEntity
  8
IMPORTED
  6
STYLE_02
 62
              30
  0
POLYLINE
  5
417
100
AcDbEntity
  8
IMPORTED
  6
CONTINUOUS
 62
              30
100
AcDb2dPolyline
 66
               1
 10
0.0
 20
0.0
 30
0.0
 70
             129
  0
VERTEX
  5
418
100
AcDbEntity
  8
IMPORTED
  6
CONTINUOUS
 62
              30
100
AcDbVertex
100
AcDb2dVertex
 10
-590.49998505036012
 20
-1451.9999632915565
 30
0.0
  0
VERTEX
  5
419
100
AcDbEntity
  8
IMPORTED
  6
CONTINUOUS
 62
              30
100
AcDbVertex
100
AcDb2dVertex
 10
-584.09988505036006
 20
-1451.9999632915565
 30
0.0
  0
VERTEX
  5
41A
100
AcDbEntity
  8
IMPORTED
  6
CONTINUOUS
 62
              30
100
AcDbVertex
100
AcDb2dVertex
 10
-584.09988505036006
 20
-1467.9999632915565
 30
0.0
  0
VERTEX
  5
41B
100
AcDbEntity
  8
IMPORTED
  6
CONTINUOUS
 62
              30
100
AcDbVertex
100
AcDb2dVertex
 10
-590.49998505036012
 20
-1467.9999632915565
 30
0.0
  0
VERTEX
  5
41C
100
AcDbEntity
  8
IMPORTED
  6
CONTINUOUS
 62
              30
100
AcDbVertex
100
AcDb2dVertex
 10
-592.89848505036014
 20
-1467.9999632915565
 30
0.0
  0
VERTEX
  5
41D
100
AcDbEntity
  8
IMPORTED
  6
CONTINUOUS
 62
              30
100
AcDbVertex
100
AcDb2dVertex
 10
-597.89848505036014
 20
-1462.9999632915565
 30
0.0
  0
VERTEX
  5
41E
100
AcDbEntity
  8
IMPORTED
  6
CONTINUOUS
 62
              30
100
AcDbVertex
100
AcDb2dVertex
 10
-620.39988505036024
 20
-1462.9999632915565
 30
0.0
  0
VERTEX
  5
41F
100
AcDbEntity
  8
IMPORTED
  6
CONTINUOUS
 62
              30
100
AcDbVertex
100
AcDb2dVertex
 10
-620.39988505036024
 20
-1462.9999632915565
 30
0.0
 42
-0.414213562373095
 70
               2
 50
3.1191399769264294E+17
  0
VERTEX
  5
420
100
AcDbEntity
  8
IMPORTED
  6
CONTINUOUS
 62
              30
100
AcDbVertex
100
AcDb2dVertex
 10
-623.39988505036024
 20
-1459.9999632915565
 30
0.0
  0
VERTEX
  5
421
100
AcDbEntity
  8
IMPORTED
  6
CONTINUOUS
 62
              30
100
AcDbVertex
100
AcDb2dVertex
 10
-623.39988505036024
 20
-1459.9999632915565
 30
0.0
 42
-0.414213562373095
 70
               2
  0
VERTEX
  5
422
100
AcDbEntity
  8
IMPORTED
  6
CONTINUOUS
 62
              30
100
AcDbVertex
100
AcDb2dVertex
 10
-620.39988505036024
 20
-1456.9999632915565
 30
0.0
  0
VERTEX
  5
423
100
AcDbEntity
  8
IMPORTED
  6
CONTINUOUS
 62
              30
100
AcDbVertex
100
AcDb2dVertex
 10
-597.89848505036014
 20
-1456.9999632915565
 30
0.0
  0
VERTEX
  5
424
100
AcDbEntity
  8
IMPORTED
  6
CONTINUOUS
 62
              30
100
AcDbVertex
100
AcDb2dVertex
 10
-592.89848505036014
 20
-1451.9999632915565
 30
0.0
  0
SEQEND
  5
425
100
AcDbEntity
  8
IMPORTED
  6
CONTINUOUS
 62
              30
  0
POLYLINE
  5
426
100
AcDbEntity
  8
IMPORTED
  6
STYLE_05
 62
              30
100
AcDb2dPolyline
 66
               1
 10
0.0
 20
0.0
 30
0.0
 70
               1
 75
               5
  0
VERTEX
  5
427
100
AcDbEntity
  8
IMPORTED
  6
STYLE_05
 62
              30
100
AcDbVertex
100
AcDb2dVertex
 10
-584.09988505036006
 20
-1455.9999632915565
 30
0.0
  0
VERTEX
  5
428
100
AcDbEntity
  8
IMPORTED
  6
STYLE_05
 62
              30
100
AcDbVertex
100
AcDb2dVertex
 10
-568.09988505036006
 20
-1455.9999632915565
 30
0.0
  0
VERTEX
  5
429
100
AcDbEntity
  8
IMPORTED
  6
STYLE_05
 62
              30
100
AcDbVertex
100
AcDb2dVertex
 10
-568.09988505036006
 20
-1463.9999632915565
 30
0.0
  0
VERTEX
  5
42A
100
AcDbEntity
  8
IMPORTED
  6
STYLE_05
 62
              30
100
AcDbVertex
100
AcDb2dVertex
 10
-584.09988505036006
 20
-1463.9999632915565
 30
0.0
  0
SEQEND
  5
42B
100
AcDbEntity
  8
IMPORTED
  6
STYLE_05
 62
              30
  0
LINE
  5
42D
100
AcDbEntity
  8
IMPORTED
  6
STYLE_05
 62
              30
100
AcDbLine
 10
-580.09988505036006
 20
-1463.9999632915565
 30
0.0
 11
-580.09988505036006
 21
-1455.9999632915565
 31
0.0
  0
LINE
  5
42E
100
AcDbEntity
  8
IMPORTED
  6
STYLE_05
 62
              30
100
AcDbLine
 10
-578.09988505036006
 20
-1463.9999632915565
 30
0.0
 11
-578.09988505036006
 21
-1455.9999632915565
 31
0.0
  0
LINE
  5
42F
100
AcDbEntity
  8
IMPORTED
  6
STYLE_05
 62
              30
100
AcDbLine
 10
-576.09988505036006
 20
-1463.9999632915565
 30
0.0
 11
-576.09988505036006
 21
-1455.9999632915565
 31
0.0
  0
LINE
  5
430
100
AcDbEntity
  8
IMPORTED
  6
STYLE_05
 62
              30
100
AcDbLine
 10
-574.09988505036006
 20
-1463.9999632915565
 30
0.0
 11
-574.09988505036006
 21
-1455.9999632915565
 31
0.0
  0
LINE
  5
431
100
AcDbEntity
  8
IMPORTED
  6
STYLE_05
 62
              30
100
AcDbLine
 10
-572.09988505036006
 20
-1463.9999632915565
 30
0.0
 11
-572.09988505036006
 21
-1455.9999632915565
 31
0.0
  0
LINE
  5
432
100
AcDbEntity
  8
IMPORTED
  6
STYLE_05
 62
              30
100
AcDbLine
 10
-570.09988505036006
 20
-1463.9999632915565
 30
0.0
 11
-570.09988505036006
 21
-1455.9999632915565
 31
0.0
  0
POLYLINE
  5
433
100
AcDbEntity
  8
IMPORTED
  6
STYLE_05
 62
              30
100
AcDb2dPolyline
 66
               1
 10
0.0
 20
0.0
 30
0.0
 70
               1
 75
               5
  0
VERTEX
  5
434
100
AcDbEntity
  8
IMPORTED
  6
STYLE_05
 62
              30
100
AcDbVertex
100
AcDb2dVertex
 10
-572.49988505036015
 20
-1448.4999632915565
 30
0.0
  0
VERTEX
  5
435
100
AcDbEntity
  8
IMPORTED
  6
STYLE_05
 62
              30
100
AcDbVertex
100
AcDb2dVertex
 10
-567.09988505036006
 20
-1448.4999632915565
 30
0.0
  0
VERTEX
  5
436
100
AcDbEntity
  8
IMPORTED
  6
STYLE_05
 62
              30
100
AcDbVertex
100
AcDb2dVertex
 10
-567.09988505036006
 20
-1479.4999632915565
 30
0.0
  0
VERTEX
  5
437
100
AcDbEntity
  8
IMPORTED
  6
STYLE_05
 62
              30
100
AcDbVertex
100
AcDb2dVertex
 10
-572.49988505036015
 20
-1479.4999632915565
 30
0.0
  0
SEQEND
  5
438
100
AcDbEntity
  8
IMPORTED
  6
STYLE_05
 62
              30
  0
POLYLINE
  5
43A
100
AcDbEntity
  8
IMPORTED
  6
CONTINUOUS
 62
              30
100
AcDb2dPolyline
 66
               1
 10
0.0
 20
0.0
 30
0.0
 70
             129
  0
VERTEX
  5
43B
100
AcDbEntity
  8
IMPORTED
  6
CONTINUOUS
 62
              30
100
AcDbVertex
100
AcDb2dVertex
 10
-584.09988505036006
 20
-1443.9999632915565
 30
0.0
  0
VERTEX
  5
43C
100
AcDbEntity
  8
IMPORTED
  6
CONTINUOUS
 62
              30
100
AcDbVertex
100
AcDb2dVertex
 10
-582.49988505036015
 20
-1443.9999632915565
 30
0.0
  0
VERTEX
  5
43D
100
AcDbEntity
  8
IMPORTED
  6
CONTINUOUS
 62
              30
100
AcDbVertex
100
AcDb2dVertex
 10
-582.49988505036015
 20
-1475.9999632915565
 30
0.0
  0
VERTEX
  5
43E
100
AcDbEntity
  8
IMPORTED
  6
CONTINUOUS
 62
              30
100
AcDbVertex
100
AcDb2dVertex
 10
-584.09988505036006
 20
-1475.9999632915565
 30
0.0
  0
VERTEX
  5
43F
100
AcDbEntity
  8
IMPORTED
  6
CONTINUOUS
 62
              30
100
AcDbVertex
100
AcDb2dVertex
 10
-584.09988505036006
 20
-1443.9999632915565
 30
0.0
  0
SEQEND
  5
440
100
AcDbEntity
  8
IMPORTED
  6
CONTINUOUS
 62
              30
  0
POLYLINE
  5
441
100
AcDbEntity
  8
IMPORTED
  6
CONTINUOUS
 62
              30
100
AcDb2dPolyline
 66
               1
 10
0.0
 20
0.0
 30
0.0
 70
             129
  0
VERTEX
  5
442
100
AcDbEntity
  8
IMPORTED
  6
CONTINUOUS
 62
              30
100
AcDbVertex
100
AcDb2dVertex
 10
-489.49978505036017
 20
-1451.9999632915565
 30
0.0
  0
VERTEX
  5
443
100
AcDbEntity
  8
IMPORTED
  6
CONTINUOUS
 62
              30
100
AcDbVertex
100
AcDb2dVertex
 10
-495.89988505036024
 20
-1451.9999632915565
 30
0.0
  0
VERTEX
  5
444
100
AcDbEntity
  8
IMPORTED
  6
CONTINUOUS
 62
              30
100
AcDbVertex
100
AcDb2dVertex
 10
-495.89988505036024
 20
-1467.9999632915565
 30
0.0
  0
VERTEX
  5
445
100
AcDbEntity
  8
IMPORTED
  6
CONTINUOUS
 62
              30
100
AcDbVertex
100
AcDb2dVertex
 10
-489.49978505036017
 20
-1467.9999632915565
 30
0.0
  0
VERTEX
  5
446
100
AcDbEntity
  8
IMPORTED
  6
CONTINUOUS
 62
              30
100
AcDbVertex
100
AcDb2dVertex
 10
-487.10128505036016
 20
-1467.9999632915565
 30
0.0
  0
VERTEX
  5
447
100
AcDbEntity
  8
IMPORTED
  6
CONTINUOUS
 62
              30
100
AcDbVertex
100
AcDb2dVertex
 10
-482.10128505036016
 20
-1462.9999632915565
 30
0.0
  0
VERTEX
  5
448
100
AcDbEntity
  8
IMPORTED
  6
CONTINUOUS
 62
              30
100
AcDbVertex
100
AcDb2dVertex
 10
-459.59988505036006
 20
-1462.9999632915565
 30
0.0
  0
VERTEX
  5
449
100
AcDbEntity
  8
IMPORTED
  6
CONTINUOUS
 62
              30
100
AcDbVertex
100
AcDb2dVertex
 10
-459.59988505036006
 20
-1462.9999632915565
 30
0.0
 42
0.414213562373095
 70
               2
 50
3.1191399769264294E+17
  0
VERTEX
  5
44A
100
AcDbEntity
  8
IMPORTED
  6
CONTINUOUS
 62
              30
100
AcDbVertex
100
AcDb2dVertex
 10
-456.59988505036006
 20
-1459.9999632915565
 30
0.0
  0
VERTEX
  5
44B
100
AcDbEntity
  8
IMPORTED
  6
CONTINUOUS
 62
              30
100
AcDbVertex
100
AcDb2dVertex
 10
-456.59988505036006
 20
-1459.9999632915565
 30
0.0
 42
0.414213562373095
 70
               2
  0
VERTEX
  5
44C
100
AcDbEntity
  8
IMPORTED
  6
CONTINUOUS
 62
              30
100
AcDbVertex
100
AcDb2dVertex
 10
-459.59988505036006
 20
-1456.9999632915565
 30
0.0
  0
VERTEX
  5
44D
100
AcDbEntity
  8
IMPORTED
  6
CONTINUOUS
 62
              30
100
AcDbVertex
100
AcDb2dVertex
 10
-482.10128505036016
 20
-1456.9999632915565
 30
0.0
  0
VERTEX
  5
44E
100
AcDbEntity
  8
IMPORTED
  6
CONTINUOUS
 62
              30
100
AcDbVertex
100
AcDb2dVertex
 10
-487.10128505036016
 20
-1451.9999632915565
 30
0.0
  0
SEQEND
  5
44F
100
AcDbEntity
  8
IMPORTED
  6
CONTINUOUS
 62
              30
  0
POLYLINE
  5
450
100
AcDbEntity
  8
IMPORTED
  6
STYLE_05
 62
              30
100
AcDb2dPolyline
 66
               1
 10
0.0
 20
0.0
 30
0.0
 70
               1
 75
               5
  0
VERTEX
  5
451
100
AcDbEntity
  8
IMPORTED
  6
STYLE_05
 62
              30
100
AcDbVertex
100
AcDb2dVertex
 10
-511.89988505036024
 20
-1455.9999632915565
 30
0.0
  0
VERTEX
  5
452
100
AcDbEntity
  8
IMPORTED
  6
STYLE_05
 62
              30
100
AcDbVertex
100
AcDb2dVertex
 10
-495.89988505036024
 20
-1455.9999632915565
 30
0.0
  0
VERTEX
  5
453
100
AcDbEntity
  8
IMPORTED
  6
STYLE_05
 62
              30
100
AcDbVertex
100
AcDb2dVertex
 10
-495.89988505036024
 20
-1463.9999632915565
 30
0.0
  0
VERTEX
  5
454
100
AcDbEntity
  8
IMPORTED
  6
STYLE_05
 62
              30
100
AcDbVertex
100
AcDb2dVertex
 10
-511.89988505036024
 20
-1463.9999632915565
 30
0.0
  0
SEQEND
  5
455
100
AcDbEntity
  8
IMPORTED
  6
STYLE_05
 62
              30
  0
LINE
  5
457
100
AcDbEntity
  8
IMPORTED
  6
STYLE_05
 62
              30
100
AcDbLine
 10
-499.89988505036024
 20
-1463.9999632915565
 30
0.0
 11
-499.89988505036024
 21
-1455.9999632915565
 31
0.0
  0
LINE
  5
458
100
AcDbEntity
  8
IMPORTED
  6
STYLE_05
 62
              30
100
AcDbLine
 10
-501.89988505036024
 20
-1463.9999632915565
 30
0.0
 11
-501.89988505036024
 21
-1455.9999632915565
 31
0.0
  0
LINE
  5
459
100
AcDbEntity
  8
IMPORTED
  6
STYLE_05
 62
              30
100
AcDbLine
 10
-503.89988505036024
 20
-1463.9999632915565
 30
0.0
 11
-503.89988505036024
 21
-1455.9999632915565
 31
0.0
  0
LINE
  5
45A
100
AcDbEntity
  8
IMPORTED
  6
STYLE_05
 62
              30
100
AcDbLine
 10
-505.89988505036024
 20
-1463.9999632915565
 30
0.0
 11
-505.89988505036024
 21
-1455.9999632915565
 31
0.0
  0
LINE
  5
45B
100
AcDbEntity
  8
IMPORTED
  6
STYLE_05
 62
              30
100
AcDbLine
 10
-507.89988505036024
 20
-1463.9999632915565
 30
0.0
 11
-507.89988505036024
 21
-1455.9999632915565
 31
0.0
  0
LINE
  5
45C
100
AcDbEntity
  8
IMPORTED
  6
STYLE_05
 62
              30
100
AcDbLine
 10
-509.89988505036024
 20
-1463.9999632915565
 30
0.0
 11
-509.89988505036024
 21
-1455.9999632915565
 31
0.0
  0
POLYLINE
  5
45D
100
AcDbEntity
  8
IMPORTED
  6
STYLE_05
 62
              30
100
AcDb2dPolyline
 66
               1
 10
0.0
 20
0.0
 30
0.0
 70
               1
 75
               5
  0
VERTEX
  5
45E
100
AcDbEntity
  8
IMPORTED
  6
STYLE_05
 62
              30
100
AcDbVertex
100
AcDb2dVertex
 10
-512.89988505036024
 20
-1448.4999632915565
 30
0.0
  0
VERTEX
  5
45F
100
AcDbEntity
  8
IMPORTED
  6
STYLE_05
 62
              30
100
AcDbVertex
100
AcDb2dVertex
 10
-507.49988505036015
 20
-1448.4999632915565
 30
0.0
  0
VERTEX
  5
460
100
AcDbEntity
  8
IMPORTED
  6
STYLE_05
 62
              30
100
AcDbVertex
100
AcDb2dVertex
 10
-507.49988505036015
 20
-1479.4999632915565
 30
0.0
  0
VERTEX
  5
461
100
AcDbEntity
  8
IMPORTED
  6
STYLE_05
 62
              30
100
AcDbVertex
100
AcDb2dVertex
 10
-512.89988505036024
 20
-1479.4999632915565
 30
0.0
  0
SEQEND
  5
462
100
AcDbEntity
  8
IMPORTED
  6
STYLE_05
 62
              30
  0
POLYLINE
  5
464
100
AcDbEntity
  8
IMPORTED
  6
CONTINUOUS
 62
              30
100
AcDb2dPolyline
 66
               1
 10
0.0
 20
0.0
 30
0.0
 70
             129
  0
VERTEX
  5
465
100
AcDbEntity
  8
IMPORTED
  6
CONTINUOUS
 62
              30
100
AcDbVertex
100
AcDb2dVertex
 10
-495.89988505036024
 20
-1443.9999632915565
 30
0.0
  0
VERTEX
  5
466
100
AcDbEntity
  8
IMPORTED
  6
CONTINUOUS
 62
              30
100
AcDbVertex
100
AcDb2dVertex
 10
-497.49988505036015
 20
-1443.9999632915565
 30
0.0
  0
VERTEX
  5
467
100
AcDbEntity
  8
IMPORTED
  6
CONTINUOUS
 62
              30
100
AcDbVertex
100
AcDb2dVertex
 10
-497.49988505036015
 20
-1475.9999632915565
 30
0.0
  0
VERTEX
  5
468
100
AcDbEntity
  8
IMPORTED
  6
CONTINUOUS
 62
              30
100
AcDbVertex
100
AcDb2dVertex
 10
-495.89988505036024
 20
-1475.9999632915565
 30
0.0
  0
VERTEX
  5
469
100
AcDbEntity
  8
IMPORTED
  6
CONTINUOUS
 62
              30
100
AcDbVertex
100
AcDb2dVertex
 10
-495.89988505036024
 20
-1443.9999632915565
 30
0.0
  0
SEQEND
  5
46A
100
AcDbEntity
  8
IMPORTED
  6
CONTINUOUS
 62
              30
  0
MTEXT
  5
46B
100
AcDbEntity
  8
IMPORTED
 62
              30
100
AcDbMText
 10
1327.0318547110978
 20
-1929.2278615512791
 30
0.0
 40
54.294704861111114
 41
0.0
 71
               1
 72
               1
  1
※特記事項\P\P・ESWは、木粉50％以上、ポリプロピレン40％以上の配合で、\P  表面をサンディング加工した再生木材「EINスーパーウッド」の略称。
  7
_______
  0
ENDSEC
  0
SECTION
  2
OBJECTS
  0
DICTIONARY
  5
19
100
AcDbDictionary
  3
ACAD_GROUP
350
1A
  3
ACAD_MLINESTYLE
350
1B
  0
DICTIONARY
  5
1A
102
{ACAD_REACTORS
330
19
102
}
100
AcDbDictionary
  0
DICTIONARY
  5
1B
102
{ACAD_REACTORS
330
19
102
}
100
AcDbDictionary
  3
STANDARD
350
1C
  0
MLINESTYLE
  5
1C
102
{ACAD_REACTORS
330
1B
102
}
100
AcDbMlineStyle
  2
STANDARD
 70
               0
  3

 62
               0
 51
90.0
 52
90.0
 71
               2
 49
0.5
 62
             256
  6
BYLAYER
 49
-0.5
 62
             256
  6
BYLAYER
  0
ENDSEC
  0
EOF
