  0
SECTION
  2
HEADER
  9
$ACADVER
  1
AC1012
  9
$DWGCODEPAGE
  3
dos932
  9
$INSBASE
 10
0.0
 20
0.0
 30
0.0
  9
$EXTMIN
 10
-2918.9999463938916
 20
-2061.5000664659178
 30
0.0
  9
$EXTMAX
 10
2931.0000536061079
 20
2063.4999335340817
 30
0.0
  9
$LIMMIN
 10
0.0
 20
0.0
  9
$LIMMAX
 10
0.0
 20
0.0
  9
$ORTHOMODE
 70
               0
  9
$REGENMODE
 70
               1
  9
$FILLMODE
 70
               1
  9
$QTEXTMODE
 70
               0
  9
$MIRRTEXT
 70
               1
  9
$DRAGMODE
 70
               2
  9
$LTSCALE
 40
76.199999999999989
  9
$OSMODE
 70
               0
  9
$ATTMODE
 70
               1
  9
$TEXTSIZE
 40
0.2
  9
$TRACEWID
 40
1.0
  9
$TEXTSTYLE
  7
STANDARD
  9
$CLAYER
  8
IMPORTED
  9
$CELTYPE
  6
CONTINUOUS
  9
$CECOLOR
 62
             256
  9
$CELTSCALE
 40
1.0
  9
$DELOBJ
 70
               1
  9
$DISPSILH
 70
               0
  9
$DIMSCALE
 40
1.0
  9
$DIMASZ
 40
0.18
  9
$DIMEXO
 40
0.0625
  9
$DIMDLI
 40
0.38
  9
$DIMRND
 40
0.0
  9
$DIMDLE
 40
0.0
  9
$DIMEXE
 40
0.18
  9
$DIMTP
 40
0.0
  9
$DIMTM
 40
0.0
  9
$DIMTXT
 40
0.18
  9
$DIMCEN
 40
0.09
  9
$DIMTSZ
 40
0.0
  9
$DIMTOL
 70
               0
  9
$DIMLIM
 70
               0
  9
$DIMTIH
 70
               1
  9
$DIMTOH
 70
               1
  9
$DIMSE1
 70
               0
  9
$DIMSE2
 70
               0
  9
$DIMTAD
 70
               0
  9
$DIMZIN
 70
               0
  9
$DIMBLK
  1

  9
$DIMASO
 70
               1
  9
$DIMSHO
 70
               1
  9
$DIMPOST
  1

  9
$DIMAPOST
  1

  9
$DIMALT
 70
               0
  9
$DIMALTD
 70
               2
  9
$DIMALTF
 40
25.399999999999999
  9
$DIMLFAC
 40
1.0
  9
$DIMTOFL
 70
               0
  9
$DIMTVP
 40
0.0
  9
$DIMTIX
 70
               0
  9
$DIMSOXD
 70
               0
  9
$DIMSAH
 70
               0
  9
$DIMBLK1
  1

  9
$DIMBLK2
  1

  9
$DIMSTYLE
  2
STANDARD
  9
$DIMCLRD
 70
               0
  9
$DIMCLRE
 70
               0
  9
$DIMCLRT
 70
               0
  9
$DIMTFAC
 40
1.0
  9
$DIMGAP
 40
0.09
  9
$DIMJUST
 70
               0
  9
$DIMSD1
 70
               0
  9
$DIMSD2
 70
               0
  9
$DIMTOLJ
 70
               1
  9
$DIMTZIN
 70
               0
  9
$DIMALTZ
 70
               0
  9
$DIMALTTZ
 70
               0
  9
$DIMFIT
 70
               3
  9
$DIMUPT
 70
               0
  9
$DIMUNIT
 70
               2
  9
$DIMDEC
 70
               4
  9
$DIMTDEC
 70
               4
  9
$DIMALTU
 70
               2
  9
$DIMALTTD
 70
               2
  9
$DIMTXSTY
  7
STANDARD
  9
$DIMAUNIT
 70
               0
  9
$LUNITS
 70
               2
  9
$LUPREC
 70
               4
  9
$SKETCHINC
 40
0.1
  9
$FILLETRAD
 40
0.0
  9
$AUNITS
 70
               0
  9
$AUPREC
 70
               0
  9
$MENU
  1
acad
  9
$ELEVATION
 40
0.0
  9
$PELEVATION
 40
0.0
  9
$THICKNESS
 40
0.0
  9
$LIMCHECK
 70
               0
  9
$BLIPMODE
 70
               0
  9
$CHAMFERA
 40
0.0
  9
$CHAMFERB
 40
0.0
  9
$CHAMFERC
 40
0.0
  9
$CHAMFERD
 40
0.0
  9
$SKPOLY
 70
               0
  9
$TDCREATE
 40
2459227.582638889
  9
$TDUPDATE
 40
2459227.582638889
  9
$TDINDWG
 40
0.0000000000
  9
$TDUSRTIMER
 40
0.0000000000
  9
$USRTIMER
 70
               1
  9
$ANGBASE
 50
0.0
  9
$ANGDIR
 70
               0
  9
$PDMODE
 70
               1
  9
$PDSIZE
 40
-2.0
  9
$PLINEWID
 40
0.0
  9
$COORDS
 70
               0
  9
$SPLFRAME
 70
               0
  9
$SPLINETYPE
 70
               6
  9
$SPLINESEGS
 70
               8
  9
$ATTDIA
 70
               0
  9
$ATTREQ
 70
               1
  9
$HANDLING
 70
               1
  9
$HANDSEED
  5
723
  9
$SURFTAB1
 70
               6
  9
$SURFTAB2
 70
               6
  9
$SURFTYPE
 70
               6
  9
$SURFU
 70
               6
  9
$SURFV
 70
               6
  9
$UCSNAME
  2

  9
$UCSORG
 10
0.0
 20
0.0
 30
0.0
  9
$UCSXDIR
 10
1.0
 20
0.0
 30
0.0
  9
$UCSYDIR
 10
0.0
 20
1.0
 30
0.0
  9
$PUCSNAME
  2

  9
$PUCSORG
 10
0.0
 20
0.0
 30
0.0
  9
$PUCSXDIR
 10
1.0
 20
0.0
 30
0.0
  9
$PUCSYDIR
 10
0.0
 20
1.0
 30
0.0
  9
$USERI1
 70
               0
  9
$USERI2
 70
               0
  9
$USERI3
 70
               0
  9
$USERI4
 70
               0
  9
$USERI5
 70
               0
  9
$USERR1
 40
0.0
  9
$USERR2
 40
0.0
  9
$USERR3
 40
0.0
  9
$USERR4
 40
0.0
  9
$USERR5
 40
0.0
  9
$WORLDVIEW
 70
               1
  9
$SHADEDGE
 70
               3
  9
$SHADEDIF
 70
              70
  9
$TILEMODE
 70
               1
  9
$MAXACTVP
 70
              64
  9
$PINSBASE
 10
0.0
 20
0.0
 30
0.0
  9
$PLIMCHECK
 70
               0
  9
$PEXTMIN
 10
1.0000000000000000E+20
 20
1.0000000000000000E+20
 30
1.0000000000000000E+20
  9
$PEXTMAX
 10
-1.0000000000000000E+20
 20
-1.0000000000000000E+20
 30
-1.0000000000000000E+20
  9
$PLIMMIN
 10
0.0
 20
0.0
  9
$PLIMMAX
 10
12.0
 20
9.0
  9
$UNITMODE
 70
               0
  9
$VISRETAIN
 70
               0
  9
$PLINEGEN
 70
               1
  9
$PSLTSCALE
 70
               0
  9
$TREEDEPTH
 70
            3020
  9
$PICKSTYLE
 70
               1
  9
$CMLSTYLE
  2
STANDARD
  9
$CMLJUST
 70
               0
  9
$CMLSCALE
 40
1.0
  9
$SAVEIMAGES
 70
               0
  0
ENDSEC
  0
SECTION
  2
CLASSES
  0
CLASS
  1
LWPOLYLINE
  2
AcDbPolyline
  3
"AutoCAD"
 90
    32768
280
               0
281
               1
  0
CLASS
  1
IMAGE
  2
AcDbRasterImage
  3
ISM
 90
    32895
280
               0
281
               1
  0
CLASS
  1
OLE2FRAME
  2
AcDbOle2Frame
  3
""
 90
    32768
280
               0
281
               1
  0
CLASS
  1
HATCH
  2
AcDbHatch
  3
"ACAD_SEDONA"
 90
    32768
280
               0
281
               1
  0
CLASS
  1
DICTIONARYVAR
  2
AcDbDictionaryVar
  3
"AutoCAD"
 90
    32768
280
               0
281
               0
  0
CLASS
  1
RASTERVARIABLES
  2
AcDbRasterVariables
  3
ISM
 90
    32768
280
               0
281
               0
  0
CLASS
  1
IMAGEDEF
  2
AcDbRasterImageDef
  3
ISM
 90
    32768
280
               0
281
               0
  0
CLASS
  1
IMAGEDEF_REACTOR
  2
AcDbRasterImageDefReactor
  3
ISM
 90
    32769
280
               0
281
               0
  0
CLASS
  1
IDBUFFER
  2
AcDbIdBuffer
  3
"Acad"
 90
    32768
280
               0
281
               0
  0
CLASS
  1
SPATIAL_FILTER
  2
AcDbSpatialFilter
  3
"Acad"
 90
    32768
280
               0
281
               0
  0
CLASS
  1
XRECORD
  2
AcDbXrecord
  3
"<Built In>"
 90
    32768
280
               0
281
               0
  0
CLASS
  1
SORTENTSTABLE
  2
AcDbSortentsTable
  3
"AutoCAD"
 90
    32768
280
               0
281
               0
  0
CLASS
  1
LAYER_INDEX
  2
AcDbLayerIndex
  3
"Acad"
 90
    32768
280
               0
281
               0
  0
CLASS
  1
SPATIAL_INDEX
  2
AcDbSpatialIndex
  3
"Acad"
 90
    32768
280
               0
281
               0
  0
CLASS
  1
OBJECT_PTR
  2
CAseDLPNTableRecord
  3
"ASE-LPNTableRecord"
 90
    32769
280
               0
281
               0
  0
CLASS
  1
LAYOUT
  2
AcDbLayout
  3
"AutoCAD 2000"
 90
    32768
280
               0
281
               0
  0
CLASS
  1
PLOTSETTINGS
  2
AcDbPlotSettings
  3
"AutoCAD 2000"
 90
    32768
280
               0
281
               0
  0
CLASS
  1
ACDBDICTIONARYWDFLT
  2
AcDbDictionaryWithDefault
  3
"AutoCAD 2000"
 90
    32768
280
               0
281
               0
  0
CLASS
  1
ACDBPLACEHOLDER
  2
AcDbPlaceHolder
  3
"AutoCAD 2000"
 90
    32768
280
               0
281
               0
  0
ENDSEC
  0
SECTION
  2
TABLES
  0
TABLE
  2
VPORT
  5
7
100
AcDbSymbolTable
 70
               1
  0
VPORT
  5
15
100
AcDbSymbolTableRecord
100
AcDbViewportTableRecord
  2
*ACTIVE
 70
               0
 10
0.0
 20
0.0
 11
1.0
 21
1.0
 12
6.0000536061083949
 22
0.9999335340821745
 13
0.0
 23
0.0
 14
1.0
 24
1.0
 15
0.0
 25
0.0
 16
0.0
 26
0.0
 36
1.0
 17
0.0
 27
0.0
 37
0.0
 40
4125.0
 41
0.688564
 42
50.0
 43
0.0
 44
0.0
 50
0.0
 51
0.0
 71
               0
 72
            2000
 73
               1
 74
               1
 75
               0
 76
               0
 77
               0
 78
               0
  0
ENDTAB
  0
TABLE
  2
LTYPE
  5
4
100
AcDbSymbolTable
 70
              13
  0
LTYPE
  5
11
100
AcDbSymbolTableRecord
100
AcDbLinetypeTableRecord
  2
BYBLOCK
 70
              64
  3

 72
              65
 73
               0
 40
0.0
  0
LTYPE
  5
12
100
AcDbSymbolTableRecord
100
AcDbLinetypeTableRecord
  2
BYLAYER
 70
              64
  3

 72
              65
 73
               0
 40
0.0
  0
LTYPE
  5
13
100
AcDbSymbolTableRecord
100
AcDbLinetypeTableRecord
  2
CONTINUOUS
 70
              64
  3
Solid line
 72
              65
 73
               0
 40
0.0
  0
LTYPE
  5
1E
100
AcDbSymbolTableRecord
100
AcDbLinetypeTableRecord
  2
STYLE_01
 70
               0
  3

 72
              65
 73
               2
 40
0.4166412353515625
 49
0.208282470703125
 74
               0
 49
-0.2083587646484375
 74
               0
  0
LTYPE
  5
1F
100
AcDbSymbolTableRecord
100
AcDbLinetypeTableRecord
  2
STYLE_02
 70
               0
  3

 72
              65
 73
               2
 40
0.694427490234375
 49
0.4860687255859375
 74
               0
 49
-0.2083587646484375
 74
               0
  0
LTYPE
  5
20
100
AcDbSymbolTableRecord
100
AcDbLinetypeTableRecord
  2
STYLE_03
 70
               0
  3

 72
              65
 73
               2
 40
1.25
 49
1.0416412353515625
 74
               0
 49
-0.2083587646484375
 74
               0
  0
LTYPE
  5
21
100
AcDbSymbolTableRecord
100
AcDbLinetypeTableRecord
  2
STYLE_04
 70
               0
  3

 72
              65
 73
               2
 40
1.5277099609375
 49
1.319427490234375
 74
               0
 49
-0.208282470703125
 74
               0
  0
LTYPE
  5
22
100
AcDbSymbolTableRecord
100
AcDbLinetypeTableRecord
  2
STYLE_05
 70
               0
  3

 72
              65
 73
               2
 40
0.208282470703125
 49
0.069427490234375
 74
               0
 49
-0.13885498046875
 74
               0
  0
LTYPE
  5
23
100
AcDbSymbolTableRecord
100
AcDbLinetypeTableRecord
  2
STYLE_06
 70
               0
  3

 72
              65
 73
               4
 40
1.0416412353515625
 49
0.625
 74
               0
 49
-0.208282470703125
 74
               0
 49
0.069427490234375
 74
               0
 49
-0.1389312744140625
 74
               0
  0
LTYPE
  5
24
100
AcDbSymbolTableRecord
100
AcDbLinetypeTableRecord
  2
STYLE_07
 70
               0
  3

 72
              65
 73
               6
 40
1.875
 49
0.625
 74
               0
 49
-0.208282470703125
 74
               0
 49
0.625
 74
               0
 49
-0.2083587646484375
 74
               0
 49
0.069427490234375
 74
               0
 49
-0.1389312744140625
 74
               0
  0
LTYPE
  5
25
100
AcDbSymbolTableRecord
100
AcDbLinetypeTableRecord
  2
STYLE_08
 70
               0
  3

 72
              65
 73
               6
 40
1.25
 49
0.625
 74
               0
 49
-0.208282470703125
 74
               0
 49
0.069427490234375
 74
               0
 49
-0.1389312744140625
 74
               0
 49
0.069427490234375
 74
               0
 49
-0.1389312744140625
 74
               0
  0
LTYPE
  5
26
100
AcDbSymbolTableRecord
100
AcDbLinetypeTableRecord
  2
STYLE_09
 70
               0
  3

 72
              65
 73
               2
 40
0.1476287841796875
 49
0.098419189453125
 74
               0
 49
-0.0492095947265625
 74
               0
  0
LTYPE
  5
27
100
AcDbSymbolTableRecord
100
AcDbLinetypeTableRecord
  2
STYLE_10
 70
               0
  3

 72
              65
 73
               6
 40
5.9375
 49
3.75
 74
               0
 49
-0.2777862548828125
 74
               0
 49
0.694427490234375
 74
               0
 49
-0.2777862548828125
 74
               0
 49
0.625
 74
               0
 49
-0.3125
 74
               0
  0
ENDTAB
  0
TABLE
  2
LAYER
  5
2
100
AcDbSymbolTable
 70
               2
  0
LAYER
  5
14
100
AcDbSymbolTableRecord
100
AcDbLayerTableRecord
  2
0
 70
               0
 62
               7
  6
CONTINUOUS
  0
LAYER
  5
28
100
AcDbSymbolTableRecord
100
AcDbLayerTableRecord
  2
IMPORTED
 70
               0
 62
               7
  6
CONTINUOUS
  0
ENDTAB
  0
TABLE
  2
STYLE
  5
3
100
AcDbSymbolTable
 70
               2
  0
STYLE
  5
17
100
AcDbSymbolTableRecord
100
AcDbTextStyleTableRecord
  2
STANDARD
 70
               0
 40
0.0
 41
1.0
 50
0.0
 71
               0
 42
0.0
  3
txt
  4
BIGFONT.SHX
  0
STYLE
  5
1D
100
AcDbSymbolTableRecord
100
AcDbTextStyleTableRecord
  2
_______
 70
               0
 40
0.0
 41
1.0
 50
0.0
 71
               0
 42
0.0
  3

  4
ＭＳ ゴシック
1001
ACAD
1000
ＭＳ ゴシック
1071
        0
  0
ENDTAB
  0
TABLE
  2
VIEW
  5
5
100
AcDbSymbolTable
 70
               0
  0
ENDTAB
  0
TABLE
  2
UCS
  5
6
100
AcDbSymbolTable
 70
               0
  0
ENDTAB
  0
TABLE
  2
APPID
  5
8
100
AcDbSymbolTable
 70
               1
  0
APPID
  5
16
100
AcDbSymbolTableRecord
100
AcDbRegAppTableRecord
  2
ACAD
 70
               0
  0
ENDTAB
  0
TABLE
  2
DIMSTYLE
  5
9
100
AcDbSymbolTable
 70
               1
  0
DIMSTYLE
105
18
100
AcDbSymbolTableRecord
100
AcDbDimStyleTableRecord
  2
STANDARD
 70
               0
  3

  4

  5

  6

  7

 40
1.0
 41
0.18
 42
0.0625
 43
0.38
 44
0.18
 45
0.0
 46
0.0
 47
0.0
 48
0.0
 71
               0
 72
               0
 73
               1
 74
               1
 75
               0
 76
               0
 77
               0
 78
               0
140
0.18
141
0.09
142
0.0
143
25.399999999999999
144
1.0
145
0.0
146
1.0
147
0.09
170
               0
171
               2
172
               0
173
               0
174
               0
175
               0
176
               0
177
               0
178
               0
270
               2
271
               4
272
               4
273
               2
274
               2
275
               0
280
               0
281
               0
282
               0
283
               1
284
               0
285
               0
286
               0
287
               3
288
               0
340
17
  0
ENDTAB
  0
TABLE
  2
BLOCK_RECORD
  5
1
100
AcDbSymbolTable
 70
               0
  0
BLOCK_RECORD
  5
A
100
AcDbSymbolTableRecord
100
AcDbBlockTableRecord
  2
*MODEL_SPACE
  0
BLOCK_RECORD
  5
B
100
AcDbSymbolTableRecord
100
AcDbBlockTableRecord
  2
*PAPER_SPACE
  0
ENDTAB
  0
ENDSEC
  0
SECTION
  2
BLOCKS
  0
BLOCK
  5
D
100
AcDbEntity
  8
0
100
AcDbBlockBegin
  2
*MODEL_SPACE
 70
               0
 10
0.0
 20
0.0
 30
0.0
  3
*MODEL_SPACE
  1

  0
ENDBLK
  5
E
100
AcDbEntity
  8
0
100
AcDbBlockEnd
  0
BLOCK
  5
F
100
AcDbEntity
 67
               1
  8
0
100
AcDbBlockBegin
  2
*PAPER_SPACE
 70
               0
 10
0.0
 20
0.0
 30
0.0
  3
*PAPER_SPACE
  1

  0
ENDBLK
  5
10
100
AcDbEntity
 67
               1
  8
0
100
AcDbBlockEnd
  0
ENDSEC
  0
SECTION
  2
ENTITIES
  0
MTEXT
  5
29
100
AcDbEntity
  8
IMPORTED
 62
               1
100
AcDbMText
 10
715.0
 20
343.67823795253395
 30
0.0
 40
24.4326171875
 41
0.0
 71
               1
 72
               1
  1
基礎コンクリート
  7
_______
  0
MTEXT
  5
2A
100
AcDbEntity
  8
IMPORTED
 62
               1
100
AcDbMText
 10
716.95705360610793
 20
230.98893795253397
 30
0.0
 40
24.4326171875
 41
0.0
 71
               1
 72
               1
  1
均しコンクリート
  7
_______
  0
MTEXT
  5
2B
100
AcDbEntity
  8
IMPORTED
 62
               1
100
AcDbMText
 10
680.95705360610793
 20
145.95128050634355
 30
0.0
 40
24.4326171875
 41
0.0
 71
               1
 72
               1
  1
再生クラッシャラン
  7
_______
  0
MTEXT
  5
2C
100
AcDbEntity
  8
IMPORTED
 62
               1
100
AcDbMText
 10
-1448.1678463938918
 20
1139.1407507215818
 30
0.0
 40
24.4326171875
 41
0.0
 71
               1
 72
               1
  1
座板 ESW150×50C{\H0.9601x;\l塗装}
  7
_______
  0
LINE
  5
2D
100
AcDbEntity
  8
IMPORTED
  6
CONTINUOUS
 62
               1
100
AcDbLine
 10
-1514.9999463938918
 20
984.99993353408172
 30
0.0
 11
-1459.9999463938918
 21
1099.9999335340819
 31
0.0
  0
LINE
  5
2E
100
AcDbEntity
  8
IMPORTED
  6
CONTINUOUS
 62
               1
100
AcDbLine
 10
-1459.9999463938918
 20
1099.9999335340819
 30
0.0
 11
-1134.0
 21
1099.9999335340819
 31
0.0
  0
MTEXT
  5
2F
100
AcDbEntity
  8
IMPORTED
 62
               1
100
AcDbMText
 10
-1384.4923828037693
 20
692.37995072158185
 30
0.0
 40
24.4326171875
 41
0.0
 71
               1
 72
               1
  1
脚 ESW100×100C{\H0.9601x;\l塗装}
  7
_______
  0
LINE
  5
30
100
AcDbEntity
  8
IMPORTED
  6
CONTINUOUS
 62
               1
100
AcDbLine
 10
-1499.9999463938918
 20
759.99993353408172
 30
0.0
 11
-1394.9999463938918
 21
654.99993353408172
 31
0.0
  0
LINE
  5
31
100
AcDbEntity
  8
IMPORTED
  6
CONTINUOUS
 62
               1
100
AcDbLine
 10
-1394.9999463938918
 20
654.99993353408172
 30
0.0
 11
-1084.0
 21
654.99993353408172
 31
0.0
  0
MTEXT
  5
32
100
AcDbEntity
  8
IMPORTED
 62
               1
100
AcDbMText
 10
-1353.9097463938917
 20
811.23415072158184
 30
0.0
 40
24.4326171875
 41
0.0
 71
               1
 72
               1
  1
ESW95×50C{\H0.9601x;\l塗装}
  7
_______
  0
LINE
  5
33
100
AcDbEntity
  8
IMPORTED
  6
CONTINUOUS
 62
               1
100
AcDbLine
 10
-1444.9999463938918
 20
846.99993353408172
 30
0.0
 11
-1361.9999463938918
 21
773.82303353408179
 31
0.0
  0
LINE
  5
34
100
AcDbEntity
  8
IMPORTED
  6
CONTINUOUS
 62
               1
100
AcDbLine
 10
-1361.9999463938918
 20
773.82303353408179
 30
0.0
 11
-1134.0
 21
773.82303353408179
 31
0.0
  0
LINE
  5
35
100
AcDbEntity
  8
IMPORTED
  6
CONTINUOUS
 62
               1
100
AcDbLine
 10
-1369.3500463938917
 20
405.65303353408183
 30
0.0
 11
-1092.0
 21
405.65303353408183
 31
0.0
  0
MTEXT
  5
36
100
AcDbEntity
  8
IMPORTED
 62
               1
100
AcDbMText
 10
-1360.1101463938919
 20
445.03295072158181
 30
0.0
 40
24.4326171875
 41
0.0
 71
               1
 72
               1
  1
樹脂発泡シート巻
  7
_______
  0
LINE
  5
37
100
AcDbEntity
  8
IMPORTED
  6
CONTINUOUS
 62
               1
100
AcDbLine
 10
-1525.8251463938918
 20
492.08993353408187
 30
0.0
 11
-1369.3501463938919
 21
405.65293353408185
 31
0.0
  0
LINE
  5
38
100
AcDbEntity
  8
IMPORTED
  6
CONTINUOUS
 62
               1
100
AcDbLine
 10
-62.499946561530074
 20
-819.99996646591808
 30
0.0
 11
121.99999988824128
 21
-819.99996646591808
 31
0.0
  0
LINE
  5
39
100
AcDbEntity
  8
IMPORTED
  6
CONTINUOUS
 62
               1
100
AcDbLine
 10
-62.499946561530074
 20
-669.99996646591808
 30
0.0
 11
121.99999988824128
 21
-669.99996646591808
 31
0.0
  0
LINE
  5
3A
100
AcDbEntity
  8
IMPORTED
  6
CONTINUOUS
 62
               1
100
AcDbLine
 10
91.999999999999986
 20
-849.99996635415937
 30
0.0
 11
91.999999999999986
 21
-819.99996646591808
 31
0.0
  0
LINE
  5
3B
100
AcDbEntity
  8
IMPORTED
  6
CONTINUOUS
 62
               1
100
AcDbLine
 10
91.999999999999986
 20
-669.99996646591808
 30
0.0
 11
91.999999999999986
 21
-639.99996657767679
 31
0.0
  0
LINE
  5
3C
100
AcDbEntity
  8
IMPORTED
  6
CONTINUOUS
 62
               1
100
AcDbLine
 10
91.999999999999986
 20
-819.99996646591808
 30
0.0
 11
91.999999999999986
 21
-669.99996646591808
 31
0.0
  0
SOLID
  5
3D
100
AcDbEntity
  8
IMPORTED
 62
               1
100
AcDbTrace
 10
91.999999999999986
 20
-819.99996646591808
 30
0.0
 11
89.375500290749713
 21
-790.00179752060558
 31
0.0
 12
94.624499709250259
 22
-790.00179752060558
 32
0.0
 13
94.624499709250259
 23
-790.00179752060558
 33
0.0
  0
SOLID
  5
3E
100
AcDbEntity
  8
IMPORTED
 62
               1
100
AcDbTrace
 10
91.999999999999986
 20
-669.99996646591808
 30
0.0
 11
94.624499709250259
 21
-699.99813541123058
 31
0.0
 12
89.375500290749713
 22
-699.99813541123058
 32
0.0
 13
89.375500290749713
 23
-699.99813541123058
 33
0.0
  0
MTEXT
  5
3F
100
AcDbEntity
  8
IMPORTED
 62
               1
100
AcDbMText
 10
48.12238286837934
 20
-768.81246646591808
 30
0.0
 40
24.432617187500004
 41
0.0
 71
               1
 72
               1
  1
150
  7
_______
 11
0.0
 21
1.0
 31
0.0
  0
LINE
  5
40
100
AcDbEntity
  8
IMPORTED
  6
CONTINUOUS
 62
               1
100
AcDbLine
 10
-59.999946561530074
 20
-824.99996646591808
 30
0.0
 11
121.99999988824128
 21
-824.99996646591808
 31
0.0
  0
LINE
  5
41
100
AcDbEntity
  8
IMPORTED
  6
CONTINUOUS
 62
               1
100
AcDbLine
 10
-62.499946561530074
 20
-819.99996646591808
 30
0.0
 11
121.99999988824128
 21
-819.99996646591808
 31
0.0
  0
LINE
  5
42
100
AcDbEntity
  8
IMPORTED
  6
CONTINUOUS
 62
               1
100
AcDbLine
 10
91.999999999999986
 20
-854.99996635415937
 30
0.0
 11
91.999999999999986
 21
-824.99996646591808
 31
0.0
  0
LINE
  5
43
100
AcDbEntity
  8
IMPORTED
  6
CONTINUOUS
 62
               1
100
AcDbLine
 10
91.999999999999986
 20
-819.99996646591808
 30
0.0
 11
91.999999999999986
 21
-789.99996657767679
 31
0.0
  0
LINE
  5
44
100
AcDbEntity
  8
IMPORTED
  6
CONTINUOUS
 62
               1
100
AcDbLine
 10
91.999999999999986
 20
-824.99996646591808
 30
0.0
 11
91.999999999999986
 21
-852.87499999999989
 31
0.0
  0
LINE
  5
45
100
AcDbEntity
  8
IMPORTED
  6
CONTINUOUS
 62
               1
100
AcDbLine
 10
91.999999999999986
 20
-824.99996646591808
 30
0.0
 11
91.999999999999986
 21
-819.99996646591808
 31
0.0
  0
SOLID
  5
46
100
AcDbEntity
  8
IMPORTED
 62
               1
100
AcDbTrace
 10
91.999999999999986
 20
-824.99996646591808
 30
0.0
 11
89.375500290749713
 21
-795.00179752060558
 31
0.0
 12
94.624499709250259
 22
-795.00179752060558
 32
0.0
 13
94.624499709250259
 23
-795.00179752060558
 33
0.0
  0
SOLID
  5
47
100
AcDbEntity
  8
IMPORTED
 62
               1
100
AcDbTrace
 10
91.999999999999986
 20
-819.99996646591808
 30
0.0
 11
94.624499709250259
 21
-849.99813541123058
 31
0.0
 12
89.375500290749713
 22
-849.99813541123058
 32
0.0
 13
89.375500290749713
 23
-849.99813541123058
 33
0.0
  0
MTEXT
  5
48
100
AcDbEntity
  8
IMPORTED
 62
               1
100
AcDbMText
 10
48.12238286837934
 20
-852.87499999999989
 30
0.0
 40
24.432617187500004
 41
0.0
 71
               1
 72
               1
  1
5
  7
_______
 11
0.0
 21
1.0
 31
0.0
  0
LINE
  5
49
100
AcDbEntity
  8
IMPORTED
  6
CONTINUOUS
 62
               1
100
AcDbLine
 10
-1694.9999462262538
 20
-1089.9999664659179
 30
0.0
 11
-2077.9999998882413
 21
-1089.9999664659179
 31
0.0
  0
LINE
  5
4A
100
AcDbEntity
  8
IMPORTED
  6
CONTINUOUS
 62
               1
100
AcDbLine
 10
-1694.9999462262538
 20
-709.99996646591808
 30
0.0
 11
-2077.9999998882413
 21
-709.99996646591808
 31
0.0
  0
LINE
  5
4B
100
AcDbEntity
  8
IMPORTED
  6
CONTINUOUS
 62
               1
100
AcDbLine
 10
-2048.0
 20
-1119.9999663541591
 30
0.0
 11
-2048.0
 21
-1089.9999664659179
 31
0.0
  0
LINE
  5
4C
100
AcDbEntity
  8
IMPORTED
  6
CONTINUOUS
 62
               1
100
AcDbLine
 10
-2048.0
 20
-709.99996646591808
 30
0.0
 11
-2048.0
 21
-679.99996657767679
 31
0.0
  0
LINE
  5
4D
100
AcDbEntity
  8
IMPORTED
  6
CONTINUOUS
 62
               1
100
AcDbLine
 10
-2048.0
 20
-1089.9999664659179
 30
0.0
 11
-2048.0
 21
-709.99996646591808
 31
0.0
  0
SOLID
  5
4E
100
AcDbEntity
  8
IMPORTED
 62
               1
100
AcDbTrace
 10
-2048.0
 20
-1089.9999664659179
 30
0.0
 11
-2050.6244997092504
 21
-1060.0017975206054
 31
0.0
 12
-2045.3755002907496
 22
-1060.0017975206054
 32
0.0
 13
-2045.3755002907496
 23
-1060.0017975206054
 33
0.0
  0
SOLID
  5
4F
100
AcDbEntity
  8
IMPORTED
 62
               1
100
AcDbTrace
 10
-2048.0
 20
-709.99996646591808
 30
0.0
 11
-2045.3755002907496
 21
-739.99813541123058
 31
0.0
 12
-2050.6244997092504
 22
-739.99813541123058
 32
0.0
 13
-2050.6244997092504
 23
-739.99813541123058
 33
0.0
  0
MTEXT
  5
50
100
AcDbEntity
  8
IMPORTED
 62
               1
100
AcDbMText
 10
-2091.8776171316208
 20
-923.81246646591796
 30
0.0
 40
24.432617187500004
 41
0.0
 71
               1
 72
               1
  1
380
  7
_______
 11
0.0
 21
1.0
 31
0.0
  0
LINE
  5
51
100
AcDbEntity
  8
IMPORTED
  6
CONTINUOUS
 62
               1
100
AcDbLine
 10
-1937.4999462262538
 20
-669.99996646591808
 30
0.0
 11
-2169.9999998882413
 21
-669.99996646591808
 31
0.0
  0
LINE
  5
52
100
AcDbEntity
  8
IMPORTED
  6
CONTINUOUS
 62
               1
100
AcDbLine
 10
-1937.4999462262538
 20
-1129.9999664659179
 30
0.0
 11
-2169.9999998882413
 21
-1129.9999664659179
 31
0.0
  0
LINE
  5
53
100
AcDbEntity
  8
IMPORTED
  6
CONTINUOUS
 62
               1
100
AcDbLine
 10
-2140.0
 20
-639.99996657767679
 30
0.0
 11
-2140.0
 21
-669.99996646591808
 31
0.0
  0
LINE
  5
54
100
AcDbEntity
  8
IMPORTED
  6
CONTINUOUS
 62
               1
100
AcDbLine
 10
-2140.0
 20
-1129.9999664659179
 30
0.0
 11
-2140.0
 21
-1159.9999663541591
 31
0.0
  0
LINE
  5
55
100
AcDbEntity
  8
IMPORTED
  6
CONTINUOUS
 62
               1
100
AcDbLine
 10
-2140.0
 20
-669.99996646591808
 30
0.0
 11
-2140.0
 21
-1129.9999664659179
 31
0.0
  0
SOLID
  5
56
100
AcDbEntity
  8
IMPORTED
 62
               1
100
AcDbTrace
 10
-2140.0
 20
-669.99996646591808
 30
0.0
 11
-2137.3755002907496
 21
-699.99813541123058
 31
0.0
 12
-2142.6244997092504
 22
-699.99813541123058
 32
0.0
 13
-2142.6244997092504
 23
-699.99813541123058
 33
0.0
  0
SOLID
  5
57
100
AcDbEntity
  8
IMPORTED
 62
               1
100
AcDbTrace
 10
-2140.0
 20
-1129.9999664659179
 30
0.0
 11
-2142.6244997092504
 21
-1100.0017975206054
 31
0.0
 12
-2137.3755002907496
 22
-1100.0017975206054
 32
0.0
 13
-2137.3755002907496
 23
-1100.0017975206054
 33
0.0
  0
MTEXT
  5
58
100
AcDbEntity
  8
IMPORTED
 62
               1
100
AcDbMText
 10
-2183.8776171316208
 20
-923.81246646591796
 30
0.0
 40
24.432617187500004
 41
0.0
 71
               1
 72
               1
  1
460
  7
_______
 11
0.0
 21
1.0
 31
0.0
  0
LINE
  5
59
100
AcDbEntity
  8
IMPORTED
  6
CONTINUOUS
 62
               1
100
AcDbLine
 10
-1899.9999463938918
 20
-1169.9999662982798
 30
0.0
 11
-1899.9999463938918
 21
-1439.9999998882413
 31
0.0
  0
LINE
  5
5A
100
AcDbEntity
  8
IMPORTED
  6
CONTINUOUS
 62
               1
100
AcDbLine
 10
-99.999946393892017
 20
-1169.9999662982798
 30
0.0
 11
-99.999946393892017
 21
-1439.9999998882413
 31
0.0
  0
LINE
  5
5B
100
AcDbEntity
  8
IMPORTED
  6
CONTINUOUS
 62
               1
100
AcDbLine
 10
-1929.9999462821331
 20
-1410.0
 30
0.0
 11
-1899.9999463938918
 21
-1410.0
 31
0.0
  0
LINE
  5
5C
100
AcDbEntity
  8
IMPORTED
  6
CONTINUOUS
 62
               1
100
AcDbLine
 10
-99.999946393892017
 20
-1410.0
 30
0.0
 11
-69.999946505650726
 21
-1410.0
 31
0.0
  0
LINE
  5
5D
100
AcDbEntity
  8
IMPORTED
  6
CONTINUOUS
 62
               1
100
AcDbLine
 10
-1899.9999463938918
 20
-1410.0
 30
0.0
 11
-99.999946393892017
 21
-1410.0
 31
0.0
  0
SOLID
  5
5E
100
AcDbEntity
  8
IMPORTED
 62
               1
100
AcDbTrace
 10
-1899.9999463938918
 20
-1410.0
 30
0.0
 11
-1870.0017774485793
 21
-1407.3755002907496
 31
0.0
 12
-1870.0017774485793
 22
-1412.6244997092504
 32
0.0
 13
-1870.0017774485793
 23
-1412.6244997092504
 33
0.0
  0
SOLID
  5
5F
100
AcDbEntity
  8
IMPORTED
 62
               1
100
AcDbTrace
 10
-99.999946393892017
 20
-1410.0
 30
0.0
 11
-129.99811533920453
 21
-1412.6244997092504
 31
0.0
 12
-129.99811533920453
 22
-1407.3755002907496
 32
0.0
 13
-129.99811533920453
 23
-1407.3755002907496
 33
0.0
  0
MTEXT
  5
60
100
AcDbEntity
  8
IMPORTED
 62
               1
100
AcDbMText
 10
-1031.7499463938918
 20
-1366.1223828683794
 30
0.0
 40
24.432617187500004
 41
0.0
 71
               1
 72
               1
  1
1800
  7
_______
  0
LINE
  5
61
100
AcDbEntity
  8
IMPORTED
  6
CONTINUOUS
 62
               1
100
AcDbLine
 10
1123.499953606108
 20
339.9999337017199
 30
0.0
 11
1123.499953606108
 21
88.000000111758695
 31
0.0
  0
LINE
  5
62
100
AcDbEntity
  8
IMPORTED
  6
CONTINUOUS
 62
               1
100
AcDbLine
 10
1703.499953606108
 20
339.9999337017199
 30
0.0
 11
1703.499953606108
 21
88.000000111758695
 31
0.0
  0
LINE
  5
63
100
AcDbEntity
  8
IMPORTED
  6
CONTINUOUS
 62
               1
100
AcDbLine
 10
1093.4999537178667
 20
117.99999999999999
 30
0.0
 11
1123.499953606108
 21
117.99999999999999
 31
0.0
  0
LINE
  5
64
100
AcDbEntity
  8
IMPORTED
  6
CONTINUOUS
 62
               1
100
AcDbLine
 10
1703.499953606108
 20
117.99999999999999
 30
0.0
 11
1733.4999534943493
 21
117.99999999999999
 31
0.0
  0
LINE
  5
65
100
AcDbEntity
  8
IMPORTED
  6
CONTINUOUS
 62
               1
100
AcDbLine
 10
1123.499953606108
 20
117.99999999999999
 30
0.0
 11
1703.499953606108
 21
117.99999999999999
 31
0.0
  0
SOLID
  5
66
100
AcDbEntity
  8
IMPORTED
 62
               1
100
AcDbTrace
 10
1123.499953606108
 20
117.99999999999999
 30
0.0
 11
1153.4981225514205
 21
120.62449970925026
 31
0.0
 12
1153.4981225514205
 22
115.37550029074971
 32
0.0
 13
1153.4981225514205
 23
115.37550029074971
 33
0.0
  0
SOLID
  5
67
100
AcDbEntity
  8
IMPORTED
 62
               1
100
AcDbTrace
 10
1703.499953606108
 20
117.99999999999999
 30
0.0
 11
1673.5017846607955
 21
115.37550029074971
 31
0.0
 12
1673.5017846607955
 22
120.62449970925026
 32
0.0
 13
1673.5017846607955
 23
120.62449970925026
 33
0.0
  0
MTEXT
  5
68
100
AcDbEntity
  8
IMPORTED
 62
               1
100
AcDbMText
 10
1389.687453606108
 20
161.87761713162064
 30
0.0
 40
24.432617187500004
 41
0.0
 71
               1
 72
               1
  1
580
  7
_______
  0
LINE
  5
69
100
AcDbEntity
  8
IMPORTED
  6
CONTINUOUS
 62
               1
100
AcDbLine
 10
1073.499953606108
 20
189.99993370171993
 30
0.0
 11
1073.499953606108
 21
-7.9999998882413017
 31
0.0
  0
LINE
  5
6A
100
AcDbEntity
  8
IMPORTED
  6
CONTINUOUS
 62
               1
100
AcDbLine
 10
1753.499953606108
 20
189.99993370171993
 30
0.0
 11
1753.499953606108
 21
-7.9999998882413017
 31
0.0
  0
LINE
  5
6B
100
AcDbEntity
  8
IMPORTED
  6
CONTINUOUS
 62
               1
100
AcDbLine
 10
1043.4999537178667
 20
21.999999999999989
 30
0.0
 11
1073.499953606108
 21
21.999999999999989
 31
0.0
  0
LINE
  5
6C
100
AcDbEntity
  8
IMPORTED
  6
CONTINUOUS
 62
               1
100
AcDbLine
 10
1753.499953606108
 20
21.999999999999989
 30
0.0
 11
1783.4999534943493
 21
21.999999999999989
 31
0.0
  0
LINE
  5
6D
100
AcDbEntity
  8
IMPORTED
  6
CONTINUOUS
 62
               1
100
AcDbLine
 10
1073.499953606108
 20
21.999999999999989
 30
0.0
 11
1753.499953606108
 21
21.999999999999989
 31
0.0
  0
SOLID
  5
6E
100
AcDbEntity
  8
IMPORTED
 62
               1
100
AcDbTrace
 10
1073.499953606108
 20
21.999999999999989
 30
0.0
 11
1103.4981225514205
 21
24.624499709250255
 31
0.0
 12
1103.4981225514205
 22
19.37550029074972
 32
0.0
 13
1103.4981225514205
 23
19.37550029074972
 33
0.0
  0
SOLID
  5
6F
100
AcDbEntity
  8
IMPORTED
 62
               1
100
AcDbTrace
 10
1753.499953606108
 20
21.999999999999989
 30
0.0
 11
1723.5017846607955
 21
19.37550029074972
 31
0.0
 12
1723.5017846607955
 22
24.624499709250248
 32
0.0
 13
1723.5017846607955
 23
24.624499709250248
 33
0.0
  0
MTEXT
  5
70
100
AcDbEntity
  8
IMPORTED
 62
               1
100
AcDbMText
 10
1389.687453606108
 20
65.877617131620639
 30
0.0
 40
24.432617187500004
 41
0.0
 71
               1
 72
               1
  1
680
  7
_______
  0
LINE
  5
71
100
AcDbEntity
  8
IMPORTED
  6
CONTINUOUS
 62
               1
100
AcDbLine
 10
1798.4999534384699
 20
384.99993353408183
 30
0.0
 11
2093.499953494349
 21
384.99993353408183
 31
0.0
  0
LINE
  5
72
100
AcDbEntity
  8
IMPORTED
  6
CONTINUOUS
 62
               1
100
AcDbLine
 10
1683.4999534384699
 20
934.99993353408172
 30
0.0
 11
2093.499953494349
 21
934.99993353408172
 31
0.0
  0
LINE
  5
73
100
AcDbEntity
  8
IMPORTED
  6
CONTINUOUS
 62
               1
100
AcDbLine
 10
2063.4999536061077
 20
354.99993364584054
 30
0.0
 11
2063.4999536061077
 21
384.99993353408183
 31
0.0
  0
LINE
  5
74
100
AcDbEntity
  8
IMPORTED
  6
CONTINUOUS
 62
               1
100
AcDbLine
 10
2063.4999536061077
 20
934.99993353408172
 30
0.0
 11
2063.4999536061077
 21
964.99993342232301
 31
0.0
  0
LINE
  5
75
100
AcDbEntity
  8
IMPORTED
  6
CONTINUOUS
 62
               1
100
AcDbLine
 10
2063.4999536061077
 20
384.99993353408183
 30
0.0
 11
2063.4999536061077
 21
934.99993353408172
 31
0.0
  0
SOLID
  5
76
100
AcDbEntity
  8
IMPORTED
 62
               1
100
AcDbTrace
 10
2063.4999536061077
 20
384.99993353408183
 30
0.0
 11
2060.8754538968574
 21
414.99810247939433
 31
0.0
 12
2066.1244533153581
 22
414.99810247939433
 32
0.0
 13
2066.1244533153581
 23
414.99810247939433
 33
0.0
  0
SOLID
  5
77
100
AcDbEntity
  8
IMPORTED
 62
               1
100
AcDbTrace
 10
2063.4999536061077
 20
934.99993353408172
 30
0.0
 11
2066.1244533153581
 21
905.00176458876922
 31
0.0
 12
2060.8754538968574
 22
905.00176458876922
 32
0.0
 13
2060.8754538968574
 23
905.00176458876922
 33
0.0
  0
MTEXT
  5
78
100
AcDbEntity
  8
IMPORTED
 62
               1
100
AcDbMText
 10
2019.6223364744872
 20
636.18743353408172
 30
0.0
 40
24.432617187500004
 41
0.0
 71
               1
 72
               1
  1
550
  7
_______
 11
0.0
 21
1.0
 31
0.0
  0
LINE
  5
79
100
AcDbEntity
  8
IMPORTED
  6
CONTINUOUS
 62
               1
100
AcDbLine
 10
1808.4999534384699
 20
584.99993353408172
 30
0.0
 11
1995.9999998882413
 21
584.99993353408172
 31
0.0
  0
LINE
  5
7A
100
AcDbEntity
  8
IMPORTED
  6
CONTINUOUS
 62
               1
100
AcDbLine
 10
1648.4999534384699
 20
839.99993353408172
 30
0.0
 11
1995.9999998882413
 21
839.99993353408172
 31
0.0
  0
LINE
  5
7B
100
AcDbEntity
  8
IMPORTED
  6
CONTINUOUS
 62
               1
100
AcDbLine
 10
1966.0
 20
554.99993364584043
 30
0.0
 11
1966.0
 21
584.99993353408172
 31
0.0
  0
LINE
  5
7C
100
AcDbEntity
  8
IMPORTED
  6
CONTINUOUS
 62
               1
100
AcDbLine
 10
1966.0
 20
839.99993353408172
 30
0.0
 11
1966.0
 21
869.99993342232301
 31
0.0
  0
LINE
  5
7D
100
AcDbEntity
  8
IMPORTED
  6
CONTINUOUS
 62
               1
100
AcDbLine
 10
1966.0
 20
584.99993353408172
 30
0.0
 11
1966.0
 21
839.99993353408172
 31
0.0
  0
SOLID
  5
7E
100
AcDbEntity
  8
IMPORTED
 62
               1
100
AcDbTrace
 10
1966.0
 20
584.99993353408172
 30
0.0
 11
1963.3755002907496
 21
614.99810247939422
 31
0.0
 12
1968.6244997092504
 22
614.99810247939422
 32
0.0
 13
1968.6244997092504
 23
614.99810247939422
 33
0.0
  0
SOLID
  5
7F
100
AcDbEntity
  8
IMPORTED
 62
               1
100
AcDbTrace
 10
1966.0
 20
839.99993353408172
 30
0.0
 11
1968.6244997092504
 21
810.00176458876922
 31
0.0
 12
1963.3755002907496
 22
810.00176458876922
 32
0.0
 13
1963.3755002907496
 23
810.00176458876922
 33
0.0
  0
MTEXT
  5
80
100
AcDbEntity
  8
IMPORTED
 62
               1
100
AcDbMText
 10
1922.1223828683794
 20
688.68743353408172
 30
0.0
 40
24.432617187500004
 41
0.0
 71
               1
 72
               1
  1
255
  7
_______
 11
0.0
 21
1.0
 31
0.0
  0
LINE
  5
81
100
AcDbEntity
  8
IMPORTED
  6
CONTINUOUS
 62
               1
100
AcDbLine
 10
1648.4999534384699
 20
839.99993353408172
 30
0.0
 11
1995.9999998882413
 21
839.99993353408172
 31
0.0
  0
LINE
  5
82
100
AcDbEntity
  8
IMPORTED
  6
CONTINUOUS
 62
               1
100
AcDbLine
 10
1683.4999534384699
 20
934.99993353408172
 30
0.0
 11
1995.9999998882413
 21
934.99993353408172
 31
0.0
  0
LINE
  5
83
100
AcDbEntity
  8
IMPORTED
  6
CONTINUOUS
 62
               1
100
AcDbLine
 10
1966.0
 20
809.99993364584043
 30
0.0
 11
1966.0
 21
839.99993353408172
 31
0.0
  0
LINE
  5
84
100
AcDbEntity
  8
IMPORTED
  6
CONTINUOUS
 62
               1
100
AcDbLine
 10
1966.0
 20
934.99993353408172
 30
0.0
 11
1966.0
 21
964.99993342232301
 31
0.0
  0
LINE
  5
85
100
AcDbEntity
  8
IMPORTED
  6
CONTINUOUS
 62
               1
100
AcDbLine
 10
1966.0
 20
839.99993353408172
 30
0.0
 11
1966.0
 21
934.99993353408172
 31
0.0
  0
SOLID
  5
86
100
AcDbEntity
  8
IMPORTED
 62
               1
100
AcDbTrace
 10
1966.0
 20
839.99993353408172
 30
0.0
 11
1963.3755002907496
 21
869.99810247939422
 31
0.0
 12
1968.6244997092504
 22
869.99810247939422
 32
0.0
 13
1968.6244997092504
 23
869.99810247939422
 33
0.0
  0
SOLID
  5
87
100
AcDbEntity
  8
IMPORTED
 62
               1
100
AcDbTrace
 10
1966.0
 20
934.99993353408172
 30
0.0
 11
1968.6244997092504
 21
905.00176458876922
 31
0.0
 12
1963.3755002907496
 22
905.00176458876922
 32
0.0
 13
1963.3755002907496
 23
905.00176458876922
 33
0.0
  0
MTEXT
  5
88
100
AcDbEntity
  8
IMPORTED
 62
               1
100
AcDbMText
 10
1922.1223828683794
 20
871.62493353408172
 30
0.0
 40
24.432617187500004
 41
0.0
 71
               1
 72
               1
  1
95
  7
_______
 11
0.0
 21
1.0
 31
0.0
  0
LINE
  5
89
100
AcDbEntity
  8
IMPORTED
  6
CONTINUOUS
 62
               1
100
AcDbLine
 10
1683.4999534384699
 20
934.99993353408172
 30
0.0
 11
1995.9999998882413
 21
934.99993353408172
 31
0.0
  0
LINE
  5
8A
100
AcDbEntity
  8
IMPORTED
  6
CONTINUOUS
 62
               1
100
AcDbLine
 10
1683.4999534384699
 20
984.99993353408172
 30
0.0
 11
1995.9999998882413
 21
984.99993353408172
 31
0.0
  0
LINE
  5
8B
100
AcDbEntity
  8
IMPORTED
  6
CONTINUOUS
 62
               1
100
AcDbLine
 10
1966.0
 20
904.99993364584043
 30
0.0
 11
1966.0
 21
934.99993353408172
 31
0.0
  0
LINE
  5
8C
100
AcDbEntity
  8
IMPORTED
  6
CONTINUOUS
 62
               1
100
AcDbLine
 10
1966.0
 20
984.99993353408172
 30
0.0
 11
1966.0
 21
1014.999933422323
 31
0.0
  0
LINE
  5
8D
100
AcDbEntity
  8
IMPORTED
  6
CONTINUOUS
 62
               1
100
AcDbLine
 10
1966.0
 20
934.99993353408172
 30
0.0
 11
1966.0
 21
984.99993353408172
 31
0.0
  0
SOLID
  5
8E
100
AcDbEntity
  8
IMPORTED
 62
               1
100
AcDbTrace
 10
1966.0
 20
934.99993353408172
 30
0.0
 11
1963.3755002907496
 21
964.99810247939422
 31
0.0
 12
1968.6244997092504
 22
964.99810247939422
 32
0.0
 13
1968.6244997092504
 23
964.99810247939422
 33
0.0
  0
SOLID
  5
8F
100
AcDbEntity
  8
IMPORTED
 62
               1
100
AcDbTrace
 10
1966.0
 20
984.99993353408172
 30
0.0
 11
1968.6244997092504
 21
955.00176458876922
 31
0.0
 12
1963.3755002907496
 22
955.00176458876922
 32
0.0
 13
1963.3755002907496
 23
955.00176458876922
 33
0.0
  0
MTEXT
  5
90
100
AcDbEntity
  8
IMPORTED
 62
               1
100
AcDbMText
 10
1922.1223828683794
 20
944.12493353408172
 30
0.0
 40
24.432617187500004
 41
0.0
 71
               1
 72
               1
  1
50
  7
_______
 11
0.0
 21
1.0
 31
0.0
  0
LINE
  5
91
100
AcDbEntity
  8
IMPORTED
  6
CONTINUOUS
 62
               1
100
AcDbLine
 10
1273.499953606108
 20
979.99993336644366
 30
0.0
 11
1273.499953606108
 21
1122.9999998882411
 31
0.0
  0
LINE
  5
92
100
AcDbEntity
  8
IMPORTED
  6
CONTINUOUS
 62
               1
100
AcDbLine
 10
1553.499953606108
 20
979.99993336644366
 30
0.0
 11
1553.499953606108
 21
1122.9999998882411
 31
0.0
  0
LINE
  5
93
100
AcDbEntity
  8
IMPORTED
  6
CONTINUOUS
 62
               1
100
AcDbLine
 10
1243.4999537178667
 20
1092.9999999999998
 30
0.0
 11
1273.499953606108
 21
1092.9999999999998
 31
0.0
  0
LINE
  5
94
100
AcDbEntity
  8
IMPORTED
  6
CONTINUOUS
 62
               1
100
AcDbLine
 10
1553.499953606108
 20
1092.9999999999998
 30
0.0
 11
1583.4999534943493
 21
1092.9999999999998
 31
0.0
  0
LINE
  5
95
100
AcDbEntity
  8
IMPORTED
  6
CONTINUOUS
 62
               1
100
AcDbLine
 10
1273.499953606108
 20
1092.9999999999998
 30
0.0
 11
1553.499953606108
 21
1092.9999999999998
 31
0.0
  0
SOLID
  5
96
100
AcDbEntity
  8
IMPORTED
 62
               1
100
AcDbTrace
 10
1273.499953606108
 20
1092.9999999999998
 30
0.0
 11
1303.4981225514205
 21
1095.6244997092501
 31
0.0
 12
1303.4981225514205
 22
1090.3755002907494
 32
0.0
 13
1303.4981225514205
 23
1090.3755002907494
 33
0.0
  0
SOLID
  5
97
100
AcDbEntity
  8
IMPORTED
 62
               1
100
AcDbTrace
 10
1553.499953606108
 20
1092.9999999999998
 30
0.0
 11
1523.5017846607955
 21
1090.3755002907494
 31
0.0
 12
1523.5017846607955
 22
1095.6244997092501
 32
0.0
 13
1523.5017846607955
 23
1095.6244997092501
 33
0.0
  0
MTEXT
  5
98
100
AcDbEntity
  8
IMPORTED
 62
               1
100
AcDbMText
 10
1389.687453606108
 20
1136.8776171316204
 30
0.0
 40
24.432617187500004
 41
0.0
 71
               1
 72
               1
  1
280
  7
_______
  0
LINE
  5
99
100
AcDbEntity
  8
IMPORTED
  6
CONTINUOUS
 62
               1
100
AcDbLine
 10
1223.499953606108
 20
979.99993336644366
 30
0.0
 11
1223.499953606108
 21
1203.9999998882413
 31
0.0
  0
LINE
  5
9A
100
AcDbEntity
  8
IMPORTED
  6
CONTINUOUS
 62
               1
100
AcDbLine
 10
1603.499953606108
 20
979.99993336644366
 30
0.0
 11
1603.499953606108
 21
1203.9999998882413
 31
0.0
  0
LINE
  5
9B
100
AcDbEntity
  8
IMPORTED
  6
CONTINUOUS
 62
               1
100
AcDbLine
 10
1193.4999537178667
 20
1174.0
 30
0.0
 11
1223.499953606108
 21
1174.0
 31
0.0
  0
LINE
  5
9C
100
AcDbEntity
  8
IMPORTED
  6
CONTINUOUS
 62
               1
100
AcDbLine
 10
1603.499953606108
 20
1174.0
 30
0.0
 11
1633.4999534943493
 21
1174.0
 31
0.0
  0
LINE
  5
9D
100
AcDbEntity
  8
IMPORTED
  6
CONTINUOUS
 62
               1
100
AcDbLine
 10
1223.499953606108
 20
1174.0
 30
0.0
 11
1603.499953606108
 21
1174.0
 31
0.0
  0
SOLID
  5
9E
100
AcDbEntity
  8
IMPORTED
 62
               1
100
AcDbTrace
 10
1223.499953606108
 20
1174.0
 30
0.0
 11
1253.4981225514205
 21
1176.6244997092504
 31
0.0
 12
1253.4981225514205
 22
1171.3755002907496
 32
0.0
 13
1253.4981225514205
 23
1171.3755002907496
 33
0.0
  0
SOLID
  5
9F
100
AcDbEntity
  8
IMPORTED
 62
               1
100
AcDbTrace
 10
1603.499953606108
 20
1174.0
 30
0.0
 11
1573.5017846607955
 21
1171.3755002907496
 31
0.0
 12
1573.5017846607955
 22
1176.6244997092504
 32
0.0
 13
1573.5017846607955
 23
1176.6244997092504
 33
0.0
  0
MTEXT
  5
A0
100
AcDbEntity
  8
IMPORTED
 62
               1
100
AcDbMText
 10
1389.687453606108
 20
1217.8776171316206
 30
0.0
 40
24.432617187500004
 41
0.0
 71
               1
 72
               1
  1
380
  7
_______
  0
LINE
  5
A1
100
AcDbEntity
  8
IMPORTED
  6
CONTINUOUS
 62
               1
100
AcDbLine
 10
1183.499953606108
 20
1024.9999333664437
 30
0.0
 11
1183.499953606108
 21
1283.9999998882413
 31
0.0
  0
LINE
  5
A2
100
AcDbEntity
  8
IMPORTED
  6
CONTINUOUS
 62
               1
100
AcDbLine
 10
1643.499953606108
 20
1024.9999333664437
 30
0.0
 11
1643.499953606108
 21
1283.9999998882413
 31
0.0
  0
LINE
  5
A3
100
AcDbEntity
  8
IMPORTED
  6
CONTINUOUS
 62
               1
100
AcDbLine
 10
1153.4999537178667
 20
1254.0
 30
0.0
 11
1183.499953606108
 21
1254.0
 31
0.0
  0
LINE
  5
A4
100
AcDbEntity
  8
IMPORTED
  6
CONTINUOUS
 62
               1
100
AcDbLine
 10
1643.499953606108
 20
1254.0
 30
0.0
 11
1673.4999534943493
 21
1254.0
 31
0.0
  0
LINE
  5
A5
100
AcDbEntity
  8
IMPORTED
  6
CONTINUOUS
 62
               1
100
AcDbLine
 10
1183.499953606108
 20
1254.0
 30
0.0
 11
1643.499953606108
 21
1254.0
 31
0.0
  0
SOLID
  5
A6
100
AcDbEntity
  8
IMPORTED
 62
               1
100
AcDbTrace
 10
1183.499953606108
 20
1254.0
 30
0.0
 11
1213.4981225514205
 21
1256.6244997092504
 31
0.0
 12
1213.4981225514205
 22
1251.3755002907496
 32
0.0
 13
1213.4981225514205
 23
1251.3755002907496
 33
0.0
  0
SOLID
  5
A7
100
AcDbEntity
  8
IMPORTED
 62
               1
100
AcDbTrace
 10
1643.499953606108
 20
1254.0
 30
0.0
 11
1613.5017846607955
 21
1251.3755002907496
 31
0.0
 12
1613.5017846607955
 22
1256.6244997092504
 32
0.0
 13
1613.5017846607955
 23
1256.6244997092504
 33
0.0
  0
MTEXT
  5
A8
100
AcDbEntity
  8
IMPORTED
 62
               1
100
AcDbMText
 10
1389.687453606108
 20
1297.8776171316206
 30
0.0
 40
24.432617187500004
 41
0.0
 71
               1
 72
               1
  1
460
  7
_______
  0
LINE
  5
A9
100
AcDbEntity
  8
IMPORTED
  6
CONTINUOUS
 62
               1
100
AcDbLine
 10
704.0
 20
301.47863353408184
 30
0.0
 11
975.78165360610785
 21
301.47863353408184
 31
0.0
  0
LINE
  5
AA
100
AcDbEntity
  8
IMPORTED
  6
CONTINUOUS
 62
               1
100
AcDbLine
 10
975.78165360610785
 20
301.47863353408184
 30
0.0
 11
1150.781653606108
 21
476.47863353408184
 31
0.0
  0
LINE
  5
AB
100
AcDbEntity
  8
IMPORTED
  6
CONTINUOUS
 62
               1
100
AcDbLine
 10
704.0
 20
188.78933353408186
 30
0.0
 11
974.30495360610792
 21
188.78933353408186
 31
0.0
  0
LINE
  5
AC
100
AcDbEntity
  8
IMPORTED
  6
CONTINUOUS
 62
               1
100
AcDbLine
 10
974.30495360610792
 20
188.78933353408186
 30
0.0
 11
1149.304953606108
 21
363.78933353408183
 31
0.0
  0
LINE
  5
AD
100
AcDbEntity
  8
IMPORTED
  6
CONTINUOUS
 62
               1
100
AcDbLine
 10
672.0
 20
102.65153353408186
 30
0.0
 11
974.30495360610792
 21
102.65153353408186
 31
0.0
  0
LINE
  5
AE
100
AcDbEntity
  8
IMPORTED
  6
CONTINUOUS
 62
               1
100
AcDbLine
 10
974.3049536061078
 20
102.65153353408186
 30
0.0
 11
1149.304953606108
 21
277.65153353408186
 31
0.0
  0
LINE
  5
AF
100
AcDbEntity
  8
IMPORTED
  6
CONTINUOUS
 62
               1
100
AcDbLine
 10
-1794.9999462262538
 20
384.99993353408183
 30
0.0
 11
-2185.9999998882413
 21
384.99993353408183
 31
0.0
  0
LINE
  5
B0
100
AcDbEntity
  8
IMPORTED
  6
CONTINUOUS
 62
               1
100
AcDbLine
 10
-1937.4999462262538
 20
984.99993353408172
 30
0.0
 11
-2185.9999998882413
 21
984.99993353408172
 31
0.0
  0
LINE
  5
B1
100
AcDbEntity
  8
IMPORTED
  6
CONTINUOUS
 62
               1
100
AcDbLine
 10
-2156.0
 20
354.99993364584054
 30
0.0
 11
-2156.0
 21
384.99993353408183
 31
0.0
  0
LINE
  5
B2
100
AcDbEntity
  8
IMPORTED
  6
CONTINUOUS
 62
               1
100
AcDbLine
 10
-2156.0
 20
984.99993353408172
 30
0.0
 11
-2156.0
 21
1014.999933422323
 31
0.0
  0
LINE
  5
B3
100
AcDbEntity
  8
IMPORTED
  6
CONTINUOUS
 62
               1
100
AcDbLine
 10
-2156.0
 20
384.99993353408183
 30
0.0
 11
-2156.0
 21
984.99993353408172
 31
0.0
  0
SOLID
  5
B4
100
AcDbEntity
  8
IMPORTED
 62
               1
100
AcDbTrace
 10
-2156.0
 20
384.99993353408183
 30
0.0
 11
-2158.6244997092504
 21
414.99810247939433
 31
0.0
 12
-2153.3755002907496
 22
414.99810247939433
 32
0.0
 13
-2153.3755002907496
 23
414.99810247939433
 33
0.0
  0
SOLID
  5
B5
100
AcDbEntity
  8
IMPORTED
 62
               1
100
AcDbTrace
 10
-2156.0
 20
984.99993353408172
 30
0.0
 11
-2153.3755002907496
 21
955.00176458876922
 31
0.0
 12
-2158.6244997092504
 22
955.00176458876922
 32
0.0
 13
-2158.6244997092504
 23
955.00176458876922
 33
0.0
  0
MTEXT
  5
B6
100
AcDbEntity
  8
IMPORTED
 62
               1
100
AcDbMText
 10
-2199.8776171316208
 20
661.18743353408172
 30
0.0
 40
24.432617187500004
 41
0.0
 71
               1
 72
               1
  1
600
  7
_______
 11
0.0
 21
1.0
 31
0.0
  0
LINE
  5
B7
100
AcDbEntity
  8
IMPORTED
  6
CONTINUOUS
 62
               1
100
AcDbLine
 10
-599.99994639389206
 20
339.9999337017199
 30
0.0
 11
-599.99994639389206
 21
89.999933645840585
 31
0.0
  0
LINE
  5
B8
100
AcDbEntity
  8
IMPORTED
  6
CONTINUOUS
 62
               1
100
AcDbLine
 10
-299.999946393892
 20
339.9999337017199
 30
0.0
 11
-299.999946393892
 21
89.999933645840585
 31
0.0
  0
LINE
  5
B9
100
AcDbEntity
  8
IMPORTED
  6
CONTINUOUS
 62
               1
100
AcDbLine
 10
-629.99994628213335
 20
119.99993353408188
 30
0.0
 11
-599.99994639389206
 21
119.99993353408188
 31
0.0
  0
LINE
  5
BA
100
AcDbEntity
  8
IMPORTED
  6
CONTINUOUS
 62
               1
100
AcDbLine
 10
-299.999946393892
 20
119.99993353408188
 30
0.0
 11
-269.99994650565071
 21
119.99993353408188
 31
0.0
  0
LINE
  5
BB
100
AcDbEntity
  8
IMPORTED
  6
CONTINUOUS
 62
               1
100
AcDbLine
 10
-599.99994639389206
 20
119.99993353408188
 30
0.0
 11
-299.999946393892
 21
119.99993353408188
 31
0.0
  0
SOLID
  5
BC
100
AcDbEntity
  8
IMPORTED
 62
               1
100
AcDbTrace
 10
-599.99994639389206
 20
119.99993353408188
 30
0.0
 11
-570.00177744857956
 21
122.62443324333215
 31
0.0
 12
-570.00177744857956
 22
117.3754338248316
 32
0.0
 13
-570.00177744857956
 23
117.3754338248316
 33
0.0
  0
SOLID
  5
BD
100
AcDbEntity
  8
IMPORTED
 62
               1
100
AcDbTrace
 10
-299.999946393892
 20
119.99993353408188
 30
0.0
 11
-329.9981153392045
 21
117.3754338248316
 31
0.0
 12
-329.9981153392045
 22
122.62443324333215
 32
0.0
 13
-329.9981153392045
 23
122.62443324333215
 33
0.0
  0
MTEXT
  5
BE
100
AcDbEntity
  8
IMPORTED
 62
               1
100
AcDbMText
 10
-473.812446393892
 20
163.87755066570253
 30
0.0
 40
24.432617187500004
 41
0.0
 71
               1
 72
               1
  1
300
  7
_______
  0
LINE
  5
BF
100
AcDbEntity
  8
IMPORTED
  6
CONTINUOUS
 62
               1
100
AcDbLine
 10
-649.99994639389195
 20
189.99993370171993
 30
0.0
 11
-649.99994639389195
 21
4.0000001117587267
 31
0.0
  0
LINE
  5
C0
100
AcDbEntity
  8
IMPORTED
  6
CONTINUOUS
 62
               1
100
AcDbLine
 10
-249.99994639389203
 20
189.99993370171993
 30
0.0
 11
-249.99994639389203
 21
4.0000001117587267
 31
0.0
  0
LINE
  5
C1
100
AcDbEntity
  8
IMPORTED
  6
CONTINUOUS
 62
               1
100
AcDbLine
 10
-679.99994628213324
 20
34.000000000000014
 30
0.0
 11
-649.99994639389195
 21
34.000000000000014
 31
0.0
  0
LINE
  5
C2
100
AcDbEntity
  8
IMPORTED
  6
CONTINUOUS
 62
               1
100
AcDbLine
 10
-249.99994639389203
 20
34.000000000000014
 30
0.0
 11
-219.99994650565074
 21
34.000000000000014
 31
0.0
  0
LINE
  5
C3
100
AcDbEntity
  8
IMPORTED
  6
CONTINUOUS
 62
               1
100
AcDbLine
 10
-649.99994639389195
 20
34.000000000000014
 30
0.0
 11
-249.99994639389203
 21
34.000000000000014
 31
0.0
  0
SOLID
  5
C4
100
AcDbEntity
  8
IMPORTED
 62
               1
100
AcDbTrace
 10
-649.99994639389195
 20
34.000000000000014
 30
0.0
 11
-620.00177744857945
 21
36.624499709250287
 31
0.0
 12
-620.00177744857945
 22
31.375500290749752
 32
0.0
 13
-620.00177744857945
 23
31.375500290749752
 33
0.0
  0
SOLID
  5
C5
100
AcDbEntity
  8
IMPORTED
 62
               1
100
AcDbTrace
 10
-249.99994639389203
 20
34.000000000000014
 30
0.0
 11
-279.9981153392045
 21
31.375500290749752
 31
0.0
 12
-279.9981153392045
 22
36.624499709250273
 32
0.0
 13
-279.9981153392045
 23
36.624499709250273
 33
0.0
  0
MTEXT
  5
C6
100
AcDbEntity
  8
IMPORTED
 62
               1
100
AcDbMText
 10
-473.81244639389195
 20
77.877617131620667
 30
0.0
 40
24.432617187500004
 41
0.0
 71
               1
 72
               1
  1
400
  7
_______
  0
LINE
  5
C7
100
AcDbEntity
  8
IMPORTED
  6
CONTINUOUS
 62
               1
100
AcDbLine
 10
-204.99994656153009
 20
234.99993353408186
 30
0.0
 11
230.00005349434926
 21
234.99993353408186
 31
0.0
  0
LINE
  5
C8
100
AcDbEntity
  8
IMPORTED
  6
CONTINUOUS
 62
               1
100
AcDbLine
 10
-204.99994656153009
 20
334.99993353408183
 30
0.0
 11
230.00005349434926
 21
334.99993353408183
 31
0.0
  0
LINE
  5
C9
100
AcDbEntity
  8
IMPORTED
  6
CONTINUOUS
 62
               1
100
AcDbLine
 10
200.00005360610797
 20
204.99993364584057
 30
0.0
 11
200.00005360610797
 21
234.99993353408186
 31
0.0
  0
LINE
  5
CA
100
AcDbEntity
  8
IMPORTED
  6
CONTINUOUS
 62
               1
100
AcDbLine
 10
200.00005360610797
 20
334.99993353408183
 30
0.0
 11
200.00005360610797
 21
364.99993342232312
 31
0.0
  0
LINE
  5
CB
100
AcDbEntity
  8
IMPORTED
  6
CONTINUOUS
 62
               1
100
AcDbLine
 10
200.00005360610797
 20
234.99993353408186
 30
0.0
 11
200.00005360610797
 21
334.99993353408183
 31
0.0
  0
SOLID
  5
CC
100
AcDbEntity
  8
IMPORTED
 62
               1
100
AcDbTrace
 10
200.00005360610797
 20
234.99993353408186
 30
0.0
 11
197.3755538968577
 21
264.99810247939439
 31
0.0
 12
202.62455331535824
 22
264.99810247939439
 32
0.0
 13
202.62455331535824
 23
264.99810247939439
 33
0.0
  0
SOLID
  5
CD
100
AcDbEntity
  8
IMPORTED
 62
               1
100
AcDbTrace
 10
200.00005360610797
 20
334.99993353408183
 30
0.0
 11
202.62455331535824
 21
305.00176458876933
 31
0.0
 12
197.3755538968577
 22
305.00176458876933
 32
0.0
 13
197.3755538968577
 23
305.00176458876933
 33
0.0
  0
MTEXT
  5
CE
100
AcDbEntity
  8
IMPORTED
 62
               1
100
AcDbMText
 10
156.12243647448733
 20
261.18743353408183
 30
0.0
 40
24.432617187500004
 41
0.0
 71
               1
 72
               1
  1
100
  7
_______
 11
0.0
 21
1.0
 31
0.0
  0
LINE
  5
CF
100
AcDbEntity
  8
IMPORTED
  6
CONTINUOUS
 62
               1
100
AcDbLine
 10
-204.99994656153009
 20
334.99993353408183
 30
0.0
 11
230.00005349434926
 21
334.99993353408183
 31
0.0
  0
LINE
  5
D0
100
AcDbEntity
  8
IMPORTED
  6
CONTINUOUS
 62
               1
100
AcDbLine
 10
-204.99994656153009
 20
384.99993353408183
 30
0.0
 11
230.00005349434926
 21
384.99993353408183
 31
0.0
  0
LINE
  5
D1
100
AcDbEntity
  8
IMPORTED
  6
CONTINUOUS
 62
               1
100
AcDbLine
 10
200.00005360610797
 20
304.99993364584054
 30
0.0
 11
200.00005360610797
 21
334.99993353408183
 31
0.0
  0
LINE
  5
D2
100
AcDbEntity
  8
IMPORTED
  6
CONTINUOUS
 62
               1
100
AcDbLine
 10
200.00005360610797
 20
384.99993353408183
 30
0.0
 11
200.00005360610797
 21
414.99993342232312
 31
0.0
  0
LINE
  5
D3
100
AcDbEntity
  8
IMPORTED
  6
CONTINUOUS
 62
               1
100
AcDbLine
 10
200.00005360610797
 20
334.99993353408183
 30
0.0
 11
200.00005360610797
 21
384.99993353408183
 31
0.0
  0
SOLID
  5
D4
100
AcDbEntity
  8
IMPORTED
 62
               1
100
AcDbTrace
 10
200.00005360610797
 20
334.99993353408183
 30
0.0
 11
197.3755538968577
 21
364.99810247939433
 31
0.0
 12
202.62455331535824
 22
364.99810247939433
 32
0.0
 13
202.62455331535824
 23
364.99810247939433
 33
0.0
  0
SOLID
  5
D5
100
AcDbEntity
  8
IMPORTED
 62
               1
100
AcDbTrace
 10
200.00005360610797
 20
384.99993353408183
 30
0.0
 11
202.62455331535824
 21
355.00176458876933
 31
0.0
 12
197.3755538968577
 22
355.00176458876933
 32
0.0
 13
197.3755538968577
 23
355.00176458876933
 33
0.0
  0
MTEXT
  5
D6
100
AcDbEntity
  8
IMPORTED
 62
               1
100
AcDbMText
 10
156.12243647448733
 20
344.12493353408183
 30
0.0
 40
24.432617187500004
 41
0.0
 71
               1
 72
               1
  1
50
  7
_______
 11
0.0
 21
1.0
 31
0.0
  0
LINE
  5
D7
100
AcDbEntity
  8
IMPORTED
  6
CONTINUOUS
 62
               1
100
AcDbLine
 10
-204.99994656153009
 20
384.99993353408183
 30
0.0
 11
230.00005349434926
 21
384.99993353408183
 31
0.0
  0
LINE
  5
D8
100
AcDbEntity
  8
IMPORTED
  6
CONTINUOUS
 62
               1
100
AcDbLine
 10
-254.99994656153009
 20
534.99993353408183
 30
0.0
 11
230.00005349434926
 21
534.99993353408183
 31
0.0
  0
LINE
  5
D9
100
AcDbEntity
  8
IMPORTED
  6
CONTINUOUS
 62
               1
100
AcDbLine
 10
200.00005360610797
 20
354.99993364584054
 30
0.0
 11
200.00005360610797
 21
384.99993353408183
 31
0.0
  0
LINE
  5
DA
100
AcDbEntity
  8
IMPORTED
  6
CONTINUOUS
 62
               1
100
AcDbLine
 10
200.00005360610797
 20
534.99993353408183
 30
0.0
 11
200.00005360610797
 21
564.99993342232312
 31
0.0
  0
LINE
  5
DB
100
AcDbEntity
  8
IMPORTED
  6
CONTINUOUS
 62
               1
100
AcDbLine
 10
200.00005360610797
 20
384.99993353408183
 30
0.0
 11
200.00005360610797
 21
534.99993353408183
 31
0.0
  0
SOLID
  5
DC
100
AcDbEntity
  8
IMPORTED
 62
               1
100
AcDbTrace
 10
200.00005360610797
 20
384.99993353408183
 30
0.0
 11
197.3755538968577
 21
414.99810247939433
 31
0.0
 12
202.62455331535824
 22
414.99810247939433
 32
0.0
 13
202.62455331535824
 23
414.99810247939433
 33
0.0
  0
SOLID
  5
DD
100
AcDbEntity
  8
IMPORTED
 62
               1
100
AcDbTrace
 10
200.00005360610797
 20
534.99993353408183
 30
0.0
 11
202.62455331535824
 21
505.00176458876939
 31
0.0
 12
197.3755538968577
 22
505.00176458876939
 32
0.0
 13
197.3755538968577
 23
505.00176458876939
 33
0.0
  0
MTEXT
  5
DE
100
AcDbEntity
  8
IMPORTED
 62
               1
100
AcDbMText
 10
156.12243647448733
 20
436.18743353408189
 30
0.0
 40
24.432617187500004
 41
0.0
 71
               1
 72
               1
  1
150
  7
_______
 11
0.0
 21
1.0
 31
0.0
  0
LINE
  5
DF
100
AcDbEntity
  8
IMPORTED
  6
CONTINUOUS
 62
               1
100
AcDbLine
 10
-254.99994656153009
 20
534.99993353408183
 30
0.0
 11
230.00005349434926
 21
534.99993353408183
 31
0.0
  0
LINE
  5
E0
100
AcDbEntity
  8
IMPORTED
  6
CONTINUOUS
 62
               1
100
AcDbLine
 10
-10.99994656153009
 20
584.99993353408172
 30
0.0
 11
230.00005349434926
 21
584.99993353408172
 31
0.0
  0
LINE
  5
E1
100
AcDbEntity
  8
IMPORTED
  6
CONTINUOUS
 62
               1
100
AcDbLine
 10
200.00005360610797
 20
504.9999336458406
 30
0.0
 11
200.00005360610797
 21
534.99993353408183
 31
0.0
  0
LINE
  5
E2
100
AcDbEntity
  8
IMPORTED
  6
CONTINUOUS
 62
               1
100
AcDbLine
 10
200.00005360610797
 20
584.99993353408172
 30
0.0
 11
200.00005360610797
 21
614.99993342232301
 31
0.0
  0
LINE
  5
E3
100
AcDbEntity
  8
IMPORTED
  6
CONTINUOUS
 62
               1
100
AcDbLine
 10
200.00005360610797
 20
534.99993353408183
 30
0.0
 11
200.00005360610797
 21
584.99993353408172
 31
0.0
  0
SOLID
  5
E4
100
AcDbEntity
  8
IMPORTED
 62
               1
100
AcDbTrace
 10
200.00005360610797
 20
534.99993353408183
 30
0.0
 11
197.3755538968577
 21
564.99810247939433
 31
0.0
 12
202.62455331535824
 22
564.99810247939433
 32
0.0
 13
202.62455331535824
 23
564.99810247939433
 33
0.0
  0
SOLID
  5
E5
100
AcDbEntity
  8
IMPORTED
 62
               1
100
AcDbTrace
 10
200.00005360610797
 20
584.99993353408172
 30
0.0
 11
202.62455331535824
 21
555.00176458876922
 31
0.0
 12
197.3755538968577
 22
555.00176458876922
 32
0.0
 13
197.3755538968577
 23
555.00176458876922
 33
0.0
  0
MTEXT
  5
E6
100
AcDbEntity
  8
IMPORTED
 62
               1
100
AcDbMText
 10
156.12243647448733
 20
544.12493353408183
 30
0.0
 40
24.432617187500004
 41
0.0
 71
               1
 72
               1
  1
50
  7
_______
 11
0.0
 21
1.0
 31
0.0
  0
LINE
  5
E7
100
AcDbEntity
  8
IMPORTED
  6
CONTINUOUS
 62
               1
100
AcDbLine
 10
-10.99994656153009
 20
584.99993353408172
 30
0.0
 11
230.00005349434926
 21
584.99993353408172
 31
0.0
  0
LINE
  5
E8
100
AcDbEntity
  8
IMPORTED
  6
CONTINUOUS
 62
               1
100
AcDbLine
 10
-62.499946561530074
 20
984.99993353408172
 30
0.0
 11
230.00005349434926
 21
984.99993353408172
 31
0.0
  0
LINE
  5
E9
100
AcDbEntity
  8
IMPORTED
  6
CONTINUOUS
 62
               1
100
AcDbLine
 10
200.00005360610797
 20
554.99993364584043
 30
0.0
 11
200.00005360610797
 21
584.99993353408172
 31
0.0
  0
LINE
  5
EA
100
AcDbEntity
  8
IMPORTED
  6
CONTINUOUS
 62
               1
100
AcDbLine
 10
200.00005360610797
 20
984.99993353408172
 30
0.0
 11
200.00005360610797
 21
1014.999933422323
 31
0.0
  0
LINE
  5
EB
100
AcDbEntity
  8
IMPORTED
  6
CONTINUOUS
 62
               1
100
AcDbLine
 10
200.00005360610797
 20
584.99993353408172
 30
0.0
 11
200.00005360610797
 21
984.99993353408172
 31
0.0
  0
SOLID
  5
EC
100
AcDbEntity
  8
IMPORTED
 62
               1
100
AcDbTrace
 10
200.00005360610797
 20
584.99993353408172
 30
0.0
 11
197.3755538968577
 21
614.99810247939422
 31
0.0
 12
202.62455331535824
 22
614.99810247939422
 32
0.0
 13
202.62455331535824
 23
614.99810247939422
 33
0.0
  0
SOLID
  5
ED
100
AcDbEntity
  8
IMPORTED
 62
               1
100
AcDbTrace
 10
200.00005360610797
 20
984.99993353408172
 30
0.0
 11
202.62455331535824
 21
955.00176458876922
 31
0.0
 12
197.3755538968577
 22
955.00176458876922
 32
0.0
 13
197.3755538968577
 23
955.00176458876922
 33
0.0
  0
MTEXT
  5
EE
100
AcDbEntity
  8
IMPORTED
 62
               1
100
AcDbMText
 10
156.12243647448733
 20
761.18743353408172
 30
0.0
 40
24.432617187500004
 41
0.0
 71
               1
 72
               1
  1
400
  7
_______
 11
0.0
 21
1.0
 31
0.0
  0
LINE
  5
EF
100
AcDbEntity
  8
IMPORTED
  6
CONTINUOUS
 62
               1
100
AcDbLine
 10
-1899.9999463938918
 20
1024.9999333664437
 30
0.0
 11
-1899.9999463938918
 21
1214.7374334223232
 31
0.0
  0
LINE
  5
F0
100
AcDbEntity
  8
IMPORTED
  6
CONTINUOUS
 62
               1
100
AcDbLine
 10
-1549.9999463938918
 20
979.99993336644366
 30
0.0
 11
-1549.9999463938918
 21
1214.7374334223232
 31
0.0
  0
LINE
  5
F1
100
AcDbEntity
  8
IMPORTED
  6
CONTINUOUS
 62
               1
100
AcDbLine
 10
-1929.9999462821331
 20
1184.7374335340819
 30
0.0
 11
-1899.9999463938918
 21
1184.7374335340819
 31
0.0
  0
LINE
  5
F2
100
AcDbEntity
  8
IMPORTED
  6
CONTINUOUS
 62
               1
100
AcDbLine
 10
-1549.9999463938918
 20
1184.7374335340819
 30
0.0
 11
-1519.9999465056505
 21
1184.7374335340819
 31
0.0
  0
LINE
  5
F3
100
AcDbEntity
  8
IMPORTED
  6
CONTINUOUS
 62
               1
100
AcDbLine
 10
-1899.9999463938918
 20
1184.7374335340819
 30
0.0
 11
-1549.9999463938918
 21
1184.7374335340819
 31
0.0
  0
SOLID
  5
F4
100
AcDbEntity
  8
IMPORTED
 62
               1
100
AcDbTrace
 10
-1899.9999463938918
 20
1184.7374335340819
 30
0.0
 11
-1870.0017774485793
 21
1187.3619332433323
 31
0.0
 12
-1870.0017774485793
 22
1182.1129338248315
 32
0.0
 13
-1870.0017774485793
 23
1182.1129338248315
 33
0.0
  0
SOLID
  5
F5
100
AcDbEntity
  8
IMPORTED
 62
               1
100
AcDbTrace
 10
-1549.9999463938918
 20
1184.7374335340819
 30
0.0
 11
-1579.9981153392043
 21
1182.1129338248315
 31
0.0
 12
-1579.9981153392043
 22
1187.3619332433323
 32
0.0
 13
-1579.9981153392043
 23
1187.3619332433323
 33
0.0
  0
MTEXT
  5
F6
100
AcDbEntity
  8
IMPORTED
 62
               1
100
AcDbMText
 10
-1748.8124463938918
 20
1228.6150506657025
 30
0.0
 40
24.432617187500004
 41
0.0
 71
               1
 72
               1
  1
350
  7
_______
  0
LINE
  5
F7
100
AcDbEntity
  8
IMPORTED
  6
CONTINUOUS
 62
               1
100
AcDbLine
 10
-1549.9999463938918
 20
979.99993336644366
 30
0.0
 11
-1549.9999463938918
 21
1214.7374334223232
 31
0.0
  0
LINE
  5
F8
100
AcDbEntity
  8
IMPORTED
  6
CONTINUOUS
 62
               1
100
AcDbLine
 10
-449.99994639389195
 20
979.99993336644366
 30
0.0
 11
-449.99994639389195
 21
1214.7374334223232
 31
0.0
  0
LINE
  5
F9
100
AcDbEntity
  8
IMPORTED
  6
CONTINUOUS
 62
               1
100
AcDbLine
 10
-1579.9999462821331
 20
1184.7374335340819
 30
0.0
 11
-1549.9999463938918
 21
1184.7374335340819
 31
0.0
  0
LINE
  5
FA
100
AcDbEntity
  8
IMPORTED
  6
CONTINUOUS
 62
               1
100
AcDbLine
 10
-449.99994639389195
 20
1184.7374335340819
 30
0.0
 11
-419.99994650565066
 21
1184.7374335340819
 31
0.0
  0
LINE
  5
FB
100
AcDbEntity
  8
IMPORTED
  6
CONTINUOUS
 62
               1
100
AcDbLine
 10
-1549.9999463938918
 20
1184.7374335340819
 30
0.0
 11
-449.99994639389195
 21
1184.7374335340819
 31
0.0
  0
SOLID
  5
FC
100
AcDbEntity
  8
IMPORTED
 62
               1
100
AcDbTrace
 10
-1549.9999463938918
 20
1184.7374335340819
 30
0.0
 11
-1520.0017774485793
 21
1187.3619332433323
 31
0.0
 12
-1520.0017774485793
 22
1182.1129338248315
 32
0.0
 13
-1520.0017774485793
 23
1182.1129338248315
 33
0.0
  0
SOLID
  5
FD
100
AcDbEntity
  8
IMPORTED
 62
               1
100
AcDbTrace
 10
-449.99994639389195
 20
1184.7374335340819
 30
0.0
 11
-479.99811533920445
 21
1182.1129338248315
 31
0.0
 12
-479.99811533920445
 22
1187.3619332433323
 32
0.0
 13
-479.99811533920445
 23
1187.3619332433323
 33
0.0
  0
MTEXT
  5
FE
100
AcDbEntity
  8
IMPORTED
 62
               1
100
AcDbMText
 10
-1031.7499463938918
 20
1228.6150506657025
 30
0.0
 40
24.432617187500004
 41
0.0
 71
               1
 72
               1
  1
1100
  7
_______
  0
LINE
  5
FF
100
AcDbEntity
  8
IMPORTED
  6
CONTINUOUS
 62
               1
100
AcDbLine
 10
-449.99994639389195
 20
979.99993336644366
 30
0.0
 11
-449.99994639389195
 21
1214.7374334223232
 31
0.0
  0
LINE
  5
100
100
AcDbEntity
  8
IMPORTED
  6
CONTINUOUS
 62
               1
100
AcDbLine
 10
-99.999946393892017
 20
1024.9999333664437
 30
0.0
 11
-99.999946393892017
 21
1214.7374334223232
 31
0.0
  0
LINE
  5
101
100
AcDbEntity
  8
IMPORTED
  6
CONTINUOUS
 62
               1
100
AcDbLine
 10
-479.99994628213324
 20
1184.7374335340819
 30
0.0
 11
-449.99994639389195
 21
1184.7374335340819
 31
0.0
  0
LINE
  5
102
100
AcDbEntity
  8
IMPORTED
  6
CONTINUOUS
 62
               1
100
AcDbLine
 10
-99.999946393892017
 20
1184.7374335340819
 30
0.0
 11
-69.999946505650726
 21
1184.7374335340819
 31
0.0
  0
LINE
  5
103
100
AcDbEntity
  8
IMPORTED
  6
CONTINUOUS
 62
               1
100
AcDbLine
 10
-449.99994639389195
 20
1184.7374335340819
 30
0.0
 11
-99.999946393892017
 21
1184.7374335340819
 31
0.0
  0
SOLID
  5
104
100
AcDbEntity
  8
IMPORTED
 62
               1
100
AcDbTrace
 10
-449.99994639389195
 20
1184.7374335340819
 30
0.0
 11
-420.00177744857945
 21
1187.3619332433323
 31
0.0
 12
-420.00177744857945
 22
1182.1129338248315
 32
0.0
 13
-420.00177744857945
 23
1182.1129338248315
 33
0.0
  0
SOLID
  5
105
100
AcDbEntity
  8
IMPORTED
 62
               1
100
AcDbTrace
 10
-99.999946393892017
 20
1184.7374335340819
 30
0.0
 11
-129.99811533920453
 21
1182.1129338248315
 31
0.0
 12
-129.99811533920453
 22
1187.3619332433323
 32
0.0
 13
-129.99811533920453
 23
1187.3619332433323
 33
0.0
  0
MTEXT
  5
106
100
AcDbEntity
  8
IMPORTED
 62
               1
100
AcDbMText
 10
-298.81244639389195
 20
1228.6150506657025
 30
0.0
 40
24.432617187500004
 41
0.0
 71
               1
 72
               1
  1
350
  7
_______
  0
LINE
  5
107
100
AcDbEntity
  8
IMPORTED
  6
CONTINUOUS
 62
               1
100
AcDbLine
 10
-99.999946393892017
 20
1024.9999333664437
 30
0.0
 11
-99.999946393892017
 21
1319.9999998882413
 31
0.0
  0
LINE
  5
108
100
AcDbEntity
  8
IMPORTED
  6
CONTINUOUS
 62
               1
100
AcDbLine
 10
-1899.9999463938918
 20
1024.9999333664437
 30
0.0
 11
-1899.9999463938918
 21
1319.9999998882413
 31
0.0
  0
LINE
  5
109
100
AcDbEntity
  8
IMPORTED
  6
CONTINUOUS
 62
               1
100
AcDbLine
 10
-69.999946505650726
 20
1290.0
 30
0.0
 11
-99.999946393892017
 21
1290.0
 31
0.0
  0
LINE
  5
10A
100
AcDbEntity
  8
IMPORTED
  6
CONTINUOUS
 62
               1
100
AcDbLine
 10
-1899.9999463938918
 20
1290.0
 30
0.0
 11
-1929.9999462821331
 21
1290.0
 31
0.0
  0
LINE
  5
10B
100
AcDbEntity
  8
IMPORTED
  6
CONTINUOUS
 62
               1
100
AcDbLine
 10
-99.999946393892017
 20
1290.0
 30
0.0
 11
-1899.9999463938918
 21
1290.0
 31
0.0
  0
SOLID
  5
10C
100
AcDbEntity
  8
IMPORTED
 62
               1
100
AcDbTrace
 10
-99.999946393892017
 20
1290.0
 30
0.0
 11
-129.99811533920453
 21
1287.3755002907496
 31
0.0
 12
-129.99811533920453
 22
1292.6244997092504
 32
0.0
 13
-129.99811533920453
 23
1292.6244997092504
 33
0.0
  0
SOLID
  5
10D
100
AcDbEntity
  8
IMPORTED
 62
               1
100
AcDbTrace
 10
-1899.9999463938918
 20
1290.0
 30
0.0
 11
-1870.0017774485793
 21
1292.6244997092504
 31
0.0
 12
-1870.0017774485793
 22
1287.3755002907496
 32
0.0
 13
-1870.0017774485793
 23
1287.3755002907496
 33
0.0
  0
MTEXT
  5
10E
100
AcDbEntity
  8
IMPORTED
 62
               1
100
AcDbMText
 10
-1031.7499463938918
 20
1333.8776171316206
 30
0.0
 40
24.432617187500004
 41
0.0
 71
               1
 72
               1
  1
1800
  7
_______
  0
POLYLINE
  5
10F
100
AcDbEntity
  8
IMPORTED
  6
STYLE_05
 62
              30
100
AcDb2dPolyline
 66
               1
 10
0.0
 20
0.0
 30
0.0
 70
               1
 75
               5
  0
VERTEX
  5
110
100
AcDbEntity
  8
IMPORTED
  6
STYLE_05
 62
              30
100
AcDbVertex
100
AcDb2dVertex
 10
1578.499953606108
 20
949.8037811113752
 30
0.0
  0
VERTEX
  5
111
100
AcDbEntity
  8
IMPORTED
  6
STYLE_05
 62
              30
100
AcDbVertex
100
AcDb2dVertex
 10
1581.499953606108
 20
954.99993353408172
 30
0.0
  0
VERTEX
  5
112
100
AcDbEntity
  8
IMPORTED
  6
STYLE_05
 62
              30
100
AcDbVertex
100
AcDb2dVertex
 10
1584.499953606108
 20
949.8037811113752
 30
0.0
  0
VERTEX
  5
113
100
AcDbEntity
  8
IMPORTED
  6
STYLE_05
 62
              30
100
AcDbVertex
100
AcDb2dVertex
 10
1584.499953606108
 20
929.99993353408172
 30
0.0
  0
VERTEX
  5
114
100
AcDbEntity
  8
IMPORTED
  6
STYLE_05
 62
              30
100
AcDbVertex
100
AcDb2dVertex
 10
1578.499953606108
 20
929.99993353408172
 30
0.0
  0
SEQEND
  5
115
100
AcDbEntity
  8
IMPORTED
  6
STYLE_05
 62
              30
  0
SPLINE
  5
117
100
AcDbEntity
  8
IMPORTED
  6
STYLE_05
 62
              30
100
AcDbSpline
210
0.0
220
0.0
230
1.0
 70
              13
 71
               2
 72
              20
 73
              17
 74
               0
 42
0.000001
 43
0.000001
 40
0.0
 40
0.0
 40
0.0
 40
1.0
 40
1.0
 40
2.0
 40
2.0
 40
3.0
 40
3.0
 40
4.0
 40
4.0
 40
5.0
 40
5.0
 40
6.0
 40
6.0
 40
7.0
 40
7.0
 40
8.0
 40
8.0
 40
8.0
 10
1587.999953606108
 20
929.99993353408172
 30
0.0
 41
1.0
 10
1587.999953606108
 20
929.90551925177658
 30
0.0
 41
1.0
 10
1587.999953606108
 20
929.81110496947144
 30
0.0
 41
1.0
 10
1587.9999536061075
 20
927.59993353408197
 30
0.0
 41
0.7490511335494391
 10
1585.805341609466
 20
927.32982744218737
 30
0.0
 41
1.0
 10
1585.277647607787
 20
927.26488048813451
 30
0.0
 41
1.0
 10
1584.749953606108
 20
927.19993353408177
 30
0.0
 41
1.0
 10
1581.499953606108
 20
926.79993353408167
 30
0.0
 41
1.0
 10
1578.249953606108
 20
927.19993353408177
 30
0.0
 41
1.0
 10
1577.7222596044289
 20
927.26488048813451
 30
0.0
 41
1.0
 10
1577.1945656027499
 20
927.32982744218737
 30
0.0
 41
1.0
 10
1574.999953606108
 20
927.59993353408163
 30
0.0
 41
0.7490511335493826
 10
1574.999953606108
 20
929.81110496947144
 30
0.0
 41
1.0
 10
1574.999953606108
 20
929.90551925177658
 30
0.0
 41
1.0
 10
1574.999953606108
 20
929.99993353408172
 30
0.0
 41
1.0
 10
1581.499953606108
 20
929.99993353408172
 30
0.0
 41
1.0
 10
1587.999953606108
 20
929.99993353408172
 30
0.0
 41
1.0
  0
POLYLINE
  5
118
100
AcDbEntity
  8
IMPORTED
  6
STYLE_05
 62
              30
100
AcDb2dPolyline
 66
               1
 10
0.0
 20
0.0
 30
0.0
 70
               1
 75
               5
  0
VERTEX
  5
119
100
AcDbEntity
  8
IMPORTED
  6
STYLE_05
 62
              30
100
AcDbVertex
100
AcDb2dVertex
 10
1515.499953606108
 20
949.8037811113752
 30
0.0
  0
VERTEX
  5
11A
100
AcDbEntity
  8
IMPORTED
  6
STYLE_05
 62
              30
100
AcDbVertex
100
AcDb2dVertex
 10
1518.499953606108
 20
954.99993353408172
 30
0.0
  0
VERTEX
  5
11B
100
AcDbEntity
  8
IMPORTED
  6
STYLE_05
 62
              30
100
AcDbVertex
100
AcDb2dVertex
 10
1521.499953606108
 20
949.8037811113752
 30
0.0
  0
VERTEX
  5
11C
100
AcDbEntity
  8
IMPORTED
  6
STYLE_05
 62
              30
100
AcDbVertex
100
AcDb2dVertex
 10
1521.499953606108
 20
929.99993353408172
 30
0.0
  0
VERTEX
  5
11D
100
AcDbEntity
  8
IMPORTED
  6
STYLE_05
 62
              30
100
AcDbVertex
100
AcDb2dVertex
 10
1515.499953606108
 20
929.99993353408172
 30
0.0
  0
SEQEND
  5
11E
100
AcDbEntity
  8
IMPORTED
  6
STYLE_05
 62
              30
  0
SPLINE
  5
120
100
AcDbEntity
  8
IMPORTED
  6
STYLE_05
 62
              30
100
AcDbSpline
210
0.0
220
0.0
230
1.0
 70
              13
 71
               2
 72
              20
 73
              17
 74
               0
 42
0.000001
 43
0.000001
 40
0.0
 40
0.0
 40
0.0
 40
1.0
 40
1.0
 40
2.0
 40
2.0
 40
3.0
 40
3.0
 40
4.0
 40
4.0
 40
5.0
 40
5.0
 40
6.0
 40
6.0
 40
7.0
 40
7.0
 40
8.0
 40
8.0
 40
8.0
 10
1524.999953606108
 20
929.99993353408172
 30
0.0
 41
1.0
 10
1524.999953606108
 20
929.90551925177658
 30
0.0
 41
1.0
 10
1524.999953606108
 20
929.81110496947144
 30
0.0
 41
1.0
 10
1524.9999536061077
 20
927.59993353408197
 30
0.0
 41
0.7490511335494391
 10
1522.805341609466
 20
927.32982744218737
 30
0.0
 41
1.0
 10
1522.277647607787
 20
927.26488048813451
 30
0.0
 41
1.0
 10
1521.749953606108
 20
927.19993353408177
 30
0.0
 41
1.0
 10
1518.499953606108
 20
926.79993353408167
 30
0.0
 41
1.0
 10
1515.249953606108
 20
927.19993353408177
 30
0.0
 41
1.0
 10
1514.7222596044289
 20
927.26488048813451
 30
0.0
 41
1.0
 10
1514.1945656027499
 20
927.32982744218737
 30
0.0
 41
1.0
 10
1511.999953606108
 20
927.59993353408163
 30
0.0
 41
0.7490511335493826
 10
1511.999953606108
 20
929.81110496947144
 30
0.0
 41
1.0
 10
1511.999953606108
 20
929.90551925177658
 30
0.0
 41
1.0
 10
1511.999953606108
 20
929.99993353408172
 30
0.0
 41
1.0
 10
1518.499953606108
 20
929.99993353408172
 30
0.0
 41
1.0
 10
1524.999953606108
 20
929.99993353408172
 30
0.0
 41
1.0
  0
POLYLINE
  5
121
100
AcDbEntity
  8
IMPORTED
  6
STYLE_05
 62
              30
100
AcDb2dPolyline
 66
               1
 10
0.0
 20
0.0
 30
0.0
 70
               1
 75
               5
  0
VERTEX
  5
122
100
AcDbEntity
  8
IMPORTED
  6
STYLE_05
 62
              30
100
AcDbVertex
100
AcDb2dVertex
 10
1460.499953606108
 20
949.8037811113752
 30
0.0
  0
VERTEX
  5
123
100
AcDbEntity
  8
IMPORTED
  6
STYLE_05
 62
              30
100
AcDbVertex
100
AcDb2dVertex
 10
1463.499953606108
 20
954.99993353408172
 30
0.0
  0
VERTEX
  5
124
100
AcDbEntity
  8
IMPORTED
  6
STYLE_05
 62
              30
100
AcDbVertex
100
AcDb2dVertex
 10
1466.499953606108
 20
949.8037811113752
 30
0.0
  0
VERTEX
  5
125
100
AcDbEntity
  8
IMPORTED
  6
STYLE_05
 62
              30
100
AcDbVertex
100
AcDb2dVertex
 10
1466.499953606108
 20
929.99993353408172
 30
0.0
  0
VERTEX
  5
126
100
AcDbEntity
  8
IMPORTED
  6
STYLE_05
 62
              30
100
AcDbVertex
100
AcDb2dVertex
 10
1460.499953606108
 20
929.99993353408172
 30
0.0
  0
SEQEND
  5
127
100
AcDbEntity
  8
IMPORTED
  6
STYLE_05
 62
              30
  0
SPLINE
  5
129
100
AcDbEntity
  8
IMPORTED
  6
STYLE_05
 62
              30
100
AcDbSpline
210
0.0
220
0.0
230
1.0
 70
              13
 71
               2
 72
              20
 73
              17
 74
               0
 42
0.000001
 43
0.000001
 40
0.0
 40
0.0
 40
0.0
 40
1.0
 40
1.0
 40
2.0
 40
2.0
 40
3.0
 40
3.0
 40
4.0
 40
4.0
 40
5.0
 40
5.0
 40
6.0
 40
6.0
 40
7.0
 40
7.0
 40
8.0
 40
8.0
 40
8.0
 10
1469.999953606108
 20
929.99993353408172
 30
0.0
 41
1.0
 10
1469.999953606108
 20
929.90551925177658
 30
0.0
 41
1.0
 10
1469.999953606108
 20
929.81110496947144
 30
0.0
 41
1.0
 10
1469.9999536061077
 20
927.59993353408197
 30
0.0
 41
0.7490511335494391
 10
1467.805341609466
 20
927.32982744218737
 30
0.0
 41
1.0
 10
1467.277647607787
 20
927.26488048813451
 30
0.0
 41
1.0
 10
1466.749953606108
 20
927.19993353408177
 30
0.0
 41
1.0
 10
1463.499953606108
 20
926.79993353408167
 30
0.0
 41
1.0
 10
1460.249953606108
 20
927.19993353408177
 30
0.0
 41
1.0
 10
1459.7222596044289
 20
927.26488048813451
 30
0.0
 41
1.0
 10
1459.1945656027499
 20
927.32982744218737
 30
0.0
 41
1.0
 10
1456.999953606108
 20
927.59993353408163
 30
0.0
 41
0.7490511335493826
 10
1456.999953606108
 20
929.81110496947144
 30
0.0
 41
1.0
 10
1456.999953606108
 20
929.90551925177658
 30
0.0
 41
1.0
 10
1456.999953606108
 20
929.99993353408172
 30
0.0
 41
1.0
 10
1463.499953606108
 20
929.99993353408172
 30
0.0
 41
1.0
 10
1469.999953606108
 20
929.99993353408172
 30
0.0
 41
1.0
  0
POLYLINE
  5
12A
100
AcDbEntity
  8
IMPORTED
  6
STYLE_05
 62
              30
100
AcDb2dPolyline
 66
               1
 10
0.0
 20
0.0
 30
0.0
 70
               1
 75
               5
  0
VERTEX
  5
12B
100
AcDbEntity
  8
IMPORTED
  6
STYLE_05
 62
              30
100
AcDbVertex
100
AcDb2dVertex
 10
1360.499953606108
 20
949.8037811113752
 30
0.0
  0
VERTEX
  5
12C
100
AcDbEntity
  8
IMPORTED
  6
STYLE_05
 62
              30
100
AcDbVertex
100
AcDb2dVertex
 10
1363.499953606108
 20
954.99993353408172
 30
0.0
  0
VERTEX
  5
12D
100
AcDbEntity
  8
IMPORTED
  6
STYLE_05
 62
              30
100
AcDbVertex
100
AcDb2dVertex
 10
1366.499953606108
 20
949.8037811113752
 30
0.0
  0
VERTEX
  5
12E
100
AcDbEntity
  8
IMPORTED
  6
STYLE_05
 62
              30
100
AcDbVertex
100
AcDb2dVertex
 10
1366.499953606108
 20
929.99993353408172
 30
0.0
  0
VERTEX
  5
12F
100
AcDbEntity
  8
IMPORTED
  6
STYLE_05
 62
              30
100
AcDbVertex
100
AcDb2dVertex
 10
1360.499953606108
 20
929.99993353408172
 30
0.0
  0
SEQEND
  5
130
100
AcDbEntity
  8
IMPORTED
  6
STYLE_05
 62
              30
  0
SPLINE
  5
132
100
AcDbEntity
  8
IMPORTED
  6
STYLE_05
 62
              30
100
AcDbSpline
210
0.0
220
0.0
230
1.0
 70
              13
 71
               2
 72
              20
 73
              17
 74
               0
 42
0.000001
 43
0.000001
 40
0.0
 40
0.0
 40
0.0
 40
1.0
 40
1.0
 40
2.0
 40
2.0
 40
3.0
 40
3.0
 40
4.0
 40
4.0
 40
5.0
 40
5.0
 40
6.0
 40
6.0
 40
7.0
 40
7.0
 40
8.0
 40
8.0
 40
8.0
 10
1369.999953606108
 20
929.99993353408172
 30
0.0
 41
1.0
 10
1369.999953606108
 20
929.90551925177658
 30
0.0
 41
1.0
 10
1369.999953606108
 20
929.81110496947144
 30
0.0
 41
1.0
 10
1369.9999536061077
 20
927.59993353408197
 30
0.0
 41
0.7490511335494391
 10
1367.805341609466
 20
927.32982744218737
 30
0.0
 41
1.0
 10
1367.277647607787
 20
927.26488048813451
 30
0.0
 41
1.0
 10
1366.749953606108
 20
927.19993353408177
 30
0.0
 41
1.0
 10
1363.499953606108
 20
926.79993353408167
 30
0.0
 41
1.0
 10
1360.249953606108
 20
927.19993353408177
 30
0.0
 41
1.0
 10
1359.7222596044289
 20
927.26488048813451
 30
0.0
 41
1.0
 10
1359.1945656027499
 20
927.32982744218737
 30
0.0
 41
1.0
 10
1356.999953606108
 20
927.59993353408163
 30
0.0
 41
0.7490511335493826
 10
1356.999953606108
 20
929.81110496947144
 30
0.0
 41
1.0
 10
1356.999953606108
 20
929.90551925177658
 30
0.0
 41
1.0
 10
1356.999953606108
 20
929.99993353408172
 30
0.0
 41
1.0
 10
1363.499953606108
 20
929.99993353408172
 30
0.0
 41
1.0
 10
1369.999953606108
 20
929.99993353408172
 30
0.0
 41
1.0
  0
POLYLINE
  5
133
100
AcDbEntity
  8
IMPORTED
  6
STYLE_05
 62
              30
100
AcDb2dPolyline
 66
               1
 10
0.0
 20
0.0
 30
0.0
 70
               1
 75
               5
  0
VERTEX
  5
134
100
AcDbEntity
  8
IMPORTED
  6
STYLE_05
 62
              30
100
AcDbVertex
100
AcDb2dVertex
 10
1305.499953606108
 20
949.8037811113752
 30
0.0
  0
VERTEX
  5
135
100
AcDbEntity
  8
IMPORTED
  6
STYLE_05
 62
              30
100
AcDbVertex
100
AcDb2dVertex
 10
1308.499953606108
 20
954.99993353408172
 30
0.0
  0
VERTEX
  5
136
100
AcDbEntity
  8
IMPORTED
  6
STYLE_05
 62
              30
100
AcDbVertex
100
AcDb2dVertex
 10
1311.499953606108
 20
949.8037811113752
 30
0.0
  0
VERTEX
  5
137
100
AcDbEntity
  8
IMPORTED
  6
STYLE_05
 62
              30
100
AcDbVertex
100
AcDb2dVertex
 10
1311.499953606108
 20
929.99993353408172
 30
0.0
  0
VERTEX
  5
138
100
AcDbEntity
  8
IMPORTED
  6
STYLE_05
 62
              30
100
AcDbVertex
100
AcDb2dVertex
 10
1305.499953606108
 20
929.99993353408172
 30
0.0
  0
SEQEND
  5
139
100
AcDbEntity
  8
IMPORTED
  6
STYLE_05
 62
              30
  0
SPLINE
  5
13B
100
AcDbEntity
  8
IMPORTED
  6
STYLE_05
 62
              30
100
AcDbSpline
210
0.0
220
0.0
230
1.0
 70
              13
 71
               2
 72
              20
 73
              17
 74
               0
 42
0.000001
 43
0.000001
 40
0.0
 40
0.0
 40
0.0
 40
1.0
 40
1.0
 40
2.0
 40
2.0
 40
3.0
 40
3.0
 40
4.0
 40
4.0
 40
5.0
 40
5.0
 40
6.0
 40
6.0
 40
7.0
 40
7.0
 40
8.0
 40
8.0
 40
8.0
 10
1314.999953606108
 20
929.99993353408172
 30
0.0
 41
1.0
 10
1314.999953606108
 20
929.90551925177658
 30
0.0
 41
1.0
 10
1314.999953606108
 20
929.81110496947144
 30
0.0
 41
1.0
 10
1314.9999536061077
 20
927.59993353408197
 30
0.0
 41
0.7490511335494391
 10
1312.805341609466
 20
927.32982744218737
 30
0.0
 41
1.0
 10
1312.277647607787
 20
927.26488048813451
 30
0.0
 41
1.0
 10
1311.749953606108
 20
927.19993353408177
 30
0.0
 41
1.0
 10
1308.499953606108
 20
926.79993353408167
 30
0.0
 41
1.0
 10
1305.249953606108
 20
927.19993353408177
 30
0.0
 41
1.0
 10
1304.7222596044289
 20
927.26488048813451
 30
0.0
 41
1.0
 10
1304.1945656027499
 20
927.32982744218737
 30
0.0
 41
1.0
 10
1301.999953606108
 20
927.59993353408163
 30
0.0
 41
0.7490511335493826
 10
1301.999953606108
 20
929.81110496947144
 30
0.0
 41
1.0
 10
1301.999953606108
 20
929.90551925177658
 30
0.0
 41
1.0
 10
1301.999953606108
 20
929.99993353408172
 30
0.0
 41
1.0
 10
1308.499953606108
 20
929.99993353408172
 30
0.0
 41
1.0
 10
1314.999953606108
 20
929.99993353408172
 30
0.0
 41
1.0
  0
POLYLINE
  5
13C
100
AcDbEntity
  8
IMPORTED
  6
STYLE_05
 62
              30
100
AcDb2dPolyline
 66
               1
 10
0.0
 20
0.0
 30
0.0
 70
               1
 75
               5
  0
VERTEX
  5
13D
100
AcDbEntity
  8
IMPORTED
  6
STYLE_05
 62
              30
100
AcDbVertex
100
AcDb2dVertex
 10
1242.499953606108
 20
949.8037811113752
 30
0.0
  0
VERTEX
  5
13E
100
AcDbEntity
  8
IMPORTED
  6
STYLE_05
 62
              30
100
AcDbVertex
100
AcDb2dVertex
 10
1245.499953606108
 20
954.99993353408172
 30
0.0
  0
VERTEX
  5
13F
100
AcDbEntity
  8
IMPORTED
  6
STYLE_05
 62
              30
100
AcDbVertex
100
AcDb2dVertex
 10
1248.499953606108
 20
949.8037811113752
 30
0.0
  0
VERTEX
  5
140
100
AcDbEntity
  8
IMPORTED
  6
STYLE_05
 62
              30
100
AcDbVertex
100
AcDb2dVertex
 10
1248.499953606108
 20
929.99993353408172
 30
0.0
  0
VERTEX
  5
141
100
AcDbEntity
  8
IMPORTED
  6
STYLE_05
 62
              30
100
AcDbVertex
100
AcDb2dVertex
 10
1242.499953606108
 20
929.99993353408172
 30
0.0
  0
SEQEND
  5
142
100
AcDbEntity
  8
IMPORTED
  6
STYLE_05
 62
              30
  0
SPLINE
  5
144
100
AcDbEntity
  8
IMPORTED
  6
STYLE_05
 62
              30
100
AcDbSpline
210
0.0
220
0.0
230
1.0
 70
              13
 71
               2
 72
              20
 73
              17
 74
               0
 42
0.000001
 43
0.000001
 40
0.0
 40
0.0
 40
0.0
 40
1.0
 40
1.0
 40
2.0
 40
2.0
 40
3.0
 40
3.0
 40
4.0
 40
4.0
 40
5.0
 40
5.0
 40
6.0
 40
6.0
 40
7.0
 40
7.0
 40
8.0
 40
8.0
 40
8.0
 10
1251.999953606108
 20
929.99993353408172
 30
0.0
 41
1.0
 10
1251.999953606108
 20
929.90551925177658
 30
0.0
 41
1.0
 10
1251.999953606108
 20
929.81110496947144
 30
0.0
 41
1.0
 10
1251.9999536061077
 20
927.59993353408197
 30
0.0
 41
0.7490511335494391
 10
1249.805341609466
 20
927.32982744218737
 30
0.0
 41
1.0
 10
1249.277647607787
 20
927.26488048813451
 30
0.0
 41
1.0
 10
1248.749953606108
 20
927.19993353408177
 30
0.0
 41
1.0
 10
1245.499953606108
 20
926.79993353408167
 30
0.0
 41
1.0
 10
1242.249953606108
 20
927.19993353408177
 30
0.0
 41
1.0
 10
1241.7222596044289
 20
927.26488048813451
 30
0.0
 41
1.0
 10
1241.1945656027499
 20
927.32982744218737
 30
0.0
 41
1.0
 10
1238.999953606108
 20
927.59993353408163
 30
0.0
 41
0.7490511335493826
 10
1238.999953606108
 20
929.81110496947144
 30
0.0
 41
1.0
 10
1238.999953606108
 20
929.90551925177658
 30
0.0
 41
1.0
 10
1238.999953606108
 20
929.99993353408172
 30
0.0
 41
1.0
 10
1245.499953606108
 20
929.99993353408172
 30
0.0
 41
1.0
 10
1251.999953606108
 20
929.99993353408172
 30
0.0
 41
1.0
  0
POLYLINE
  5
145
100
AcDbEntity
  8
IMPORTED
  6
CONTINUOUS
 62
              30
100
AcDb2dPolyline
 66
               1
 10
0.0
 20
0.0
 30
0.0
 70
             129
  0
VERTEX
  5
146
100
AcDbEntity
  8
IMPORTED
  6
CONTINUOUS
 62
              30
100
AcDbVertex
100
AcDb2dVertex
 10
1073.499953606108
 20
384.99993353408183
 30
0.0
  0
VERTEX
  5
147
100
AcDbEntity
  8
IMPORTED
  6
CONTINUOUS
 62
              30
100
AcDbVertex
100
AcDb2dVertex
 10
1753.499953606108
 20
384.99993353408183
 30
0.0
  0
VERTEX
  5
148
100
AcDbEntity
  8
IMPORTED
  6
CONTINUOUS
 62
              30
100
AcDbVertex
100
AcDb2dVertex
 10
1753.499953606108
 20
334.99993353408183
 30
0.0
  0
VERTEX
  5
149
100
AcDbEntity
  8
IMPORTED
  6
CONTINUOUS
 62
              30
100
AcDbVertex
100
AcDb2dVertex
 10
1073.499953606108
 20
334.99993353408183
 30
0.0
  0
VERTEX
  5
14A
100
AcDbEntity
  8
IMPORTED
  6
CONTINUOUS
 62
              30
100
AcDbVertex
100
AcDb2dVertex
 10
1073.499953606108
 20
384.99993353408183
 30
0.0
  0
SEQEND
  5
14B
100
AcDbEntity
  8
IMPORTED
  6
CONTINUOUS
 62
              30
  0
POLYLINE
  5
14C
100
AcDbEntity
  8
IMPORTED
  6
CONTINUOUS
 62
              30
100
AcDb2dPolyline
 66
               1
 10
0.0
 20
0.0
 30
0.0
 70
             129
  0
VERTEX
  5
14D
100
AcDbEntity
  8
IMPORTED
  6
CONTINUOUS
 62
              30
100
AcDbVertex
100
AcDb2dVertex
 10
1073.499953606108
 20
334.99993353408183
 30
0.0
  0
VERTEX
  5
14E
100
AcDbEntity
  8
IMPORTED
  6
CONTINUOUS
 62
              30
100
AcDbVertex
100
AcDb2dVertex
 10
1753.499953606108
 20
334.99993353408183
 30
0.0
  0
VERTEX
  5
14F
100
AcDbEntity
  8
IMPORTED
  6
CONTINUOUS
 62
              30
100
AcDbVertex
100
AcDb2dVertex
 10
1753.499953606108
 20
234.99993353408186
 30
0.0
  0
VERTEX
  5
150
100
AcDbEntity
  8
IMPORTED
  6
CONTINUOUS
 62
              30
100
AcDbVertex
100
AcDb2dVertex
 10
1073.499953606108
 20
234.99993353408186
 30
0.0
  0
VERTEX
  5
151
100
AcDbEntity
  8
IMPORTED
  6
CONTINUOUS
 62
              30
100
AcDbVertex
100
AcDb2dVertex
 10
1073.499953606108
 20
334.99993353408183
 30
0.0
  0
SEQEND
  5
152
100
AcDbEntity
  8
IMPORTED
  6
CONTINUOUS
 62
              30
  0
LINE
  5
153
100
AcDbEntity
  8
IMPORTED
  6
CONTINUOUS
 62
              30
100
AcDbLine
 10
1713.499953606108
 20
234.99993353408186
 30
0.0
 11
1665.253453606108
 21
334.99993353408183
 31
0.0
  0
LINE
  5
154
100
AcDbEntity
  8
IMPORTED
  6
CONTINUOUS
 62
              30
100
AcDbLine
 10
1677.315153606108
 20
309.99993353408183
 30
0.0
 11
1689.376753606108
 21
334.99993353408183
 31
0.0
  0
LINE
  5
155
100
AcDbEntity
  8
IMPORTED
  6
CONTINUOUS
 62
              30
100
AcDbLine
 10
1701.438353606108
 20
260.00003353408187
 30
0.0
 11
1689.376553606108
 21
235.00003353408187
 31
0.0
  0
LINE
  5
156
100
AcDbEntity
  8
IMPORTED
  6
CONTINUOUS
 62
              30
100
AcDbLine
 10
1633.499953606108
 20
234.99993353408186
 30
0.0
 11
1585.253453606108
 21
334.99993353408183
 31
0.0
  0
LINE
  5
157
100
AcDbEntity
  8
IMPORTED
  6
CONTINUOUS
 62
              30
100
AcDbLine
 10
1597.315153606108
 20
309.99993353408183
 30
0.0
 11
1609.376753606108
 21
334.99993353408183
 31
0.0
  0
LINE
  5
158
100
AcDbEntity
  8
IMPORTED
  6
CONTINUOUS
 62
              30
100
AcDbLine
 10
1621.438353606108
 20
260.00003353408187
 30
0.0
 11
1609.376553606108
 21
235.00003353408187
 31
0.0
  0
LINE
  5
159
100
AcDbEntity
  8
IMPORTED
  6
CONTINUOUS
 62
              30
100
AcDbLine
 10
1553.499953606108
 20
234.99993353408186
 30
0.0
 11
1505.253453606108
 21
334.99993353408183
 31
0.0
  0
LINE
  5
15A
100
AcDbEntity
  8
IMPORTED
  6
CONTINUOUS
 62
              30
100
AcDbLine
 10
1517.315153606108
 20
309.99993353408183
 30
0.0
 11
1529.376753606108
 21
334.99993353408183
 31
0.0
  0
LINE
  5
15B
100
AcDbEntity
  8
IMPORTED
  6
CONTINUOUS
 62
              30
100
AcDbLine
 10
1541.438353606108
 20
260.00003353408187
 30
0.0
 11
1529.376553606108
 21
235.00003353408187
 31
0.0
  0
LINE
  5
15C
100
AcDbEntity
  8
IMPORTED
  6
CONTINUOUS
 62
              30
100
AcDbLine
 10
1473.499953606108
 20
234.99993353408186
 30
0.0
 11
1425.253453606108
 21
334.99993353408183
 31
0.0
  0
LINE
  5
15D
100
AcDbEntity
  8
IMPORTED
  6
CONTINUOUS
 62
              30
100
AcDbLine
 10
1437.315153606108
 20
309.99993353408183
 30
0.0
 11
1449.376753606108
 21
334.99993353408183
 31
0.0
  0
LINE
  5
15E
100
AcDbEntity
  8
IMPORTED
  6
CONTINUOUS
 62
              30
100
AcDbLine
 10
1461.438353606108
 20
260.00003353408187
 30
0.0
 11
1449.376553606108
 21
235.00003353408187
 31
0.0
  0
LINE
  5
15F
100
AcDbEntity
  8
IMPORTED
  6
CONTINUOUS
 62
              30
100
AcDbLine
 10
1393.499953606108
 20
234.99993353408186
 30
0.0
 11
1345.253453606108
 21
334.99993353408183
 31
0.0
  0
LINE
  5
160
100
AcDbEntity
  8
IMPORTED
  6
CONTINUOUS
 62
              30
100
AcDbLine
 10
1357.315153606108
 20
309.99993353408183
 30
0.0
 11
1369.376753606108
 21
334.99993353408183
 31
0.0
  0
LINE
  5
161
100
AcDbEntity
  8
IMPORTED
  6
CONTINUOUS
 62
              30
100
AcDbLine
 10
1381.438353606108
 20
260.00003353408187
 30
0.0
 11
1369.376553606108
 21
235.00003353408187
 31
0.0
  0
LINE
  5
162
100
AcDbEntity
  8
IMPORTED
  6
CONTINUOUS
 62
              30
100
AcDbLine
 10
1675.999853606108
 20
384.99993353408183
 30
0.0
 11
1717.761653606108
 21
334.99993353408183
 31
0.0
  0
LINE
  5
163
100
AcDbEntity
  8
IMPORTED
  6
CONTINUOUS
 62
              30
100
AcDbLine
 10
1687.8119536061079
 20
384.99993353408183
 30
0.0
 11
1729.5736536061079
 21
334.99993353408183
 31
0.0
  0
LINE
  5
164
100
AcDbEntity
  8
IMPORTED
  6
CONTINUOUS
 62
              30
100
AcDbLine
 10
1525.999853606108
 20
384.99993353408183
 30
0.0
 11
1567.761653606108
 21
334.99993353408183
 31
0.0
  0
LINE
  5
165
100
AcDbEntity
  8
IMPORTED
  6
CONTINUOUS
 62
              30
100
AcDbLine
 10
1537.8119536061079
 20
384.99993353408183
 30
0.0
 11
1579.5736536061079
 21
334.99993353408183
 31
0.0
  0
LINE
  5
166
100
AcDbEntity
  8
IMPORTED
  6
CONTINUOUS
 62
              30
100
AcDbLine
 10
1375.999953606108
 20
384.99993353408183
 30
0.0
 11
1417.761553606108
 21
334.99993353408183
 31
0.0
  0
LINE
  5
167
100
AcDbEntity
  8
IMPORTED
  6
CONTINUOUS
 62
              30
100
AcDbLine
 10
1387.8119536061079
 20
384.99993353408183
 30
0.0
 11
1429.5736536061079
 21
334.99993353408183
 31
0.0
  0
POLYLINE
  5
168
100
AcDbEntity
  8
IMPORTED
  6
CONTINUOUS
 62
              30
100
AcDb2dPolyline
 66
               1
 10
0.0
 20
0.0
 30
0.0
 70
             129
  0
VERTEX
  5
169
100
AcDbEntity
  8
IMPORTED
  6
CONTINUOUS
 62
              30
100
AcDbVertex
100
AcDb2dVertex
 10
1123.499953606108
 20
534.99993353408183
 30
0.0
  0
VERTEX
  5
16A
100
AcDbEntity
  8
IMPORTED
  6
CONTINUOUS
 62
              30
100
AcDbVertex
100
AcDb2dVertex
 10
1703.499953606108
 20
534.99993353408183
 30
0.0
  0
VERTEX
  5
16B
100
AcDbEntity
  8
IMPORTED
  6
CONTINUOUS
 62
              30
100
AcDbVertex
100
AcDb2dVertex
 10
1703.499953606108
 20
384.99993353408183
 30
0.0
  0
VERTEX
  5
16C
100
AcDbEntity
  8
IMPORTED
  6
CONTINUOUS
 62
              30
100
AcDbVertex
100
AcDb2dVertex
 10
1123.499953606108
 20
384.99993353408183
 30
0.0
  0
VERTEX
  5
16D
100
AcDbEntity
  8
IMPORTED
  6
CONTINUOUS
 62
              30
100
AcDbVertex
100
AcDb2dVertex
 10
1123.499953606108
 20
534.99993353408183
 30
0.0
  0
SEQEND
  5
16E
100
AcDbEntity
  8
IMPORTED
  6
CONTINUOUS
 62
              30
  0
LINE
  5
16F
100
AcDbEntity
  8
IMPORTED
  6
CONTINUOUS
 62
              30
100
AcDbLine
 10
1123.499853606108
 20
469.12103353408185
 30
0.0
 11
1189.3788536061079
 21
534.99993353408183
 31
0.0
  0
LINE
  5
170
100
AcDbEntity
  8
IMPORTED
  6
CONTINUOUS
 62
              30
100
AcDbLine
 10
1251.5104536061081
 20
384.99993353408183
 30
0.0
 11
1401.5104536061078
 21
534.99993353408183
 31
0.0
  0
LINE
  5
171
100
AcDbEntity
  8
IMPORTED
  6
CONTINUOUS
 62
              30
100
AcDbLine
 10
1463.642053606108
 20
384.99993353408183
 30
0.0
 11
1613.642053606108
 21
534.99993353408183
 31
0.0
  0
LINE
  5
172
100
AcDbEntity
  8
IMPORTED
  6
CONTINUOUS
 62
              30
100
AcDbLine
 10
1675.773553606108
 20
384.99993353408183
 30
0.0
 11
1703.499953606108
 21
412.72623353408187
 31
0.0
  0
LINE
  5
173
100
AcDbEntity
  8
IMPORTED
  6
CONTINUOUS
 62
              30
100
AcDbLine
 10
1123.499853606108
 20
483.97063353408186
 30
0.0
 11
1174.5292536061079
 21
534.99993353408183
 31
0.0
  0
LINE
  5
174
100
AcDbEntity
  8
IMPORTED
  6
CONTINUOUS
 62
              30
100
AcDbLine
 10
1236.6612536061079
 20
384.99993353408183
 30
0.0
 11
1386.6612536061079
 21
534.99993353408183
 31
0.0
  0
LINE
  5
175
100
AcDbEntity
  8
IMPORTED
  6
CONTINUOUS
 62
              30
100
AcDbLine
 10
1448.793253606108
 20
384.99993353408183
 30
0.0
 11
1598.793253606108
 21
534.99993353408183
 31
0.0
  0
LINE
  5
176
100
AcDbEntity
  8
IMPORTED
  6
CONTINUOUS
 62
              30
100
AcDbLine
 10
1660.9252536061078
 20
385.00003353408187
 30
0.0
 11
1703.499953606108
 21
427.57463353408184
 31
0.0
  0
LINE
  5
177
100
AcDbEntity
  8
IMPORTED
  6
CONTINUOUS
 62
              30
100
AcDbLine
 10
1123.499853606108
 20
498.81993353408183
 30
0.0
 11
1159.680053606108
 21
535.00003353408181
 31
0.0
  0
LINE
  5
178
100
AcDbEntity
  8
IMPORTED
  6
CONTINUOUS
 62
              30
100
AcDbLine
 10
1221.8120536061078
 20
384.99993353408183
 30
0.0
 11
1371.8120536061078
 21
534.99993353408183
 31
0.0
  0
LINE
  5
179
100
AcDbEntity
  8
IMPORTED
  6
CONTINUOUS
 62
              30
100
AcDbLine
 10
1433.9440536061079
 20
384.99993353408183
 30
0.0
 11
1583.9440536061079
 21
534.99993353408183
 31
0.0
  0
LINE
  5
17A
100
AcDbEntity
  8
IMPORTED
  6
CONTINUOUS
 62
              30
100
AcDbLine
 10
1646.075953606108
 20
384.99993353408183
 30
0.0
 11
1703.499853606108
 21
442.42393353408187
 31
0.0
  0
LINE
  5
17B
100
AcDbEntity
  8
IMPORTED
  6
CONTINUOUS
 62
              30
100
AcDbLine
 10
1313.499953606108
 20
234.99993353408186
 30
0.0
 11
1265.253453606108
 21
334.99993353408183
 31
0.0
  0
LINE
  5
17C
100
AcDbEntity
  8
IMPORTED
  6
CONTINUOUS
 62
              30
100
AcDbLine
 10
1277.315153606108
 20
309.99993353408183
 30
0.0
 11
1289.376753606108
 21
334.99993353408183
 31
0.0
  0
LINE
  5
17D
100
AcDbEntity
  8
IMPORTED
  6
CONTINUOUS
 62
              30
100
AcDbLine
 10
1301.438353606108
 20
260.00003353408187
 30
0.0
 11
1289.376553606108
 21
235.00003353408187
 31
0.0
  0
LINE
  5
17E
100
AcDbEntity
  8
IMPORTED
  6
CONTINUOUS
 62
              30
100
AcDbLine
 10
1233.499953606108
 20
234.99993353408186
 30
0.0
 11
1185.253453606108
 21
334.99993353408183
 31
0.0
  0
LINE
  5
17F
100
AcDbEntity
  8
IMPORTED
  6
CONTINUOUS
 62
              30
100
AcDbLine
 10
1197.315153606108
 20
309.99993353408183
 30
0.0
 11
1209.376753606108
 21
334.99993353408183
 31
0.0
  0
LINE
  5
180
100
AcDbEntity
  8
IMPORTED
  6
CONTINUOUS
 62
              30
100
AcDbLine
 10
1221.438353606108
 20
260.00003353408187
 30
0.0
 11
1209.376553606108
 21
235.00003353408187
 31
0.0
  0
LINE
  5
181
100
AcDbEntity
  8
IMPORTED
  6
CONTINUOUS
 62
              30
100
AcDbLine
 10
1153.499853606108
 20
234.99993353408186
 30
0.0
 11
1105.253453606108
 21
334.99993353408183
 31
0.0
  0
LINE
  5
182
100
AcDbEntity
  8
IMPORTED
  6
CONTINUOUS
 62
              30
100
AcDbLine
 10
1117.315153606108
 20
309.99993353408183
 30
0.0
 11
1129.376753606108
 21
334.99993353408183
 31
0.0
  0
LINE
  5
183
100
AcDbEntity
  8
IMPORTED
  6
CONTINUOUS
 62
              30
100
AcDbLine
 10
1141.438353606108
 20
260.00003353408187
 30
0.0
 11
1129.376553606108
 21
235.00003353408187
 31
0.0
  0
LINE
  5
184
100
AcDbEntity
  8
IMPORTED
  6
CONTINUOUS
 62
              30
100
AcDbLine
 10
1225.999853606108
 20
384.99993353408183
 30
0.0
 11
1267.761653606108
 21
334.99993353408183
 31
0.0
  0
LINE
  5
185
100
AcDbEntity
  8
IMPORTED
  6
CONTINUOUS
 62
              30
100
AcDbLine
 10
1237.8119536061079
 20
384.99993353408183
 30
0.0
 11
1279.5736536061079
 21
334.99993353408183
 31
0.0
  0
LINE
  5
186
100
AcDbEntity
  8
IMPORTED
  6
CONTINUOUS
 62
              30
100
AcDbLine
 10
1075.999953606108
 20
384.99993353408183
 30
0.0
 11
1117.761553606108
 21
334.99993353408183
 31
0.0
  0
LINE
  5
187
100
AcDbEntity
  8
IMPORTED
  6
CONTINUOUS
 62
              30
100
AcDbLine
 10
1087.8120536061081
 20
384.99993353408183
 30
0.0
 11
1129.5736536061079
 21
334.99993353408183
 31
0.0
  0
POLYLINE
  5
188
100
AcDbEntity
  8
IMPORTED
  6
CONTINUOUS
 62
              30
100
AcDb2dPolyline
 66
               1
 10
0.0
 20
0.0
 30
0.0
 70
             129
  0
VERTEX
  5
189
100
AcDbEntity
  8
IMPORTED
  6
CONTINUOUS
 62
              30
100
AcDbVertex
100
AcDb2dVertex
 10
-1749.9999463938918
 20
384.99993353408183
 30
0.0
  0
VERTEX
  5
18A
100
AcDbEntity
  8
IMPORTED
  6
CONTINUOUS
 62
              30
100
AcDbVertex
100
AcDb2dVertex
 10
-1349.9999463938918
 20
384.99993353408183
 30
0.0
  0
VERTEX
  5
18B
100
AcDbEntity
  8
IMPORTED
  6
CONTINUOUS
 62
              30
100
AcDbVertex
100
AcDb2dVertex
 10
-1349.9999463938918
 20
334.99993353408183
 30
0.0
  0
VERTEX
  5
18C
100
AcDbEntity
  8
IMPORTED
  6
CONTINUOUS
 62
              30
100
AcDbVertex
100
AcDb2dVertex
 10
-1749.9999463938918
 20
334.99993353408183
 30
0.0
  0
VERTEX
  5
18D
100
AcDbEntity
  8
IMPORTED
  6
CONTINUOUS
 62
              30
100
AcDbVertex
100
AcDb2dVertex
 10
-1749.9999463938918
 20
384.99993353408183
 30
0.0
  0
SEQEND
  5
18E
100
AcDbEntity
  8
IMPORTED
  6
CONTINUOUS
 62
              30
  0
POLYLINE
  5
18F
100
AcDbEntity
  8
IMPORTED
  6
CONTINUOUS
 62
              30
100
AcDb2dPolyline
 66
               1
 10
0.0
 20
0.0
 30
0.0
 70
             129
  0
VERTEX
  5
190
100
AcDbEntity
  8
IMPORTED
  6
CONTINUOUS
 62
              30
100
AcDbVertex
100
AcDb2dVertex
 10
-1749.9999463938918
 20
334.99993353408183
 30
0.0
  0
VERTEX
  5
191
100
AcDbEntity
  8
IMPORTED
  6
CONTINUOUS
 62
              30
100
AcDbVertex
100
AcDb2dVertex
 10
-1349.9999463938918
 20
334.99993353408183
 30
0.0
  0
VERTEX
  5
192
100
AcDbEntity
  8
IMPORTED
  6
CONTINUOUS
 62
              30
100
AcDbVertex
100
AcDb2dVertex
 10
-1349.9999463938918
 20
234.99993353408186
 30
0.0
  0
VERTEX
  5
193
100
AcDbEntity
  8
IMPORTED
  6
CONTINUOUS
 62
              30
100
AcDbVertex
100
AcDb2dVertex
 10
-1749.9999463938918
 20
234.99993353408186
 30
0.0
  0
VERTEX
  5
194
100
AcDbEntity
  8
IMPORTED
  6
CONTINUOUS
 62
              30
100
AcDbVertex
100
AcDb2dVertex
 10
-1749.9999463938918
 20
334.99993353408183
 30
0.0
  0
SEQEND
  5
195
100
AcDbEntity
  8
IMPORTED
  6
CONTINUOUS
 62
              30
  0
LINE
  5
196
100
AcDbEntity
  8
IMPORTED
  6
CONTINUOUS
 62
              30
100
AcDbLine
 10
-1359.9999463938918
 20
234.99993353408186
 30
0.0
 11
-1408.2464463938918
 21
334.99993353408183
 31
0.0
  0
LINE
  5
197
100
AcDbEntity
  8
IMPORTED
  6
CONTINUOUS
 62
              30
100
AcDbLine
 10
-1396.1847463938918
 20
309.99993353408183
 30
0.0
 11
-1384.1231463938918
 21
334.99993353408183
 31
0.0
  0
LINE
  5
198
100
AcDbEntity
  8
IMPORTED
  6
CONTINUOUS
 62
              30
100
AcDbLine
 10
-1372.0615463938918
 20
260.00003353408187
 30
0.0
 11
-1384.1233463938918
 21
235.00003353408187
 31
0.0
  0
LINE
  5
199
100
AcDbEntity
  8
IMPORTED
  6
CONTINUOUS
 62
              30
100
AcDbLine
 10
-1439.9999463938918
 20
234.99993353408186
 30
0.0
 11
-1488.2464463938918
 21
334.99993353408183
 31
0.0
  0
LINE
  5
19A
100
AcDbEntity
  8
IMPORTED
  6
CONTINUOUS
 62
              30
100
AcDbLine
 10
-1476.1847463938918
 20
309.99993353408183
 30
0.0
 11
-1464.1231463938918
 21
334.99993353408183
 31
0.0
  0
LINE
  5
19B
100
AcDbEntity
  8
IMPORTED
  6
CONTINUOUS
 62
              30
100
AcDbLine
 10
-1452.0615463938918
 20
260.00003353408187
 30
0.0
 11
-1464.1233463938918
 21
235.00003353408187
 31
0.0
  0
LINE
  5
19C
100
AcDbEntity
  8
IMPORTED
  6
CONTINUOUS
 62
              30
100
AcDbLine
 10
-1519.9999463938918
 20
234.99993353408186
 30
0.0
 11
-1568.2464463938918
 21
334.99993353408183
 31
0.0
  0
LINE
  5
19D
100
AcDbEntity
  8
IMPORTED
  6
CONTINUOUS
 62
              30
100
AcDbLine
 10
-1556.1847463938918
 20
309.99993353408183
 30
0.0
 11
-1544.1231463938918
 21
334.99993353408183
 31
0.0
  0
LINE
  5
19E
100
AcDbEntity
  8
IMPORTED
  6
CONTINUOUS
 62
              30
100
AcDbLine
 10
-1532.0615463938918
 20
260.00003353408187
 30
0.0
 11
-1544.1233463938918
 21
235.00003353408187
 31
0.0
  0
LINE
  5
19F
100
AcDbEntity
  8
IMPORTED
  6
CONTINUOUS
 62
              30
100
AcDbLine
 10
-1600.0000463938918
 20
234.99993353408186
 30
0.0
 11
-1648.2464463938918
 21
334.99993353408183
 31
0.0
  0
LINE
  5
1A0
100
AcDbEntity
  8
IMPORTED
  6
CONTINUOUS
 62
              30
100
AcDbLine
 10
-1636.1847463938918
 20
309.99993353408183
 30
0.0
 11
-1624.1231463938918
 21
334.99993353408183
 31
0.0
  0
LINE
  5
1A1
100
AcDbEntity
  8
IMPORTED
  6
CONTINUOUS
 62
              30
100
AcDbLine
 10
-1612.0615463938918
 20
260.00003353408187
 30
0.0
 11
-1624.1233463938918
 21
235.00003353408187
 31
0.0
  0
LINE
  5
1A2
100
AcDbEntity
  8
IMPORTED
  6
CONTINUOUS
 62
              30
100
AcDbLine
 10
-1679.9999463938918
 20
234.99993353408186
 30
0.0
 11
-1728.2464463938918
 21
334.99993353408183
 31
0.0
  0
LINE
  5
1A3
100
AcDbEntity
  8
IMPORTED
  6
CONTINUOUS
 62
              30
100
AcDbLine
 10
-1716.1847463938918
 20
309.99993353408183
 30
0.0
 11
-1704.1231463938918
 21
334.99993353408183
 31
0.0
  0
LINE
  5
1A4
100
AcDbEntity
  8
IMPORTED
  6
CONTINUOUS
 62
              30
100
AcDbLine
 10
-1692.0615463938918
 20
260.00003353408187
 30
0.0
 11
-1704.1233463938918
 21
235.00003353408187
 31
0.0
  0
LINE
  5
1A5
100
AcDbEntity
  8
IMPORTED
  6
CONTINUOUS
 62
              30
100
AcDbLine
 10
-1427.5000463938918
 20
384.99993353408183
 30
0.0
 11
-1385.7382463938918
 21
334.99993353408183
 31
0.0
  0
LINE
  5
1A6
100
AcDbEntity
  8
IMPORTED
  6
CONTINUOUS
 62
              30
100
AcDbLine
 10
-1415.6879463938919
 20
384.99993353408183
 30
0.0
 11
-1373.9262463938919
 21
334.99993353408183
 31
0.0
  0
LINE
  5
1A7
100
AcDbEntity
  8
IMPORTED
  6
CONTINUOUS
 62
              30
100
AcDbLine
 10
-1577.5000463938918
 20
384.99993353408183
 30
0.0
 11
-1535.7382463938918
 21
334.99993353408183
 31
0.0
  0
LINE
  5
1A8
100
AcDbEntity
  8
IMPORTED
  6
CONTINUOUS
 62
              30
100
AcDbLine
 10
-1565.6879463938917
 20
384.99993353408183
 30
0.0
 11
-1523.9262463938919
 21
334.99993353408183
 31
0.0
  0
LINE
  5
1A9
100
AcDbEntity
  8
IMPORTED
  6
CONTINUOUS
 62
              30
100
AcDbLine
 10
-1727.5000463938918
 20
384.99993353408183
 30
0.0
 11
-1685.7382463938918
 21
334.99993353408183
 31
0.0
  0
LINE
  5
1AA
100
AcDbEntity
  8
IMPORTED
  6
CONTINUOUS
 62
              30
100
AcDbLine
 10
-1715.6879463938917
 20
384.99993353408183
 30
0.0
 11
-1673.9262463938917
 21
334.99993353408183
 31
0.0
  0
POLYLINE
  5
1AB
100
AcDbEntity
  8
IMPORTED
  6
CONTINUOUS
 62
              30
100
AcDb2dPolyline
 66
               1
 10
0.0
 20
0.0
 30
0.0
 70
             129
  0
VERTEX
  5
1AC
100
AcDbEntity
  8
IMPORTED
  6
CONTINUOUS
 62
              30
100
AcDbVertex
100
AcDb2dVertex
 10
-1699.9999463938918
 20
534.99993353408183
 30
0.0
  0
VERTEX
  5
1AD
100
AcDbEntity
  8
IMPORTED
  6
CONTINUOUS
 62
              30
100
AcDbVertex
100
AcDb2dVertex
 10
-1399.9999463938918
 20
534.99993353408183
 30
0.0
  0
VERTEX
  5
1AE
100
AcDbEntity
  8
IMPORTED
  6
CONTINUOUS
 62
              30
100
AcDbVertex
100
AcDb2dVertex
 10
-1399.9999463938918
 20
384.99993353408183
 30
0.0
  0
VERTEX
  5
1AF
100
AcDbEntity
  8
IMPORTED
  6
CONTINUOUS
 62
              30
100
AcDbVertex
100
AcDb2dVertex
 10
-1699.9999463938918
 20
384.99993353408183
 30
0.0
  0
VERTEX
  5
1B0
100
AcDbEntity
  8
IMPORTED
  6
CONTINUOUS
 62
              30
100
AcDbVertex
100
AcDb2dVertex
 10
-1699.9999463938918
 20
534.99993353408183
 30
0.0
  0
SEQEND
  5
1B1
100
AcDbEntity
  8
IMPORTED
  6
CONTINUOUS
 62
              30
  0
LINE
  5
1B2
100
AcDbEntity
  8
IMPORTED
  6
CONTINUOUS
 62
              30
100
AcDbLine
 10
-1656.9894463938917
 20
384.99993353408183
 30
0.0
 11
-1506.9894463938917
 21
534.99993353408183
 31
0.0
  0
LINE
  5
1B3
100
AcDbEntity
  8
IMPORTED
  6
CONTINUOUS
 62
              30
100
AcDbLine
 10
-1444.8578463938918
 20
385.00003353408187
 30
0.0
 11
-1400.0000463938918
 21
429.85783353408186
 31
0.0
  0
LINE
  5
1B4
100
AcDbEntity
  8
IMPORTED
  6
CONTINUOUS
 62
              30
100
AcDbLine
 10
-1671.8386463938918
 20
384.99993353408183
 30
0.0
 11
-1521.8386463938918
 21
534.99993353408183
 31
0.0
  0
LINE
  5
1B5
100
AcDbEntity
  8
IMPORTED
  6
CONTINUOUS
 62
              30
100
AcDbLine
 10
-1459.7066463938918
 20
385.00003353408187
 30
0.0
 11
-1400.0000463938918
 21
444.70673353408182
 31
0.0
  0
LINE
  5
1B6
100
AcDbEntity
  8
IMPORTED
  6
CONTINUOUS
 62
              30
100
AcDbLine
 10
-1686.6878463938917
 20
384.99993353408183
 30
0.0
 11
-1536.6878463938917
 21
534.99993353408183
 31
0.0
  0
LINE
  5
1B7
100
AcDbEntity
  8
IMPORTED
  6
CONTINUOUS
 62
              30
100
AcDbLine
 10
-1474.5558463938919
 20
384.99993353408183
 30
0.0
 11
-1399.9999463938918
 21
459.55583353408184
 31
0.0
  0
POLYLINE
  5
1B8
100
AcDbEntity
  8
IMPORTED
  6
CONTINUOUS
 62
              30
100
AcDb2dPolyline
 66
               1
 10
0.0
 20
0.0
 30
0.0
 70
             129
  0
VERTEX
  5
1B9
100
AcDbEntity
  8
IMPORTED
  6
CONTINUOUS
 62
              30
100
AcDbVertex
100
AcDb2dVertex
 10
-649.99994639389195
 20
384.99993353408183
 30
0.0
  0
VERTEX
  5
1BA
100
AcDbEntity
  8
IMPORTED
  6
CONTINUOUS
 62
              30
100
AcDbVertex
100
AcDb2dVertex
 10
-249.99994639389203
 20
384.99993353408183
 30
0.0
  0
VERTEX
  5
1BB
100
AcDbEntity
  8
IMPORTED
  6
CONTINUOUS
 62
              30
100
AcDbVertex
100
AcDb2dVertex
 10
-249.99994639389203
 20
334.99993353408183
 30
0.0
  0
VERTEX
  5
1BC
100
AcDbEntity
  8
IMPORTED
  6
CONTINUOUS
 62
              30
100
AcDbVertex
100
AcDb2dVertex
 10
-649.99994639389195
 20
334.99993353408183
 30
0.0
  0
VERTEX
  5
1BD
100
AcDbEntity
  8
IMPORTED
  6
CONTINUOUS
 62
              30
100
AcDbVertex
100
AcDb2dVertex
 10
-649.99994639389195
 20
384.99993353408183
 30
0.0
  0
SEQEND
  5
1BE
100
AcDbEntity
  8
IMPORTED
  6
CONTINUOUS
 62
              30
  0
POLYLINE
  5
1BF
100
AcDbEntity
  8
IMPORTED
  6
CONTINUOUS
 62
              30
100
AcDb2dPolyline
 66
               1
 10
0.0
 20
0.0
 30
0.0
 70
             129
  0
VERTEX
  5
1C0
100
AcDbEntity
  8
IMPORTED
  6
CONTINUOUS
 62
              30
100
AcDbVertex
100
AcDb2dVertex
 10
-649.99994639389195
 20
334.99993353408183
 30
0.0
  0
VERTEX
  5
1C1
100
AcDbEntity
  8
IMPORTED
  6
CONTINUOUS
 62
              30
100
AcDbVertex
100
AcDb2dVertex
 10
-249.99994639389203
 20
334.99993353408183
 30
0.0
  0
VERTEX
  5
1C2
100
AcDbEntity
  8
IMPORTED
  6
CONTINUOUS
 62
              30
100
AcDbVertex
100
AcDb2dVertex
 10
-249.99994639389203
 20
234.99993353408186
 30
0.0
  0
VERTEX
  5
1C3
100
AcDbEntity
  8
IMPORTED
  6
CONTINUOUS
 62
              30
100
AcDbVertex
100
AcDb2dVertex
 10
-649.99994639389195
 20
234.99993353408186
 30
0.0
  0
VERTEX
  5
1C4
100
AcDbEntity
  8
IMPORTED
  6
CONTINUOUS
 62
              30
100
AcDbVertex
100
AcDb2dVertex
 10
-649.99994639389195
 20
334.99993353408183
 30
0.0
  0
SEQEND
  5
1C5
100
AcDbEntity
  8
IMPORTED
  6
CONTINUOUS
 62
              30
  0
LINE
  5
1C6
100
AcDbEntity
  8
IMPORTED
  6
CONTINUOUS
 62
              30
100
AcDbLine
 10
-260.00004639389198
 20
234.99993353408186
 30
0.0
 11
-308.24654639389195
 21
334.99993353408183
 31
0.0
  0
LINE
  5
1C7
100
AcDbEntity
  8
IMPORTED
  6
CONTINUOUS
 62
              30
100
AcDbLine
 10
-296.184746393892
 20
309.99993353408183
 30
0.0
 11
-284.123146393892
 21
334.99993353408183
 31
0.0
  0
LINE
  5
1C8
100
AcDbEntity
  8
IMPORTED
  6
CONTINUOUS
 62
              30
100
AcDbLine
 10
-272.061546393892
 20
260.00003353408187
 30
0.0
 11
-284.12334639389195
 21
235.00003353408187
 31
0.0
  0
LINE
  5
1C9
100
AcDbEntity
  8
IMPORTED
  6
CONTINUOUS
 62
              30
100
AcDbLine
 10
-340.00004639389198
 20
234.99993353408186
 30
0.0
 11
-388.24644639389197
 21
334.99993353408183
 31
0.0
  0
LINE
  5
1CA
100
AcDbEntity
  8
IMPORTED
  6
CONTINUOUS
 62
              30
100
AcDbLine
 10
-376.18474639389194
 20
309.99993353408183
 30
0.0
 11
-364.12314639389194
 21
334.99993353408183
 31
0.0
  0
LINE
  5
1CB
100
AcDbEntity
  8
IMPORTED
  6
CONTINUOUS
 62
              30
100
AcDbLine
 10
-352.06154639389194
 20
260.00003353408187
 30
0.0
 11
-364.12334639389195
 21
235.00003353408187
 31
0.0
  0
LINE
  5
1CC
100
AcDbEntity
  8
IMPORTED
  6
CONTINUOUS
 62
              30
100
AcDbLine
 10
-420.00004639389198
 20
234.99993353408186
 30
0.0
 11
-468.24644639389197
 21
334.99993353408183
 31
0.0
  0
LINE
  5
1CD
100
AcDbEntity
  8
IMPORTED
  6
CONTINUOUS
 62
              30
100
AcDbLine
 10
-456.18474639389194
 20
309.99993353408183
 30
0.0
 11
-444.12314639389194
 21
334.99993353408183
 31
0.0
  0
LINE
  5
1CE
100
AcDbEntity
  8
IMPORTED
  6
CONTINUOUS
 62
              30
100
AcDbLine
 10
-432.06154639389194
 20
260.00003353408187
 30
0.0
 11
-444.12334639389195
 21
235.00003353408187
 31
0.0
  0
LINE
  5
1CF
100
AcDbEntity
  8
IMPORTED
  6
CONTINUOUS
 62
              30
100
AcDbLine
 10
-500.00004639389198
 20
234.99993353408186
 30
0.0
 11
-548.24644639389203
 21
334.99993353408183
 31
0.0
  0
LINE
  5
1D0
100
AcDbEntity
  8
IMPORTED
  6
CONTINUOUS
 62
              30
100
AcDbLine
 10
-536.18474639389206
 20
309.99993353408183
 30
0.0
 11
-524.12314639389206
 21
334.99993353408183
 31
0.0
  0
LINE
  5
1D1
100
AcDbEntity
  8
IMPORTED
  6
CONTINUOUS
 62
              30
100
AcDbLine
 10
-512.06154639389206
 20
260.00003353408187
 30
0.0
 11
-524.12334639389201
 21
235.00003353408187
 31
0.0
  0
LINE
  5
1D2
100
AcDbEntity
  8
IMPORTED
  6
CONTINUOUS
 62
              30
100
AcDbLine
 10
-580.00004639389203
 20
234.99993353408186
 30
0.0
 11
-628.24644639389203
 21
334.99993353408183
 31
0.0
  0
LINE
  5
1D3
100
AcDbEntity
  8
IMPORTED
  6
CONTINUOUS
 62
              30
100
AcDbLine
 10
-616.18474639389206
 20
309.99993353408183
 30
0.0
 11
-604.12314639389206
 21
334.99993353408183
 31
0.0
  0
LINE
  5
1D4
100
AcDbEntity
  8
IMPORTED
  6
CONTINUOUS
 62
              30
100
AcDbLine
 10
-592.06154639389206
 20
260.00003353408187
 30
0.0
 11
-604.12334639389201
 21
235.00003353408187
 31
0.0
  0
LINE
  5
1D5
100
AcDbEntity
  8
IMPORTED
  6
CONTINUOUS
 62
              30
100
AcDbLine
 10
-327.50004639389198
 20
384.99993353408183
 30
0.0
 11
-285.73824639389198
 21
334.99993353408183
 31
0.0
  0
LINE
  5
1D6
100
AcDbEntity
  8
IMPORTED
  6
CONTINUOUS
 62
              30
100
AcDbLine
 10
-315.68784639389196
 20
384.99993353408183
 30
0.0
 11
-273.92624639389197
 21
334.99993353408183
 31
0.0
  0
LINE
  5
1D7
100
AcDbEntity
  8
IMPORTED
  6
CONTINUOUS
 62
              30
100
AcDbLine
 10
-477.50004639389198
 20
384.99993353408183
 30
0.0
 11
-435.73824639389198
 21
334.99993353408183
 31
0.0
  0
LINE
  5
1D8
100
AcDbEntity
  8
IMPORTED
  6
CONTINUOUS
 62
              30
100
AcDbLine
 10
-465.68794639389193
 20
384.99993353408183
 30
0.0
 11
-423.92624639389197
 21
334.99993353408183
 31
0.0
  0
LINE
  5
1D9
100
AcDbEntity
  8
IMPORTED
  6
CONTINUOUS
 62
              30
100
AcDbLine
 10
-627.50004639389203
 20
384.99993353408183
 30
0.0
 11
-585.73824639389204
 21
334.99993353408183
 31
0.0
  0
LINE
  5
1DA
100
AcDbEntity
  8
IMPORTED
  6
CONTINUOUS
 62
              30
100
AcDbLine
 10
-615.68794639389205
 20
384.99993353408183
 30
0.0
 11
-573.92624639389203
 21
334.99993353408183
 31
0.0
  0
POLYLINE
  5
1DB
100
AcDbEntity
  8
IMPORTED
  6
CONTINUOUS
 62
              30
100
AcDb2dPolyline
 66
               1
 10
0.0
 20
0.0
 30
0.0
 70
             129
  0
VERTEX
  5
1DC
100
AcDbEntity
  8
IMPORTED
  6
CONTINUOUS
 62
              30
100
AcDbVertex
100
AcDb2dVertex
 10
-599.99994639389206
 20
534.99993353408183
 30
0.0
  0
VERTEX
  5
1DD
100
AcDbEntity
  8
IMPORTED
  6
CONTINUOUS
 62
              30
100
AcDbVertex
100
AcDb2dVertex
 10
-299.999946393892
 20
534.99993353408183
 30
0.0
  0
VERTEX
  5
1DE
100
AcDbEntity
  8
IMPORTED
  6
CONTINUOUS
 62
              30
100
AcDbVertex
100
AcDb2dVertex
 10
-299.999946393892
 20
384.99993353408183
 30
0.0
  0
VERTEX
  5
1DF
100
AcDbEntity
  8
IMPORTED
  6
CONTINUOUS
 62
              30
100
AcDbVertex
100
AcDb2dVertex
 10
-599.99994639389206
 20
384.99993353408183
 30
0.0
  0
VERTEX
  5
1E0
100
AcDbEntity
  8
IMPORTED
  6
CONTINUOUS
 62
              30
100
AcDbVertex
100
AcDb2dVertex
 10
-599.99994639389206
 20
534.99993353408183
 30
0.0
  0
SEQEND
  5
1E1
100
AcDbEntity
  8
IMPORTED
  6
CONTINUOUS
 62
              30
  0
LINE
  5
1E2
100
AcDbEntity
  8
IMPORTED
  6
CONTINUOUS
 62
              30
100
AcDbLine
 10
-556.98944639389197
 20
384.99993353408183
 30
0.0
 11
-406.98944639389197
 21
534.99993353408183
 31
0.0
  0
LINE
  5
1E3
100
AcDbEntity
  8
IMPORTED
  6
CONTINUOUS
 62
              30
100
AcDbLine
 10
-344.85784639389198
 20
385.00003353408187
 30
0.0
 11
-300.00004639389198
 21
429.85783353408186
 31
0.0
  0
LINE
  5
1E4
100
AcDbEntity
  8
IMPORTED
  6
CONTINUOUS
 62
              30
100
AcDbLine
 10
-571.83864639389196
 20
384.99993353408183
 30
0.0
 11
-421.83864639389196
 21
534.99993353408183
 31
0.0
  0
LINE
  5
1E5
100
AcDbEntity
  8
IMPORTED
  6
CONTINUOUS
 62
              30
100
AcDbLine
 10
-359.70664639389196
 20
385.00003353408187
 30
0.0
 11
-300.00004639389198
 21
444.70673353408182
 31
0.0
  0
LINE
  5
1E6
100
AcDbEntity
  8
IMPORTED
  6
CONTINUOUS
 62
              30
100
AcDbLine
 10
-586.68784639389196
 20
384.99993353408183
 30
0.0
 11
-436.68784639389196
 21
534.99993353408183
 31
0.0
  0
LINE
  5
1E7
100
AcDbEntity
  8
IMPORTED
  6
CONTINUOUS
 62
              30
100
AcDbLine
 10
-374.55584639389195
 20
384.99993353408183
 30
0.0
 11
-300.00004639389198
 21
459.55583353408184
 31
0.0
  0
POLYLINE
  5
1E8
100
AcDbEntity
  8
IMPORTED
  6
CONTINUOUS
 62
              30
100
AcDb2dPolyline
 66
               1
 10
0.0
 20
0.0
 30
0.0
 70
             129
  0
VERTEX
  5
1E9
100
AcDbEntity
  8
IMPORTED
  6
CONTINUOUS
 62
              30
100
AcDbVertex
100
AcDb2dVertex
 10
-1892.4999463938918
 20
-824.99996646591808
 30
0.0
  0
VERTEX
  5
1EA
100
AcDbEntity
  8
IMPORTED
  6
CONTINUOUS
 62
              30
100
AcDbVertex
100
AcDb2dVertex
 10
-107.49994639389202
 20
-824.99996646591808
 30
0.0
  0
VERTEX
  5
1EB
100
AcDbEntity
  8
IMPORTED
  6
CONTINUOUS
 62
              30
100
AcDbVertex
100
AcDb2dVertex
 10
-99.999946393892017
 20
-829.99996646591808
 30
0.0
  0
VERTEX
  5
1EC
100
AcDbEntity
  8
IMPORTED
  6
CONTINUOUS
 62
              30
100
AcDbVertex
100
AcDb2dVertex
 10
-99.999946393892017
 20
-969.99996646591808
 30
0.0
  0
VERTEX
  5
1ED
100
AcDbEntity
  8
IMPORTED
  6
CONTINUOUS
 62
              30
100
AcDbVertex
100
AcDb2dVertex
 10
-107.49994639389202
 20
-974.99996646591808
 30
0.0
  0
VERTEX
  5
1EE
100
AcDbEntity
  8
IMPORTED
  6
CONTINUOUS
 62
              30
100
AcDbVertex
100
AcDb2dVertex
 10
-1892.4999463938918
 20
-974.99996646591808
 30
0.0
  0
VERTEX
  5
1EF
100
AcDbEntity
  8
IMPORTED
  6
CONTINUOUS
 62
              30
100
AcDbVertex
100
AcDb2dVertex
 10
-1899.9999463938918
 20
-969.99996646591808
 30
0.0
  0
VERTEX
  5
1F0
100
AcDbEntity
  8
IMPORTED
  6
CONTINUOUS
 62
              30
100
AcDbVertex
100
AcDb2dVertex
 10
-1899.9999463938918
 20
-829.99996646591808
 30
0.0
  0
SEQEND
  5
1F1
100
AcDbEntity
  8
IMPORTED
  6
CONTINUOUS
 62
              30
  0
POLYLINE
  5
1F2
100
AcDbEntity
  8
IMPORTED
  6
CONTINUOUS
 62
              30
100
AcDb2dPolyline
 66
               1
 10
0.0
 20
0.0
 30
0.0
 70
             129
  0
VERTEX
  5
1F3
100
AcDbEntity
  8
IMPORTED
  6
CONTINUOUS
 62
              30
100
AcDbVertex
100
AcDb2dVertex
 10
-1892.4999463938918
 20
-669.99996646591808
 30
0.0
  0
VERTEX
  5
1F4
100
AcDbEntity
  8
IMPORTED
  6
CONTINUOUS
 62
              30
100
AcDbVertex
100
AcDb2dVertex
 10
-107.49994639389202
 20
-669.99996646591808
 30
0.0
  0
VERTEX
  5
1F5
100
AcDbEntity
  8
IMPORTED
  6
CONTINUOUS
 62
              30
100
AcDbVertex
100
AcDb2dVertex
 10
-99.999946393892017
 20
-674.99996646591808
 30
0.0
  0
VERTEX
  5
1F6
100
AcDbEntity
  8
IMPORTED
  6
CONTINUOUS
 62
              30
100
AcDbVertex
100
AcDb2dVertex
 10
-99.999946393892017
 20
-814.99996646591808
 30
0.0
  0
VERTEX
  5
1F7
100
AcDbEntity
  8
IMPORTED
  6
CONTINUOUS
 62
              30
100
AcDbVertex
100
AcDb2dVertex
 10
-107.49994639389202
 20
-819.99996646591808
 30
0.0
  0
VERTEX
  5
1F8
100
AcDbEntity
  8
IMPORTED
  6
CONTINUOUS
 62
              30
100
AcDbVertex
100
AcDb2dVertex
 10
-1892.4999463938918
 20
-819.99996646591808
 30
0.0
  0
VERTEX
  5
1F9
100
AcDbEntity
  8
IMPORTED
  6
CONTINUOUS
 62
              30
100
AcDbVertex
100
AcDb2dVertex
 10
-1899.9999463938918
 20
-814.99996646591808
 30
0.0
  0
VERTEX
  5
1FA
100
AcDbEntity
  8
IMPORTED
  6
CONTINUOUS
 62
              30
100
AcDbVertex
100
AcDb2dVertex
 10
-1899.9999463938918
 20
-674.99996646591808
 30
0.0
  0
SEQEND
  5
1FB
100
AcDbEntity
  8
IMPORTED
  6
CONTINUOUS
 62
              30
  0
POLYLINE
  5
1FC
100
AcDbEntity
  8
IMPORTED
  6
CONTINUOUS
 62
              30
100
AcDb2dPolyline
 66
               1
 10
0.0
 20
0.0
 30
0.0
 70
             129
  0
VERTEX
  5
1FD
100
AcDbEntity
  8
IMPORTED
  6
CONTINUOUS
 62
              30
100
AcDbVertex
100
AcDb2dVertex
 10
-1892.4999463938918
 20
-979.99996646591808
 30
0.0
  0
VERTEX
  5
1FE
100
AcDbEntity
  8
IMPORTED
  6
CONTINUOUS
 62
              30
100
AcDbVertex
100
AcDb2dVertex
 10
-107.49994639389202
 20
-979.99996646591808
 30
0.0
  0
VERTEX
  5
1FF
100
AcDbEntity
  8
IMPORTED
  6
CONTINUOUS
 62
              30
100
AcDbVertex
100
AcDb2dVertex
 10
-99.999946393892017
 20
-984.99996646591808
 30
0.0
  0
VERTEX
  5
200
100
AcDbEntity
  8
IMPORTED
  6
CONTINUOUS
 62
              30
100
AcDbVertex
100
AcDb2dVertex
 10
-99.999946393892017
 20
-1124.9999664659179
 30
0.0
  0
VERTEX
  5
201
100
AcDbEntity
  8
IMPORTED
  6
CONTINUOUS
 62
              30
100
AcDbVertex
100
AcDb2dVertex
 10
-107.49994639389202
 20
-1129.9999664659179
 30
0.0
  0
VERTEX
  5
202
100
AcDbEntity
  8
IMPORTED
  6
CONTINUOUS
 62
              30
100
AcDbVertex
100
AcDb2dVertex
 10
-1892.4999463938918
 20
-1129.9999664659179
 30
0.0
  0
VERTEX
  5
203
100
AcDbEntity
  8
IMPORTED
  6
CONTINUOUS
 62
              30
100
AcDbVertex
100
AcDb2dVertex
 10
-1899.9999463938918
 20
-1124.9999664659179
 30
0.0
  0
VERTEX
  5
204
100
AcDbEntity
  8
IMPORTED
  6
CONTINUOUS
 62
              30
100
AcDbVertex
100
AcDb2dVertex
 10
-1899.9999463938918
 20
-984.99996646591808
 30
0.0
  0
SEQEND
  5
205
100
AcDbEntity
  8
IMPORTED
  6
CONTINUOUS
 62
              30
  0
MTEXT
  5
206
100
AcDbEntity
  8
IMPORTED
 62
              30
100
AcDbMText
 10
-1070.3750463938918
 20
-47.959448580646324
 30
0.0
 40
40.721054296875003
 41
0.0
 71
               1
 72
               1
  1
正面図
  7
_______
  0
POLYLINE
  5
207
100
AcDbEntity
  8
IMPORTED
  6
CONTINUOUS
 62
              30
100
AcDb2dPolyline
 66
               1
 10
0.0
 20
0.0
 30
0.0
 70
             129
  0
VERTEX
  5
208
100
AcDbEntity
  8
IMPORTED
  6
CONTINUOUS
 62
              30
100
AcDbVertex
100
AcDb2dVertex
 10
-1130.6762463938919
 20
-29.999966465918124
 30
0.0
  0
VERTEX
  5
209
100
AcDbEntity
  8
IMPORTED
  6
CONTINUOUS
 62
              30
100
AcDbVertex
100
AcDb2dVertex
 10
-859.17624639389203
 20
-29.999966465918124
 30
0.0
  0
VERTEX
  5
20A
100
AcDbEntity
  8
IMPORTED
  6
CONTINUOUS
 62
              30
100
AcDbVertex
100
AcDb2dVertex
 10
-859.17624639389203
 20
-107.00006646591812
 30
0.0
  0
VERTEX
  5
20B
100
AcDbEntity
  8
IMPORTED
  6
CONTINUOUS
 62
              30
100
AcDbVertex
100
AcDb2dVertex
 10
-1130.6762463938919
 20
-107.00006646591812
 30
0.0
  0
VERTEX
  5
20C
100
AcDbEntity
  8
IMPORTED
  6
CONTINUOUS
 62
              30
100
AcDbVertex
100
AcDb2dVertex
 10
-1130.6762463938919
 20
-29.999966465918124
 30
0.0
  0
SEQEND
  5
20D
100
AcDbEntity
  8
IMPORTED
  6
CONTINUOUS
 62
              30
  0
MTEXT
  5
20E
100
AcDbEntity
  8
IMPORTED
 62
              30
100
AcDbMText
 10
-1070.3750463938918
 20
-1560.8637357864479
 30
0.0
 40
40.721054296875003
 41
0.0
 71
               1
 72
               1
  1
平面図
  7
_______
  0
POLYLINE
  5
20F
100
AcDbEntity
  8
IMPORTED
  6
CONTINUOUS
 62
              30
100
AcDb2dPolyline
 66
               1
 10
0.0
 20
0.0
 30
0.0
 70
             129
  0
VERTEX
  5
210
100
AcDbEntity
  8
IMPORTED
  6
CONTINUOUS
 62
              30
100
AcDbVertex
100
AcDb2dVertex
 10
-1130.6762463938919
 20
-1542.0541664659179
 30
0.0
  0
VERTEX
  5
211
100
AcDbEntity
  8
IMPORTED
  6
CONTINUOUS
 62
              30
100
AcDbVertex
100
AcDb2dVertex
 10
-849.17624639389203
 20
-1542.0541664659179
 30
0.0
  0
VERTEX
  5
212
100
AcDbEntity
  8
IMPORTED
  6
CONTINUOUS
 62
              30
100
AcDbVertex
100
AcDb2dVertex
 10
-849.17624639389203
 20
-1617.0000664659178
 30
0.0
  0
VERTEX
  5
213
100
AcDbEntity
  8
IMPORTED
  6
CONTINUOUS
 62
              30
100
AcDbVertex
100
AcDb2dVertex
 10
-1130.6762463938919
 20
-1617.0000664659178
 30
0.0
  0
VERTEX
  5
214
100
AcDbEntity
  8
IMPORTED
  6
CONTINUOUS
 62
              30
100
AcDbVertex
100
AcDb2dVertex
 10
-1130.6762463938919
 20
-1542.0541664659179
 30
0.0
  0
SEQEND
  5
215
100
AcDbEntity
  8
IMPORTED
  6
CONTINUOUS
 62
              30
  0
MTEXT
  5
216
100
AcDbEntity
  8
IMPORTED
 62
              30
100
AcDbMText
 10
-1957.7124463938917
 20
637.0938258309568
 30
0.0
 40
40.721054296875003
 41
0.0
 71
               1
 72
               1
  1
▽GL
  7
_______
  0
POLYLINE
  5
217
100
AcDbEntity
  8
IMPORTED
  6
CONTINUOUS
 62
              30
100
AcDb2dPolyline
 66
               1
 10
0.0
 20
0.0
 30
0.0
 70
             129
  0
VERTEX
  5
218
100
AcDbEntity
  8
IMPORTED
  6
CONTINUOUS
 62
              30
100
AcDbVertex
100
AcDb2dVertex
 10
-1892.4999463938918
 20
984.99993353408172
 30
0.0
  0
VERTEX
  5
219
100
AcDbEntity
  8
IMPORTED
  6
CONTINUOUS
 62
              30
100
AcDbVertex
100
AcDb2dVertex
 10
-107.49994639389202
 20
984.99993353408172
 30
0.0
  0
VERTEX
  5
21A
100
AcDbEntity
  8
IMPORTED
  6
CONTINUOUS
 62
              30
100
AcDbVertex
100
AcDb2dVertex
 10
-99.999946393892017
 20
979.99993353408172
 30
0.0
  0
VERTEX
  5
21B
100
AcDbEntity
  8
IMPORTED
  6
CONTINUOUS
 62
              30
100
AcDbVertex
100
AcDb2dVertex
 10
-99.999946393892017
 20
939.99993353408172
 30
0.0
  0
VERTEX
  5
21C
100
AcDbEntity
  8
IMPORTED
  6
CONTINUOUS
 62
              30
100
AcDbVertex
100
AcDb2dVertex
 10
-107.49994639389202
 20
934.99993353408172
 30
0.0
  0
VERTEX
  5
21D
100
AcDbEntity
  8
IMPORTED
  6
CONTINUOUS
 62
              30
100
AcDbVertex
100
AcDb2dVertex
 10
-1892.4999463938918
 20
934.99993353408172
 30
0.0
  0
VERTEX
  5
21E
100
AcDbEntity
  8
IMPORTED
  6
CONTINUOUS
 62
              30
100
AcDbVertex
100
AcDb2dVertex
 10
-1899.9999463938918
 20
939.99993353408172
 30
0.0
  0
VERTEX
  5
21F
100
AcDbEntity
  8
IMPORTED
  6
CONTINUOUS
 62
              30
100
AcDbVertex
100
AcDb2dVertex
 10
-1899.9999463938918
 20
979.99993353408172
 30
0.0
  0
SEQEND
  5
220
100
AcDbEntity
  8
IMPORTED
  6
CONTINUOUS
 62
              30
  0
LINE
  5
221
100
AcDbEntity
  8
IMPORTED
  6
CONTINUOUS
 62
              30
100
AcDbLine
 10
-1980.9999463938918
 20
584.99993353408172
 30
0.0
 11
-55.999946393892024
 21
584.99993353408172
 31
0.0
  0
POLYLINE
  5
222
100
AcDbEntity
  8
IMPORTED
  6
CONTINUOUS
 62
              30
100
AcDb2dPolyline
 66
               1
 10
0.0
 20
0.0
 30
0.0
 70
             129
  0
VERTEX
  5
223
100
AcDbEntity
  8
IMPORTED
  6
CONTINUOUS
 62
              30
100
AcDbVertex
100
AcDb2dVertex
 10
-1599.9999463938918
 20
929.99993353408172
 30
0.0
  0
VERTEX
  5
224
100
AcDbEntity
  8
IMPORTED
  6
CONTINUOUS
 62
              30
100
AcDbVertex
100
AcDb2dVertex
 10
-1499.9999463938918
 20
929.99993353408172
 30
0.0
  0
VERTEX
  5
225
100
AcDbEntity
  8
IMPORTED
  6
CONTINUOUS
 62
              30
100
AcDbVertex
100
AcDb2dVertex
 10
-1499.9999463938918
 20
384.99993353408183
 30
0.0
  0
VERTEX
  5
226
100
AcDbEntity
  8
IMPORTED
  6
CONTINUOUS
 62
              30
100
AcDbVertex
100
AcDb2dVertex
 10
-1599.9999463938918
 20
384.99993353408183
 30
0.0
  0
VERTEX
  5
227
100
AcDbEntity
  8
IMPORTED
  6
CONTINUOUS
 62
              30
100
AcDbVertex
100
AcDb2dVertex
 10
-1599.9999463938918
 20
929.99993353408172
 30
0.0
  0
SEQEND
  5
228
100
AcDbEntity
  8
IMPORTED
  6
CONTINUOUS
 62
              30
  0
POLYLINE
  5
229
100
AcDbEntity
  8
IMPORTED
  6
CONTINUOUS
 62
              30
100
AcDb2dPolyline
 66
               1
 10
0.0
 20
0.0
 30
0.0
 70
             129
  0
VERTEX
  5
22A
100
AcDbEntity
  8
IMPORTED
  6
CONTINUOUS
 62
              30
100
AcDbVertex
100
AcDb2dVertex
 10
-499.99994639389195
 20
934.99993353408172
 30
0.0
  0
VERTEX
  5
22B
100
AcDbEntity
  8
IMPORTED
  6
CONTINUOUS
 62
              30
100
AcDbVertex
100
AcDb2dVertex
 10
-399.99994639389195
 20
934.99993353408172
 30
0.0
  0
VERTEX
  5
22C
100
AcDbEntity
  8
IMPORTED
  6
CONTINUOUS
 62
              30
100
AcDbVertex
100
AcDb2dVertex
 10
-399.99994639389195
 20
384.99993353408183
 30
0.0
  0
VERTEX
  5
22D
100
AcDbEntity
  8
IMPORTED
  6
CONTINUOUS
 62
              30
100
AcDbVertex
100
AcDb2dVertex
 10
-499.99994639389195
 20
384.99993353408183
 30
0.0
  0
VERTEX
  5
22E
100
AcDbEntity
  8
IMPORTED
  6
CONTINUOUS
 62
              30
100
AcDbVertex
100
AcDb2dVertex
 10
-499.99994639389195
 20
934.99993353408172
 30
0.0
  0
SEQEND
  5
22F
100
AcDbEntity
  8
IMPORTED
  6
CONTINUOUS
 62
              30
  0
POLYLINE
  5
230
100
AcDbEntity
  8
IMPORTED
  6
STYLE_01
 62
              30
100
AcDb2dPolyline
 66
               1
 10
0.0
 20
0.0
 30
0.0
 70
             129
  0
VERTEX
  5
231
100
AcDbEntity
  8
IMPORTED
  6
STYLE_01
 62
              30
100
AcDbVertex
100
AcDb2dVertex
 10
-1699.9999463938918
 20
-609.99996646591808
 30
0.0
  0
VERTEX
  5
232
100
AcDbEntity
  8
IMPORTED
  6
STYLE_01
 62
              30
100
AcDbVertex
100
AcDb2dVertex
 10
-1399.9999463938918
 20
-609.99996646591808
 30
0.0
  0
VERTEX
  5
233
100
AcDbEntity
  8
IMPORTED
  6
STYLE_01
 62
              30
100
AcDbVertex
100
AcDb2dVertex
 10
-1399.9999463938918
 20
-1189.9999664659179
 30
0.0
  0
VERTEX
  5
234
100
AcDbEntity
  8
IMPORTED
  6
STYLE_01
 62
              30
100
AcDbVertex
100
AcDb2dVertex
 10
-1699.9999463938918
 20
-1189.9999664659179
 30
0.0
  0
VERTEX
  5
235
100
AcDbEntity
  8
IMPORTED
  6
STYLE_01
 62
              30
100
AcDbVertex
100
AcDb2dVertex
 10
-1699.9999463938918
 20
-609.99996646591808
 30
0.0
  0
SEQEND
  5
236
100
AcDbEntity
  8
IMPORTED
  6
STYLE_01
 62
              30
  0
POLYLINE
  5
237
100
AcDbEntity
  8
IMPORTED
  6
STYLE_01
 62
              30
100
AcDb2dPolyline
 66
               1
 10
0.0
 20
0.0
 30
0.0
 70
             129
  0
VERTEX
  5
238
100
AcDbEntity
  8
IMPORTED
  6
STYLE_01
 62
              30
100
AcDbVertex
100
AcDb2dVertex
 10
-1749.9999463938918
 20
-559.99996646591808
 30
0.0
  0
VERTEX
  5
239
100
AcDbEntity
  8
IMPORTED
  6
STYLE_01
 62
              30
100
AcDbVertex
100
AcDb2dVertex
 10
-1349.9999463938918
 20
-559.99996646591808
 30
0.0
  0
VERTEX
  5
23A
100
AcDbEntity
  8
IMPORTED
  6
STYLE_01
 62
              30
100
AcDbVertex
100
AcDb2dVertex
 10
-1349.9999463938918
 20
-1239.9999664659179
 30
0.0
  0
VERTEX
  5
23B
100
AcDbEntity
  8
IMPORTED
  6
STYLE_01
 62
              30
100
AcDbVertex
100
AcDb2dVertex
 10
-1749.9999463938918
 20
-1239.9999664659179
 30
0.0
  0
VERTEX
  5
23C
100
AcDbEntity
  8
IMPORTED
  6
STYLE_01
 62
              30
100
AcDbVertex
100
AcDb2dVertex
 10
-1749.9999463938918
 20
-559.99996646591808
 30
0.0
  0
SEQEND
  5
23D
100
AcDbEntity
  8
IMPORTED
  6
STYLE_01
 62
              30
  0
MTEXT
  5
23E
100
AcDbEntity
  8
IMPORTED
 62
              30
100
AcDbMText
 10
1331.9050536061079
 20
-50.726648580646327
 30
0.0
 40
40.721054296875003
 41
0.0
 71
               1
 72
               1
  1
側面図
  7
_______
  0
POLYLINE
  5
23F
100
AcDbEntity
  8
IMPORTED
  6
CONTINUOUS
 62
              30
100
AcDb2dPolyline
 66
               1
 10
0.0
 20
0.0
 30
0.0
 70
             129
  0
VERTEX
  5
240
100
AcDbEntity
  8
IMPORTED
  6
CONTINUOUS
 62
              30
100
AcDbVertex
100
AcDb2dVertex
 10
1271.6036536061079
 20
-29.999966465918124
 30
0.0
  0
VERTEX
  5
241
100
AcDbEntity
  8
IMPORTED
  6
CONTINUOUS
 62
              30
100
AcDbVertex
100
AcDb2dVertex
 10
1544.0000536061079
 20
-29.999966465918124
 30
0.0
  0
VERTEX
  5
242
100
AcDbEntity
  8
IMPORTED
  6
CONTINUOUS
 62
              30
100
AcDbVertex
100
AcDb2dVertex
 10
1544.0000536061079
 20
-107.00006646591812
 30
0.0
  0
VERTEX
  5
243
100
AcDbEntity
  8
IMPORTED
  6
CONTINUOUS
 62
              30
100
AcDbVertex
100
AcDb2dVertex
 10
1271.6036536061079
 20
-107.00006646591812
 30
0.0
  0
VERTEX
  5
244
100
AcDbEntity
  8
IMPORTED
  6
CONTINUOUS
 62
              30
100
AcDbVertex
100
AcDb2dVertex
 10
1271.6036536061079
 20
-29.999966465918124
 30
0.0
  0
SEQEND
  5
245
100
AcDbEntity
  8
IMPORTED
  6
CONTINUOUS
 62
              30
  0
LINE
  5
246
100
AcDbEntity
  8
IMPORTED
  6
CONTINUOUS
 62
              30
100
AcDbLine
 10
1013.4999536061079
 20
584.99993353408172
 30
0.0
 11
1763.499953606108
 21
584.99993353408172
 31
0.0
  0
POLYLINE
  5
247
100
AcDbEntity
  8
IMPORTED
  6
CONTINUOUS
 62
              30
100
AcDb2dPolyline
 66
               1
 10
0.0
 20
0.0
 30
0.0
 70
             129
  0
VERTEX
  5
248
100
AcDbEntity
  8
IMPORTED
  6
CONTINUOUS
 62
              30
100
AcDbVertex
100
AcDb2dVertex
 10
1223.499953606108
 20
934.99993353408172
 30
0.0
  0
VERTEX
  5
249
100
AcDbEntity
  8
IMPORTED
  6
CONTINUOUS
 62
              30
100
AcDbVertex
100
AcDb2dVertex
 10
1603.499953606108
 20
934.99993353408172
 30
0.0
  0
VERTEX
  5
24A
100
AcDbEntity
  8
IMPORTED
  6
CONTINUOUS
 62
              30
100
AcDbVertex
100
AcDb2dVertex
 10
1603.499953606108
 20
844.99993353408172
 30
0.0
  0
VERTEX
  5
24B
100
AcDbEntity
  8
IMPORTED
  6
CONTINUOUS
 62
              30
100
AcDbVertex
100
AcDb2dVertex
 10
1598.499953606108
 20
839.99993353408172
 30
0.0
  0
VERTEX
  5
24C
100
AcDbEntity
  8
IMPORTED
  6
CONTINUOUS
 62
              30
100
AcDbVertex
100
AcDb2dVertex
 10
1228.499953606108
 20
839.99993353408172
 30
0.0
  0
VERTEX
  5
24D
100
AcDbEntity
  8
IMPORTED
  6
CONTINUOUS
 62
              30
100
AcDbVertex
100
AcDb2dVertex
 10
1223.499953606108
 20
844.99993353408172
 30
0.0
  0
VERTEX
  5
24E
100
AcDbEntity
  8
IMPORTED
  6
CONTINUOUS
 62
              30
100
AcDbVertex
100
AcDb2dVertex
 10
1223.499953606108
 20
934.99993353408172
 30
0.0
  0
SEQEND
  5
24F
100
AcDbEntity
  8
IMPORTED
  6
CONTINUOUS
 62
              30
  0
POLYLINE
  5
250
100
AcDbEntity
  8
IMPORTED
  6
CONTINUOUS
 62
              30
100
AcDb2dPolyline
 66
               1
 10
0.0
 20
0.0
 30
0.0
 70
             129
  0
VERTEX
  5
251
100
AcDbEntity
  8
IMPORTED
  6
CONTINUOUS
 62
              30
100
AcDbVertex
100
AcDb2dVertex
 10
-2918.9999463938916
 20
2063.4999335340817
 30
0.0
  0
VERTEX
  5
252
100
AcDbEntity
  8
IMPORTED
  6
CONTINUOUS
 62
              30
100
AcDbVertex
100
AcDb2dVertex
 10
2931.0000536061079
 20
2063.4999335340817
 30
0.0
  0
VERTEX
  5
253
100
AcDbEntity
  8
IMPORTED
  6
CONTINUOUS
 62
              30
100
AcDbVertex
100
AcDb2dVertex
 10
2931.0000536061079
 20
-2061.5000664659178
 30
0.0
  0
VERTEX
  5
254
100
AcDbEntity
  8
IMPORTED
  6
CONTINUOUS
 62
              30
100
AcDbVertex
100
AcDb2dVertex
 10
-2918.9999463938916
 20
-2061.5000664659178
 30
0.0
  0
VERTEX
  5
255
100
AcDbEntity
  8
IMPORTED
  6
CONTINUOUS
 62
              30
100
AcDbVertex
100
AcDb2dVertex
 10
-2918.9999463938916
 20
2063.4999335340817
 30
0.0
  0
SEQEND
  5
256
100
AcDbEntity
  8
IMPORTED
  6
CONTINUOUS
 62
              30
  0
MTEXT
  5
257
100
AcDbEntity
  8
IMPORTED
 62
              30
100
AcDbMText
 10
1849.3019536061079
 20
1748.3042258309567
 30
0.0
 40
40.721054296875003
 41
0.0
 71
               1
 72
               1
  1
記　　号
  7
_______
  0
MTEXT
  5
258
100
AcDbEntity
  8
IMPORTED
 62
              30
100
AcDbMText
 10
1849.3019536061079
 20
1479.7585258309568
 30
0.0
 40
40.721054296875003
 41
0.0
 71
               1
 72
               1
  1
縮　　尺
  7
_______
  0
MTEXT
  5
259
100
AcDbEntity
  8
IMPORTED
 62
              30
100
AcDbMText
 10
1849.3019536061079
 20
1883.3042258309567
 30
0.0
 40
40.721054296875003
 41
0.0
 71
               1
 72
               1
  1
仕　　様
  7
_______
  0
MTEXT
  5
25A
100
AcDbEntity
  8
IMPORTED
 62
              30
100
AcDbMText
 10
1849.3019536061079
 20
2019.7585258309568
 30
0.0
 40
40.721054296875003
 41
0.0
 71
               1
 72
               1
  1
品　　名
  7
_______
  0
MTEXT
  5
25B
100
AcDbEntity
  8
IMPORTED
 62
              30
100
AcDbMText
 10
2357.1142536061079
 20
2018.3042258309567
 30
0.0
 40
40.721054296875003
 41
0.0
 71
               1
 72
               1
  1
ＥＳＷベンチ
  7
_______
  0
LINE
  5
25C
100
AcDbEntity
  8
IMPORTED
  6
CONTINUOUS
 62
              30
100
AcDbLine
 10
-2918.9999463938916
 20
-1836.4999664659179
 30
0.0
 11
2931.0000536061079
 21
-1836.4999664659179
 31
0.0
  0
MTEXT
  5
25D
100
AcDbEntity
  8
IMPORTED
 62
              30
100
AcDbMText
 10
1782.545253606108
 20
-1902.987914903418
 30
0.0
 40
73.2978515625
 41
0.0
 71
               1
 72
               1
  1
イー・トップ株式会社
  7
_______
  0
MTEXT
  5
25E
100
AcDbEntity
  8
IMPORTED
 62
              30
100
AcDbMText
 10
2261.0274536061079
 20
1882.5925258309569
 30
0.0
 40
40.721054296875003
 41
0.0
 71
               1
 72
               1
  1
ＥＩＮスーパーウッド
  7
_______
  0
LINE
  5
25F
100
AcDbEntity
  8
IMPORTED
  6
CONTINUOUS
 62
              30
100
AcDbLine
 10
2930.9999536061077
 20
1928.4999335340817
 30
0.0
 11
1805.999953606108
 21
1928.4999335340817
 31
0.0
  0
LINE
  5
260
100
AcDbEntity
  8
IMPORTED
  6
CONTINUOUS
 62
              30
100
AcDbLine
 10
2930.9999536061077
 20
1793.4999335340817
 30
0.0
 11
1805.999953606108
 21
1793.4999335340817
 31
0.0
  0
LINE
  5
261
100
AcDbEntity
  8
IMPORTED
  6
CONTINUOUS
 62
              30
100
AcDbLine
 10
2930.9999536061077
 20
1658.4999335340817
 30
0.0
 11
1805.999953606108
 21
1658.4999335340817
 31
0.0
  0
LINE
  5
262
100
AcDbEntity
  8
IMPORTED
  6
CONTINUOUS
 62
              30
100
AcDbLine
 10
2930.9999536061077
 20
1523.4999335340817
 30
0.0
 11
1805.999953606108
 21
1523.4999335340817
 31
0.0
  0
LINE
  5
263
100
AcDbEntity
  8
IMPORTED
  6
CONTINUOUS
 62
              30
100
AcDbLine
 10
2930.9999536061077
 20
1388.4999335340817
 30
0.0
 11
1805.999953606108
 21
1388.4999335340817
 31
0.0
  0
LINE
  5
264
100
AcDbEntity
  8
IMPORTED
  6
CONTINUOUS
 62
              30
100
AcDbLine
 10
2105.9999536061077
 20
2063.4999335340817
 30
0.0
 11
2105.9999536061077
 21
1388.4999335340817
 31
0.0
  0
LINE
  5
265
100
AcDbEntity
  8
IMPORTED
  6
CONTINUOUS
 62
              30
100
AcDbLine
 10
1805.999953606108
 20
2063.4999335340817
 30
0.0
 11
1805.999953606108
 21
1388.4999335340817
 31
0.0
  0
MTEXT
  5
266
100
AcDbEntity
  8
IMPORTED
 62
              30
100
AcDbMText
 10
2293.1224536061077
 20
1616.2127258309567
 30
0.0
 40
40.721054296875003
 41
0.0
 71
               1
 72
               1
  1
W460×L1800×H400
  7
_______
  0
MTEXT
  5
267
100
AcDbEntity
  8
IMPORTED
 62
              30
100
AcDbMText
 10
1849.3019536061079
 20
1613.3042258309567
 30
0.0
 40
40.721054296875003
 41
0.0
 71
               1
 72
               1
  1
規格寸法
  7
_______
  0
MTEXT
  5
268
100
AcDbEntity
  8
IMPORTED
 62
              30
100
AcDbMText
 10
2454.6794536061079
 20
1748.7437258309569
 30
0.0
 40
40.721054296875003
 41
0.0
 71
               1
 72
               1
  1
B-012
  7
_______
  0
POLYLINE
  5
269
100
AcDbEntity
  8
IMPORTED
  6
CONTINUOUS
 62
              30
100
AcDb2dPolyline
 66
               1
 10
0.0
 20
0.0
 30
0.0
 70
             129
  0
VERTEX
  5
26A
100
AcDbEntity
  8
IMPORTED
  6
CONTINUOUS
 62
              30
100
AcDbVertex
100
AcDb2dVertex
 10
-1599.9999463938918
 20
534.99993353408183
 30
0.0
  0
VERTEX
  5
26B
100
AcDbEntity
  8
IMPORTED
  6
CONTINUOUS
 62
              30
100
AcDbVertex
100
AcDb2dVertex
 10
-1499.9999463938918
 20
534.99993353408183
 30
0.0
  0
VERTEX
  5
26C
100
AcDbEntity
  8
IMPORTED
  6
CONTINUOUS
 62
              30
100
AcDbVertex
100
AcDb2dVertex
 10
-1499.9999463938918
 20
384.99993353408183
 30
0.0
  0
VERTEX
  5
26D
100
AcDbEntity
  8
IMPORTED
  6
CONTINUOUS
 62
              30
100
AcDbVertex
100
AcDb2dVertex
 10
-1599.9999463938918
 20
384.99993353408183
 30
0.0
  0
SEQEND
  5
26E
100
AcDbEntity
  8
IMPORTED
  6
CONTINUOUS
 62
              30
  0
LINE
  5
26F
100
AcDbEntity
  8
IMPORTED
  6
CONTINUOUS
 62
              30
100
AcDbLine
 10
-1599.9999463938918
 20
500.34933353408184
 30
0.0
 11
-1565.3493463938919
 21
534.99993353408183
 31
0.0
  0
LINE
  5
270
100
AcDbEntity
  8
IMPORTED
  6
CONTINUOUS
 62
              30
100
AcDbLine
 10
-1599.9998463938919
 20
456.15523353408184
 30
0.0
 11
-1521.1552463938917
 21
534.99983353408174
 31
0.0
  0
LINE
  5
271
100
AcDbEntity
  8
IMPORTED
  6
CONTINUOUS
 62
              30
100
AcDbLine
 10
-1599.9999463938918
 20
411.96103353408182
 30
0.0
 11
-1499.9999463938918
 21
511.96103353408188
 31
0.0
  0
LINE
  5
272
100
AcDbEntity
  8
IMPORTED
  6
CONTINUOUS
 62
              30
100
AcDbLine
 10
-1582.7669463938919
 20
384.99993353408183
 30
0.0
 11
-1499.9999463938918
 21
467.76693353408183
 31
0.0
  0
LINE
  5
273
100
AcDbEntity
  8
IMPORTED
  6
CONTINUOUS
 62
              30
100
AcDbLine
 10
-1538.5727463938917
 20
384.99993353408183
 30
0.0
 11
-1499.9999463938918
 21
423.57273353408186
 31
0.0
  0
LINE
  5
274
100
AcDbEntity
  8
IMPORTED
  6
CONTINUOUS
 62
              30
100
AcDbLine
 10
-1557.2717463938918
 20
384.99993353408183
 30
0.0
 11
-1599.9999463938918
 21
427.72813353408185
 31
0.0
  0
LINE
  5
275
100
AcDbEntity
  8
IMPORTED
  6
CONTINUOUS
 62
              30
100
AcDbLine
 10
-1513.0775463938919
 20
384.99993353408183
 30
0.0
 11
-1599.9999463938918
 21
471.92233353408182
 31
0.0
  0
LINE
  5
276
100
AcDbEntity
  8
IMPORTED
  6
CONTINUOUS
 62
              30
100
AcDbLine
 10
-1499.9999463938918
 20
416.11643353408186
 30
0.0
 11
-1599.9999463938918
 21
516.11643353408181
 31
0.0
  0
LINE
  5
277
100
AcDbEntity
  8
IMPORTED
  6
CONTINUOUS
 62
              30
100
AcDbLine
 10
-1499.9999463938918
 20
460.31053353408186
 30
0.0
 11
-1574.6893463938918
 21
534.99993353408183
 31
0.0
  0
LINE
  5
278
100
AcDbEntity
  8
IMPORTED
  6
CONTINUOUS
 62
              30
100
AcDbLine
 10
-1499.9999463938918
 20
504.50473353408182
 30
0.0
 11
-1530.4951463938919
 21
534.99993353408183
 31
0.0
  0
LINE
  5
279
100
AcDbEntity
  8
IMPORTED
  6
CONTINUOUS
 62
              30
100
AcDbLine
 10
-499.99994639389195
 20
500.34933353408184
 30
0.0
 11
-465.34934639389195
 21
534.99993353408183
 31
0.0
  0
LINE
  5
27A
100
AcDbEntity
  8
IMPORTED
  6
CONTINUOUS
 62
              30
100
AcDbLine
 10
-499.99984639389197
 20
456.15523353408184
 30
0.0
 11
-421.15524639389196
 21
534.99983353408174
 31
0.0
  0
LINE
  5
27B
100
AcDbEntity
  8
IMPORTED
  6
CONTINUOUS
 62
              30
100
AcDbLine
 10
-499.99994639389195
 20
411.96103353408182
 30
0.0
 11
-399.99994639389195
 21
511.96103353408188
 31
0.0
  0
LINE
  5
27C
100
AcDbEntity
  8
IMPORTED
  6
CONTINUOUS
 62
              30
100
AcDbLine
 10
-482.76694639389194
 20
384.99993353408183
 30
0.0
 11
-399.99994639389195
 21
467.76693353408183
 31
0.0
  0
LINE
  5
27D
100
AcDbEntity
  8
IMPORTED
  6
CONTINUOUS
 62
              30
100
AcDbLine
 10
-438.57274639389198
 20
384.99993353408183
 30
0.0
 11
-399.99994639389195
 21
423.57273353408186
 31
0.0
  0
LINE
  5
27E
100
AcDbEntity
  8
IMPORTED
  6
CONTINUOUS
 62
              30
100
AcDbLine
 10
-457.27174639389199
 20
384.99993353408183
 30
0.0
 11
-499.99994639389195
 21
427.72813353408185
 31
0.0
  0
LINE
  5
27F
100
AcDbEntity
  8
IMPORTED
  6
CONTINUOUS
 62
              30
100
AcDbLine
 10
-413.07754639389196
 20
384.99993353408183
 30
0.0
 11
-499.99994639389195
 21
471.92233353408182
 31
0.0
  0
LINE
  5
280
100
AcDbEntity
  8
IMPORTED
  6
CONTINUOUS
 62
              30
100
AcDbLine
 10
-399.99994639389195
 20
416.11643353408186
 30
0.0
 11
-499.99994639389195
 21
516.11643353408181
 31
0.0
  0
LINE
  5
281
100
AcDbEntity
  8
IMPORTED
  6
CONTINUOUS
 62
              30
100
AcDbLine
 10
-399.99994639389195
 20
460.31053353408186
 30
0.0
 11
-474.68934639389198
 21
534.99993353408183
 31
0.0
  0
LINE
  5
282
100
AcDbEntity
  8
IMPORTED
  6
CONTINUOUS
 62
              30
100
AcDbLine
 10
-399.99994639389195
 20
504.50473353408182
 30
0.0
 11
-430.49514639389196
 21
534.99993353408183
 31
0.0
  0
LINE
  5
283
100
AcDbEntity
  8
IMPORTED
  6
CONTINUOUS
 62
              30
100
AcDbLine
 10
1223.499953606108
 20
500.34933353408184
 30
0.0
 11
1258.1505536061079
 21
534.99993353408183
 31
0.0
  0
LINE
  5
284
100
AcDbEntity
  8
IMPORTED
  6
CONTINUOUS
 62
              30
100
AcDbLine
 10
1223.5000536061079
 20
456.15523353408184
 30
0.0
 11
1302.3446536061078
 21
534.99983353408174
 31
0.0
  0
LINE
  5
285
100
AcDbEntity
  8
IMPORTED
  6
CONTINUOUS
 62
              30
100
AcDbLine
 10
1223.499953606108
 20
411.96103353408182
 30
0.0
 11
1323.499953606108
 21
511.96103353408188
 31
0.0
  0
LINE
  5
286
100
AcDbEntity
  8
IMPORTED
  6
CONTINUOUS
 62
              30
100
AcDbLine
 10
1240.7329536061079
 20
384.99993353408183
 30
0.0
 11
1323.499953606108
 21
467.76693353408183
 31
0.0
  0
LINE
  5
287
100
AcDbEntity
  8
IMPORTED
  6
CONTINUOUS
 62
              30
100
AcDbLine
 10
1284.927153606108
 20
384.99993353408183
 30
0.0
 11
1323.499953606108
 21
423.57273353408186
 31
0.0
  0
LINE
  5
288
100
AcDbEntity
  8
IMPORTED
  6
CONTINUOUS
 62
              30
100
AcDbLine
 10
1266.228153606108
 20
384.99993353408183
 30
0.0
 11
1223.499953606108
 21
427.72813353408185
 31
0.0
  0
LINE
  5
289
100
AcDbEntity
  8
IMPORTED
  6
CONTINUOUS
 62
              30
100
AcDbLine
 10
1310.4223536061079
 20
384.99993353408183
 30
0.0
 11
1223.499953606108
 21
471.92233353408182
 31
0.0
  0
LINE
  5
28A
100
AcDbEntity
  8
IMPORTED
  6
CONTINUOUS
 62
              30
100
AcDbLine
 10
1323.499953606108
 20
416.11643353408186
 30
0.0
 11
1223.499953606108
 21
516.11643353408181
 31
0.0
  0
LINE
  5
28B
100
AcDbEntity
  8
IMPORTED
  6
CONTINUOUS
 62
              30
100
AcDbLine
 10
1323.499953606108
 20
460.31053353408186
 30
0.0
 11
1248.810553606108
 21
534.99993353408183
 31
0.0
  0
LINE
  5
28C
100
AcDbEntity
  8
IMPORTED
  6
CONTINUOUS
 62
              30
100
AcDbLine
 10
1323.499953606108
 20
504.50473353408182
 30
0.0
 11
1293.0047536061079
 21
534.99993353408183
 31
0.0
  0
LINE
  5
28D
100
AcDbEntity
  8
IMPORTED
  6
CONTINUOUS
 62
              30
100
AcDbLine
 10
1503.499953606108
 20
500.34933353408184
 30
0.0
 11
1538.1505536061079
 21
534.99993353408183
 31
0.0
  0
LINE
  5
28E
100
AcDbEntity
  8
IMPORTED
  6
CONTINUOUS
 62
              30
100
AcDbLine
 10
1503.5000536061079
 20
456.15523353408184
 30
0.0
 11
1582.3446536061078
 21
534.99983353408174
 31
0.0
  0
LINE
  5
28F
100
AcDbEntity
  8
IMPORTED
  6
CONTINUOUS
 62
              30
100
AcDbLine
 10
1503.499953606108
 20
411.96103353408182
 30
0.0
 11
1603.499953606108
 21
511.96103353408188
 31
0.0
  0
LINE
  5
290
100
AcDbEntity
  8
IMPORTED
  6
CONTINUOUS
 62
              30
100
AcDbLine
 10
1520.7329536061079
 20
384.99993353408183
 30
0.0
 11
1603.499953606108
 21
467.76693353408183
 31
0.0
  0
LINE
  5
291
100
AcDbEntity
  8
IMPORTED
  6
CONTINUOUS
 62
              30
100
AcDbLine
 10
1564.9271536061078
 20
384.99993353408183
 30
0.0
 11
1603.499953606108
 21
423.57273353408186
 31
0.0
  0
LINE
  5
292
100
AcDbEntity
  8
IMPORTED
  6
CONTINUOUS
 62
              30
100
AcDbLine
 10
1546.228153606108
 20
384.99993353408183
 30
0.0
 11
1503.499953606108
 21
427.72813353408185
 31
0.0
  0
LINE
  5
293
100
AcDbEntity
  8
IMPORTED
  6
CONTINUOUS
 62
              30
100
AcDbLine
 10
1590.4223536061079
 20
384.99993353408183
 30
0.0
 11
1503.499953606108
 21
471.92233353408182
 31
0.0
  0
LINE
  5
294
100
AcDbEntity
  8
IMPORTED
  6
CONTINUOUS
 62
              30
100
AcDbLine
 10
1603.499953606108
 20
416.11643353408186
 30
0.0
 11
1503.499953606108
 21
516.11643353408181
 31
0.0
  0
LINE
  5
295
100
AcDbEntity
  8
IMPORTED
  6
CONTINUOUS
 62
              30
100
AcDbLine
 10
1603.499953606108
 20
460.31053353408186
 30
0.0
 11
1528.810553606108
 21
534.99993353408183
 31
0.0
  0
LINE
  5
296
100
AcDbEntity
  8
IMPORTED
  6
CONTINUOUS
 62
              30
100
AcDbLine
 10
1603.499953606108
 20
504.50473353408182
 30
0.0
 11
1573.0047536061079
 21
534.99993353408183
 31
0.0
  0
POLYLINE
  5
297
100
AcDbEntity
  8
IMPORTED
  6
CONTINUOUS
 62
              30
100
AcDb2dPolyline
 66
               1
 10
0.0
 20
0.0
 30
0.0
 70
             129
  0
VERTEX
  5
298
100
AcDbEntity
  8
IMPORTED
  6
CONTINUOUS
 62
              30
100
AcDbVertex
100
AcDb2dVertex
 10
1343.499953606108
 20
984.99993353408172
 30
0.0
  0
VERTEX
  5
299
100
AcDbEntity
  8
IMPORTED
  6
CONTINUOUS
 62
              30
100
AcDbVertex
100
AcDb2dVertex
 10
1483.499953606108
 20
984.99993353408172
 30
0.0
  0
VERTEX
  5
29A
100
AcDbEntity
  8
IMPORTED
  6
CONTINUOUS
 62
              30
100
AcDbVertex
100
AcDb2dVertex
 10
1488.499953606108
 20
979.99993353408172
 30
0.0
  0
VERTEX
  5
29B
100
AcDbEntity
  8
IMPORTED
  6
CONTINUOUS
 62
              30
100
AcDbVertex
100
AcDb2dVertex
 10
1488.499953606108
 20
934.99993353408172
 30
0.0
  0
VERTEX
  5
29C
100
AcDbEntity
  8
IMPORTED
  6
CONTINUOUS
 62
              30
100
AcDbVertex
100
AcDb2dVertex
 10
1338.499953606108
 20
934.99993353408172
 30
0.0
  0
VERTEX
  5
29D
100
AcDbEntity
  8
IMPORTED
  6
CONTINUOUS
 62
              30
100
AcDbVertex
100
AcDb2dVertex
 10
1338.499953606108
 20
979.99993353408172
 30
0.0
  0
SEQEND
  5
29E
100
AcDbEntity
  8
IMPORTED
  6
CONTINUOUS
 62
              30
  0
POLYLINE
  5
29F
100
AcDbEntity
  8
IMPORTED
  6
STYLE_05
 62
              30
100
AcDb2dPolyline
 66
               1
 10
0.0
 20
0.0
 30
0.0
 70
             129
  0
VERTEX
  5
2A0
100
AcDbEntity
  8
IMPORTED
  6
STYLE_05
 62
              30
100
AcDbVertex
100
AcDb2dVertex
 10
1393.499953606108
 20
976.99993353408172
 30
0.0
  0
VERTEX
  5
2A1
100
AcDbEntity
  8
IMPORTED
  6
STYLE_05
 62
              30
100
AcDbVertex
100
AcDb2dVertex
 10
1433.499953606108
 20
976.99993353408172
 30
0.0
  0
VERTEX
  5
2A2
100
AcDbEntity
  8
IMPORTED
  6
STYLE_05
 62
              30
100
AcDbVertex
100
AcDb2dVertex
 10
1433.499953606108
 20
942.99993353408172
 30
0.0
  0
VERTEX
  5
2A3
100
AcDbEntity
  8
IMPORTED
  6
STYLE_05
 62
              30
100
AcDbVertex
100
AcDb2dVertex
 10
1393.499953606108
 20
942.99993353408172
 30
0.0
  0
SEQEND
  5
2A4
100
AcDbEntity
  8
IMPORTED
  6
STYLE_05
 62
              30
  0
POLYLINE
  5
2A5
100
AcDbEntity
  8
IMPORTED
  6
STYLE_05
 62
              30
100
AcDb2dPolyline
 66
               1
 10
0.0
 20
0.0
 30
0.0
 70
             129
  0
VERTEX
  5
2A6
100
AcDbEntity
  8
IMPORTED
  6
STYLE_05
 62
              30
100
AcDbVertex
100
AcDb2dVertex
 10
1354.499953606108
 20
976.99993353408172
 30
0.0
  0
VERTEX
  5
2A7
100
AcDbEntity
  8
IMPORTED
  6
STYLE_05
 62
              30
100
AcDbVertex
100
AcDb2dVertex
 10
1387.499953606108
 20
976.99993353408172
 30
0.0
  0
VERTEX
  5
2A8
100
AcDbEntity
  8
IMPORTED
  6
STYLE_05
 62
              30
100
AcDbVertex
100
AcDb2dVertex
 10
1387.499953606108
 20
942.99993353408172
 30
0.0
  0
VERTEX
  5
2A9
100
AcDbEntity
  8
IMPORTED
  6
STYLE_05
 62
              30
100
AcDbVertex
100
AcDb2dVertex
 10
1354.499953606108
 20
942.99993353408172
 30
0.0
  0
VERTEX
  5
2AA
100
AcDbEntity
  8
IMPORTED
  6
STYLE_05
 62
              30
100
AcDbVertex
100
AcDb2dVertex
 10
1346.499953606108
 20
950.99993353408172
 30
0.0
  0
VERTEX
  5
2AB
100
AcDbEntity
  8
IMPORTED
  6
STYLE_05
 62
              30
100
AcDbVertex
100
AcDb2dVertex
 10
1346.499953606108
 20
968.99993353408172
 30
0.0
  0
SEQEND
  5
2AC
100
AcDbEntity
  8
IMPORTED
  6
STYLE_05
 62
              30
  0
POLYLINE
  5
2AD
100
AcDbEntity
  8
IMPORTED
  6
STYLE_05
 62
              30
100
AcDb2dPolyline
 66
               1
 10
0.0
 20
0.0
 30
0.0
 70
             129
  0
VERTEX
  5
2AE
100
AcDbEntity
  8
IMPORTED
  6
STYLE_05
 62
              30
100
AcDbVertex
100
AcDb2dVertex
 10
1472.499953606108
 20
976.99993353408172
 30
0.0
  0
VERTEX
  5
2AF
100
AcDbEntity
  8
IMPORTED
  6
STYLE_05
 62
              30
100
AcDbVertex
100
AcDb2dVertex
 10
1439.499953606108
 20
976.99993353408172
 30
0.0
  0
VERTEX
  5
2B0
100
AcDbEntity
  8
IMPORTED
  6
STYLE_05
 62
              30
100
AcDbVertex
100
AcDb2dVertex
 10
1439.499953606108
 20
942.99993353408172
 30
0.0
  0
VERTEX
  5
2B1
100
AcDbEntity
  8
IMPORTED
  6
STYLE_05
 62
              30
100
AcDbVertex
100
AcDb2dVertex
 10
1472.499953606108
 20
942.99993353408172
 30
0.0
  0
VERTEX
  5
2B2
100
AcDbEntity
  8
IMPORTED
  6
STYLE_05
 62
              30
100
AcDbVertex
100
AcDb2dVertex
 10
1480.499953606108
 20
950.99993353408172
 30
0.0
  0
VERTEX
  5
2B3
100
AcDbEntity
  8
IMPORTED
  6
STYLE_05
 62
              30
100
AcDbVertex
100
AcDb2dVertex
 10
1480.499953606108
 20
968.99993353408172
 30
0.0
  0
SEQEND
  5
2B4
100
AcDbEntity
  8
IMPORTED
  6
STYLE_05
 62
              30
  0
POLYLINE
  5
2B5
100
AcDbEntity
  8
IMPORTED
  6
STYLE_05
 62
              30
100
AcDb2dPolyline
 66
               1
 10
0.0
 20
0.0
 30
0.0
 70
             129
  0
VERTEX
  5
2B6
100
AcDbEntity
  8
IMPORTED
  6
STYLE_05
 62
              30
100
AcDbVertex
100
AcDb2dVertex
 10
1317.499953606108
 20
976.99993353408172
 30
0.0
  0
VERTEX
  5
2B7
100
AcDbEntity
  8
IMPORTED
  6
STYLE_05
 62
              30
100
AcDbVertex
100
AcDb2dVertex
 10
1284.499953606108
 20
976.99993353408172
 30
0.0
  0
VERTEX
  5
2B8
100
AcDbEntity
  8
IMPORTED
  6
STYLE_05
 62
              30
100
AcDbVertex
100
AcDb2dVertex
 10
1284.499953606108
 20
942.99993353408172
 30
0.0
  0
VERTEX
  5
2B9
100
AcDbEntity
  8
IMPORTED
  6
STYLE_05
 62
              30
100
AcDbVertex
100
AcDb2dVertex
 10
1317.499953606108
 20
942.99993353408172
 30
0.0
  0
VERTEX
  5
2BA
100
AcDbEntity
  8
IMPORTED
  6
STYLE_05
 62
              30
100
AcDbVertex
100
AcDb2dVertex
 10
1325.499953606108
 20
950.99993353408172
 30
0.0
  0
VERTEX
  5
2BB
100
AcDbEntity
  8
IMPORTED
  6
STYLE_05
 62
              30
100
AcDbVertex
100
AcDb2dVertex
 10
1325.499953606108
 20
968.99993353408172
 30
0.0
  0
SEQEND
  5
2BC
100
AcDbEntity
  8
IMPORTED
  6
STYLE_05
 62
              30
  0
POLYLINE
  5
2BD
100
AcDbEntity
  8
IMPORTED
  6
CONTINUOUS
 62
              30
100
AcDb2dPolyline
 66
               1
 10
0.0
 20
0.0
 30
0.0
 70
             129
  0
VERTEX
  5
2BE
100
AcDbEntity
  8
IMPORTED
  6
CONTINUOUS
 62
              30
100
AcDbVertex
100
AcDb2dVertex
 10
1188.499953606108
 20
984.99993353408172
 30
0.0
  0
VERTEX
  5
2BF
100
AcDbEntity
  8
IMPORTED
  6
CONTINUOUS
 62
              30
100
AcDbVertex
100
AcDb2dVertex
 10
1328.499953606108
 20
984.99993353408172
 30
0.0
  0
VERTEX
  5
2C0
100
AcDbEntity
  8
IMPORTED
  6
CONTINUOUS
 62
              30
100
AcDbVertex
100
AcDb2dVertex
 10
1333.499953606108
 20
979.99993353408172
 30
0.0
  0
VERTEX
  5
2C1
100
AcDbEntity
  8
IMPORTED
  6
CONTINUOUS
 62
              30
100
AcDbVertex
100
AcDb2dVertex
 10
1333.499953606108
 20
934.99993353408172
 30
0.0
  0
VERTEX
  5
2C2
100
AcDbEntity
  8
IMPORTED
  6
CONTINUOUS
 62
              30
100
AcDbVertex
100
AcDb2dVertex
 10
1188.499953606108
 20
934.99993353408172
 30
0.0
  0
VERTEX
  5
2C3
100
AcDbEntity
  8
IMPORTED
  6
CONTINUOUS
 62
              30
100
AcDbVertex
100
AcDb2dVertex
 10
1183.499953606108
 20
939.99993353408172
 30
0.0
  0
VERTEX
  5
2C4
100
AcDbEntity
  8
IMPORTED
  6
CONTINUOUS
 62
              30
100
AcDbVertex
100
AcDb2dVertex
 10
1183.499953606108
 20
979.99993353408172
 30
0.0
  0
SEQEND
  5
2C5
100
AcDbEntity
  8
IMPORTED
  6
CONTINUOUS
 62
              30
  0
POLYLINE
  5
2C6
100
AcDbEntity
  8
IMPORTED
  6
STYLE_05
 62
              30
100
AcDb2dPolyline
 66
               1
 10
0.0
 20
0.0
 30
0.0
 70
             129
  0
VERTEX
  5
2C7
100
AcDbEntity
  8
IMPORTED
  6
STYLE_05
 62
              30
100
AcDbVertex
100
AcDb2dVertex
 10
1199.499953606108
 20
976.99993353408172
 30
0.0
  0
VERTEX
  5
2C8
100
AcDbEntity
  8
IMPORTED
  6
STYLE_05
 62
              30
100
AcDbVertex
100
AcDb2dVertex
 10
1232.499953606108
 20
976.99993353408172
 30
0.0
  0
VERTEX
  5
2C9
100
AcDbEntity
  8
IMPORTED
  6
STYLE_05
 62
              30
100
AcDbVertex
100
AcDb2dVertex
 10
1232.499953606108
 20
942.99993353408172
 30
0.0
  0
VERTEX
  5
2CA
100
AcDbEntity
  8
IMPORTED
  6
STYLE_05
 62
              30
100
AcDbVertex
100
AcDb2dVertex
 10
1199.499953606108
 20
942.99993353408172
 30
0.0
  0
VERTEX
  5
2CB
100
AcDbEntity
  8
IMPORTED
  6
STYLE_05
 62
              30
100
AcDbVertex
100
AcDb2dVertex
 10
1191.499953606108
 20
950.99993353408172
 30
0.0
  0
VERTEX
  5
2CC
100
AcDbEntity
  8
IMPORTED
  6
STYLE_05
 62
              30
100
AcDbVertex
100
AcDb2dVertex
 10
1191.499953606108
 20
968.99993353408172
 30
0.0
  0
SEQEND
  5
2CD
100
AcDbEntity
  8
IMPORTED
  6
STYLE_05
 62
              30
  0
POLYLINE
  5
2CE
100
AcDbEntity
  8
IMPORTED
  6
STYLE_05
 62
              30
100
AcDb2dPolyline
 66
               1
 10
0.0
 20
0.0
 30
0.0
 70
             129
  0
VERTEX
  5
2CF
100
AcDbEntity
  8
IMPORTED
  6
STYLE_05
 62
              30
100
AcDbVertex
100
AcDb2dVertex
 10
1238.499953606108
 20
976.99993353408172
 30
0.0
  0
VERTEX
  5
2D0
100
AcDbEntity
  8
IMPORTED
  6
STYLE_05
 62
              30
100
AcDbVertex
100
AcDb2dVertex
 10
1278.499953606108
 20
976.99993353408172
 30
0.0
  0
VERTEX
  5
2D1
100
AcDbEntity
  8
IMPORTED
  6
STYLE_05
 62
              30
100
AcDbVertex
100
AcDb2dVertex
 10
1278.499953606108
 20
942.99993353408172
 30
0.0
  0
VERTEX
  5
2D2
100
AcDbEntity
  8
IMPORTED
  6
STYLE_05
 62
              30
100
AcDbVertex
100
AcDb2dVertex
 10
1238.499953606108
 20
942.99993353408172
 30
0.0
  0
SEQEND
  5
2D3
100
AcDbEntity
  8
IMPORTED
  6
STYLE_05
 62
              30
  0
POLYLINE
  5
2D4
100
AcDbEntity
  8
IMPORTED
  6
STYLE_05
 62
              30
100
AcDb2dPolyline
 66
               1
 10
0.0
 20
0.0
 30
0.0
 70
             129
  0
VERTEX
  5
2D5
100
AcDbEntity
  8
IMPORTED
  6
STYLE_05
 62
              30
100
AcDbVertex
100
AcDb2dVertex
 10
1588.499953606108
 20
976.99993353408172
 30
0.0
  0
VERTEX
  5
2D6
100
AcDbEntity
  8
IMPORTED
  6
STYLE_05
 62
              30
100
AcDbVertex
100
AcDb2dVertex
 10
1548.499953606108
 20
976.99993353408172
 30
0.0
  0
VERTEX
  5
2D7
100
AcDbEntity
  8
IMPORTED
  6
STYLE_05
 62
              30
100
AcDbVertex
100
AcDb2dVertex
 10
1548.499953606108
 20
942.99993353408172
 30
0.0
  0
VERTEX
  5
2D8
100
AcDbEntity
  8
IMPORTED
  6
STYLE_05
 62
              30
100
AcDbVertex
100
AcDb2dVertex
 10
1588.499953606108
 20
942.99993353408172
 30
0.0
  0
SEQEND
  5
2D9
100
AcDbEntity
  8
IMPORTED
  6
STYLE_05
 62
              30
  0
POLYLINE
  5
2DA
100
AcDbEntity
  8
IMPORTED
  6
STYLE_05
 62
              30
100
AcDb2dPolyline
 66
               1
 10
0.0
 20
0.0
 30
0.0
 70
             129
  0
VERTEX
  5
2DB
100
AcDbEntity
  8
IMPORTED
  6
STYLE_05
 62
              30
100
AcDbVertex
100
AcDb2dVertex
 10
1627.499953606108
 20
976.99993353408172
 30
0.0
  0
VERTEX
  5
2DC
100
AcDbEntity
  8
IMPORTED
  6
STYLE_05
 62
              30
100
AcDbVertex
100
AcDb2dVertex
 10
1594.499953606108
 20
976.99993353408172
 30
0.0
  0
VERTEX
  5
2DD
100
AcDbEntity
  8
IMPORTED
  6
STYLE_05
 62
              30
100
AcDbVertex
100
AcDb2dVertex
 10
1594.499953606108
 20
942.99993353408172
 30
0.0
  0
VERTEX
  5
2DE
100
AcDbEntity
  8
IMPORTED
  6
STYLE_05
 62
              30
100
AcDbVertex
100
AcDb2dVertex
 10
1627.499953606108
 20
942.99993353408172
 30
0.0
  0
VERTEX
  5
2DF
100
AcDbEntity
  8
IMPORTED
  6
STYLE_05
 62
              30
100
AcDbVertex
100
AcDb2dVertex
 10
1635.499953606108
 20
950.99993353408172
 30
0.0
  0
VERTEX
  5
2E0
100
AcDbEntity
  8
IMPORTED
  6
STYLE_05
 62
              30
100
AcDbVertex
100
AcDb2dVertex
 10
1635.499953606108
 20
968.99993353408172
 30
0.0
  0
SEQEND
  5
2E1
100
AcDbEntity
  8
IMPORTED
  6
STYLE_05
 62
              30
  0
POLYLINE
  5
2E2
100
AcDbEntity
  8
IMPORTED
  6
CONTINUOUS
 62
              30
100
AcDb2dPolyline
 66
               1
 10
0.0
 20
0.0
 30
0.0
 70
             129
  0
VERTEX
  5
2E3
100
AcDbEntity
  8
IMPORTED
  6
CONTINUOUS
 62
              30
100
AcDbVertex
100
AcDb2dVertex
 10
1638.499953606108
 20
984.99993353408172
 30
0.0
  0
VERTEX
  5
2E4
100
AcDbEntity
  8
IMPORTED
  6
CONTINUOUS
 62
              30
100
AcDbVertex
100
AcDb2dVertex
 10
1498.499953606108
 20
984.99993353408172
 30
0.0
  0
VERTEX
  5
2E5
100
AcDbEntity
  8
IMPORTED
  6
CONTINUOUS
 62
              30
100
AcDbVertex
100
AcDb2dVertex
 10
1493.499953606108
 20
979.99993353408172
 30
0.0
  0
VERTEX
  5
2E6
100
AcDbEntity
  8
IMPORTED
  6
CONTINUOUS
 62
              30
100
AcDbVertex
100
AcDb2dVertex
 10
1493.499953606108
 20
934.99993353408172
 30
0.0
  0
VERTEX
  5
2E7
100
AcDbEntity
  8
IMPORTED
  6
CONTINUOUS
 62
              30
100
AcDbVertex
100
AcDb2dVertex
 10
1638.499953606108
 20
934.99993353408172
 30
0.0
  0
VERTEX
  5
2E8
100
AcDbEntity
  8
IMPORTED
  6
CONTINUOUS
 62
              30
100
AcDbVertex
100
AcDb2dVertex
 10
1643.499953606108
 20
939.99993353408172
 30
0.0
  0
VERTEX
  5
2E9
100
AcDbEntity
  8
IMPORTED
  6
CONTINUOUS
 62
              30
100
AcDbVertex
100
AcDb2dVertex
 10
1643.499953606108
 20
979.99993353408172
 30
0.0
  0
SEQEND
  5
2EA
100
AcDbEntity
  8
IMPORTED
  6
CONTINUOUS
 62
              30
  0
POLYLINE
  5
2EB
100
AcDbEntity
  8
IMPORTED
  6
STYLE_05
 62
              30
100
AcDb2dPolyline
 66
               1
 10
0.0
 20
0.0
 30
0.0
 70
             129
  0
VERTEX
  5
2EC
100
AcDbEntity
  8
IMPORTED
  6
STYLE_05
 62
              30
100
AcDbVertex
100
AcDb2dVertex
 10
1509.499953606108
 20
976.99993353408172
 30
0.0
  0
VERTEX
  5
2ED
100
AcDbEntity
  8
IMPORTED
  6
STYLE_05
 62
              30
100
AcDbVertex
100
AcDb2dVertex
 10
1542.499953606108
 20
976.99993353408172
 30
0.0
  0
VERTEX
  5
2EE
100
AcDbEntity
  8
IMPORTED
  6
STYLE_05
 62
              30
100
AcDbVertex
100
AcDb2dVertex
 10
1542.499953606108
 20
942.99993353408172
 30
0.0
  0
VERTEX
  5
2EF
100
AcDbEntity
  8
IMPORTED
  6
STYLE_05
 62
              30
100
AcDbVertex
100
AcDb2dVertex
 10
1509.499953606108
 20
942.99993353408172
 30
0.0
  0
VERTEX
  5
2F0
100
AcDbEntity
  8
IMPORTED
  6
STYLE_05
 62
              30
100
AcDbVertex
100
AcDb2dVertex
 10
1501.499953606108
 20
950.99993353408172
 30
0.0
  0
VERTEX
  5
2F1
100
AcDbEntity
  8
IMPORTED
  6
STYLE_05
 62
              30
100
AcDbVertex
100
AcDb2dVertex
 10
1501.499953606108
 20
968.99993353408172
 30
0.0
  0
SEQEND
  5
2F2
100
AcDbEntity
  8
IMPORTED
  6
STYLE_05
 62
              30
  0
POLYLINE
  5
2F3
100
AcDbEntity
  8
IMPORTED
  6
STYLE_05
 62
              30
100
AcDb2dPolyline
 66
               1
 10
0.0
 20
0.0
 30
0.0
 70
             129
  0
VERTEX
  5
2F4
100
AcDbEntity
  8
IMPORTED
  6
STYLE_05
 62
              30
100
AcDbVertex
100
AcDb2dVertex
 10
1223.499953606108
 20
934.99993353408172
 30
0.0
  0
VERTEX
  5
2F5
100
AcDbEntity
  8
IMPORTED
  6
STYLE_05
 62
              30
100
AcDbVertex
100
AcDb2dVertex
 10
1603.499953606108
 20
934.99993353408172
 30
0.0
  0
VERTEX
  5
2F6
100
AcDbEntity
  8
IMPORTED
  6
STYLE_05
 62
              30
100
AcDbVertex
100
AcDb2dVertex
 10
1603.499953606108
 20
929.99993353408172
 30
0.0
  0
VERTEX
  5
2F7
100
AcDbEntity
  8
IMPORTED
  6
STYLE_05
 62
              30
100
AcDbVertex
100
AcDb2dVertex
 10
1223.499953606108
 20
929.99993353408172
 30
0.0
  0
SEQEND
  5
2F8
100
AcDbEntity
  8
IMPORTED
  6
STYLE_05
 62
              30
  0
LINE
  5
2F9
100
AcDbEntity
  8
IMPORTED
  6
CONTINUOUS
 62
              30
100
AcDbLine
 10
1223.499953606108
 20
844.99993353408172
 30
0.0
 11
1603.499953606108
 21
844.99993353408172
 31
0.0
  0
LINE
  5
2FA
100
AcDbEntity
  8
IMPORTED
  6
CONTINUOUS
 62
              30
100
AcDbLine
 10
1318.499953606108
 20
839.99993353408172
 30
0.0
 11
1318.499953606108
 21
384.99993353408183
 31
0.0
  0
LINE
  5
2FB
100
AcDbEntity
  8
IMPORTED
  6
CONTINUOUS
 62
              30
100
AcDbLine
 10
1228.499953606108
 20
839.99993353408172
 30
0.0
 11
1228.499953606108
 21
384.99993353408183
 31
0.0
  0
POLYLINE
  5
2FC
100
AcDbEntity
  8
IMPORTED
  6
CONTINUOUS
 62
              30
100
AcDb2dPolyline
 66
               1
 10
0.0
 20
0.0
 30
0.0
 70
             129
  0
VERTEX
  5
2FD
100
AcDbEntity
  8
IMPORTED
  6
CONTINUOUS
 62
              30
100
AcDbVertex
100
AcDb2dVertex
 10
1223.499953606108
 20
839.99993353408172
 30
0.0
  0
VERTEX
  5
2FE
100
AcDbEntity
  8
IMPORTED
  6
CONTINUOUS
 62
              30
100
AcDbVertex
100
AcDb2dVertex
 10
1323.499953606108
 20
839.99993353408172
 30
0.0
  0
VERTEX
  5
2FF
100
AcDbEntity
  8
IMPORTED
  6
CONTINUOUS
 62
              30
100
AcDbVertex
100
AcDb2dVertex
 10
1323.499953606108
 20
384.99993353408183
 30
0.0
  0
VERTEX
  5
300
100
AcDbEntity
  8
IMPORTED
  6
CONTINUOUS
 62
              30
100
AcDbVertex
100
AcDb2dVertex
 10
1223.499953606108
 20
384.99993353408183
 30
0.0
  0
VERTEX
  5
301
100
AcDbEntity
  8
IMPORTED
  6
CONTINUOUS
 62
              30
100
AcDbVertex
100
AcDb2dVertex
 10
1223.499953606108
 20
839.99993353408172
 30
0.0
  0
SEQEND
  5
302
100
AcDbEntity
  8
IMPORTED
  6
CONTINUOUS
 62
              30
  0
POLYLINE
  5
303
100
AcDbEntity
  8
IMPORTED
  6
STYLE_05
 62
              30
100
AcDb2dPolyline
 66
               1
 10
0.0
 20
0.0
 30
0.0
 70
             129
  0
VERTEX
  5
304
100
AcDbEntity
  8
IMPORTED
  6
STYLE_05
 62
              30
100
AcDbVertex
100
AcDb2dVertex
 10
1593.499953606108
 20
934.99993353408172
 30
0.0
  0
VERTEX
  5
305
100
AcDbEntity
  8
IMPORTED
  6
STYLE_05
 62
              30
100
AcDbVertex
100
AcDb2dVertex
 10
1233.499953606108
 20
934.99993353408172
 30
0.0
  0
VERTEX
  5
306
100
AcDbEntity
  8
IMPORTED
  6
STYLE_05
 62
              30
100
AcDbVertex
100
AcDb2dVertex
 10
1233.499953606108
 20
854.99993353408172
 30
0.0
  0
VERTEX
  5
307
100
AcDbEntity
  8
IMPORTED
  6
STYLE_05
 62
              30
100
AcDbVertex
100
AcDb2dVertex
 10
1593.499953606108
 20
854.99993353408172
 30
0.0
  0
SEQEND
  5
308
100
AcDbEntity
  8
IMPORTED
  6
STYLE_05
 62
              30
  0
CIRCLE
  5
309
100
AcDbEntity
  8
IMPORTED
  6
STYLE_05
 62
              30
100
AcDbCircle
 10
1363.499953606108
 20
887.49993353408172
 30
0.0
 40
3.5
  0
LINE
  5
30A
100
AcDbEntity
  8
IMPORTED
  6
CONTINUOUS
 62
              30
100
AcDbLine
 10
1598.499953606108
 20
839.99993353408172
 30
0.0
 11
1598.499953606108
 21
384.99993353408183
 31
0.0
  0
LINE
  5
30B
100
AcDbEntity
  8
IMPORTED
  6
CONTINUOUS
 62
              30
100
AcDbLine
 10
1508.499953606108
 20
839.99993353408172
 30
0.0
 11
1508.499953606108
 21
384.99993353408183
 31
0.0
  0
POLYLINE
  5
30C
100
AcDbEntity
  8
IMPORTED
  6
CONTINUOUS
 62
              30
100
AcDb2dPolyline
 66
               1
 10
0.0
 20
0.0
 30
0.0
 70
             129
  0
VERTEX
  5
30D
100
AcDbEntity
  8
IMPORTED
  6
CONTINUOUS
 62
              30
100
AcDbVertex
100
AcDb2dVertex
 10
1603.499953606108
 20
839.99993353408172
 30
0.0
  0
VERTEX
  5
30E
100
AcDbEntity
  8
IMPORTED
  6
CONTINUOUS
 62
              30
100
AcDbVertex
100
AcDb2dVertex
 10
1503.499953606108
 20
839.99993353408172
 30
0.0
  0
VERTEX
  5
30F
100
AcDbEntity
  8
IMPORTED
  6
CONTINUOUS
 62
              30
100
AcDbVertex
100
AcDb2dVertex
 10
1503.499953606108
 20
384.99993353408183
 30
0.0
  0
VERTEX
  5
310
100
AcDbEntity
  8
IMPORTED
  6
CONTINUOUS
 62
              30
100
AcDbVertex
100
AcDb2dVertex
 10
1603.499953606108
 20
384.99993353408183
 30
0.0
  0
VERTEX
  5
311
100
AcDbEntity
  8
IMPORTED
  6
CONTINUOUS
 62
              30
100
AcDbVertex
100
AcDb2dVertex
 10
1603.499953606108
 20
839.99993353408172
 30
0.0
  0
SEQEND
  5
312
100
AcDbEntity
  8
IMPORTED
  6
CONTINUOUS
 62
              30
  0
LINE
  5
313
100
AcDbEntity
  8
IMPORTED
  6
CONTINUOUS
 62
              30
100
AcDbLine
 10
-1899.9999463938918
 20
979.99993353408172
 30
0.0
 11
-99.999946393892017
 21
979.99993353408172
 31
0.0
  0
LINE
  5
314
100
AcDbEntity
  8
IMPORTED
  6
CONTINUOUS
 62
              30
100
AcDbLine
 10
-1894.9999463938918
 20
934.99993353408172
 30
0.0
 11
-1894.9999463938918
 21
984.99993353408172
 31
0.0
  0
LINE
  5
315
100
AcDbEntity
  8
IMPORTED
  6
CONTINUOUS
 62
              30
100
AcDbLine
 10
-1504.9999463938918
 20
929.99993353408172
 30
0.0
 11
-1504.9999463938918
 21
384.99993353408183
 31
0.0
  0
LINE
  5
316
100
AcDbEntity
  8
IMPORTED
  6
CONTINUOUS
 62
              30
100
AcDbLine
 10
-1594.9999463938918
 20
929.99993353408172
 30
0.0
 11
-1594.9999463938918
 21
384.99993353408183
 31
0.0
  0
LINE
  5
317
100
AcDbEntity
  8
IMPORTED
  6
CONTINUOUS
 62
              30
100
AcDbLine
 10
-104.99994639389202
 20
934.99993353408172
 30
0.0
 11
-104.99994639389202
 21
984.99993353408172
 31
0.0
  0
LINE
  5
318
100
AcDbEntity
  8
IMPORTED
  6
CONTINUOUS
 62
              30
100
AcDbLine
 10
-404.99994639389195
 20
929.99993353408172
 30
0.0
 11
-404.99994639389195
 21
384.99993353408183
 31
0.0
  0
LINE
  5
319
100
AcDbEntity
  8
IMPORTED
  6
CONTINUOUS
 62
              30
100
AcDbLine
 10
-494.99994639389195
 20
929.99993353408172
 30
0.0
 11
-494.99994639389195
 21
384.99993353408183
 31
0.0
  0
MTEXT
  5
31A
100
AcDbEntity
  8
IMPORTED
 62
              30
100
AcDbMText
 10
2405.3517536061076
 20
1478.304225830957
 30
0.0
 40
40.721054296875003
 41
0.0
 71
               1
 72
               1
  1
1：15(A3)
  7
_______
  0
LINE
  5
31B
100
AcDbEntity
  8
IMPORTED
  6
CONTINUOUS
 62
              30
100
AcDbLine
 10
-1899.9999463938918
 20
-674.99996646591808
 30
0.0
 11
-99.999946393892017
 21
-674.99996646591808
 31
0.0
  0
LINE
  5
31C
100
AcDbEntity
  8
IMPORTED
  6
CONTINUOUS
 62
              30
100
AcDbLine
 10
-1894.9999463938918
 20
-819.99996646591808
 30
0.0
 11
-1894.9999463938918
 21
-669.99996646591808
 31
0.0
  0
LINE
  5
31D
100
AcDbEntity
  8
IMPORTED
  6
CONTINUOUS
 62
              30
100
AcDbLine
 10
-1899.9999463938918
 20
-814.99996646591808
 30
0.0
 11
-99.999946393892017
 21
-814.99996646591808
 31
0.0
  0
LINE
  5
31E
100
AcDbEntity
  8
IMPORTED
  6
CONTINUOUS
 62
              30
100
AcDbLine
 10
-104.99994639389202
 20
-819.99996646591808
 30
0.0
 11
-104.99994639389202
 21
-669.99996646591808
 31
0.0
  0
LINE
  5
31F
100
AcDbEntity
  8
IMPORTED
  6
CONTINUOUS
 62
              30
100
AcDbLine
 10
-1899.9999463938918
 20
-829.99996646591808
 30
0.0
 11
-99.999946393892017
 21
-829.99996646591808
 31
0.0
  0
LINE
  5
320
100
AcDbEntity
  8
IMPORTED
  6
CONTINUOUS
 62
              30
100
AcDbLine
 10
-104.99994639389202
 20
-974.99996646591808
 30
0.0
 11
-104.99994639389202
 21
-824.99996646591808
 31
0.0
  0
LINE
  5
321
100
AcDbEntity
  8
IMPORTED
  6
CONTINUOUS
 62
              30
100
AcDbLine
 10
-1899.9999463938918
 20
-969.99996646591808
 30
0.0
 11
-99.999946393892017
 21
-969.99996646591808
 31
0.0
  0
LINE
  5
322
100
AcDbEntity
  8
IMPORTED
  6
CONTINUOUS
 62
              30
100
AcDbLine
 10
-1894.9999463938918
 20
-974.99996646591808
 30
0.0
 11
-1894.9999463938918
 21
-824.99996646591808
 31
0.0
  0
LINE
  5
323
100
AcDbEntity
  8
IMPORTED
  6
CONTINUOUS
 62
              30
100
AcDbLine
 10
-1899.9999463938918
 20
-984.99996646591808
 30
0.0
 11
-99.999946393892017
 21
-984.99996646591808
 31
0.0
  0
LINE
  5
324
100
AcDbEntity
  8
IMPORTED
  6
CONTINUOUS
 62
              30
100
AcDbLine
 10
-104.99994639389202
 20
-1129.9999664659179
 30
0.0
 11
-104.99994639389202
 21
-979.99996646591808
 31
0.0
  0
LINE
  5
325
100
AcDbEntity
  8
IMPORTED
  6
CONTINUOUS
 62
              30
100
AcDbLine
 10
-1899.9999463938918
 20
-1124.9999664659179
 30
0.0
 11
-99.999946393892017
 21
-1124.9999664659179
 31
0.0
  0
LINE
  5
326
100
AcDbEntity
  8
IMPORTED
  6
CONTINUOUS
 62
              30
100
AcDbLine
 10
-1894.9999463938918
 20
-1129.9999664659179
 30
0.0
 11
-1894.9999463938918
 21
-979.99996646591808
 31
0.0
  0
CIRCLE
  5
327
100
AcDbEntity
  8
IMPORTED
  6
STYLE_05
 62
              30
100
AcDbCircle
 10
1463.499953606108
 20
887.49993353408172
 30
0.0
 40
3.5
  0
LINE
  5
328
100
AcDbEntity
  8
IMPORTED
  6
STYLE_05
 62
              30
100
AcDbLine
 10
1603.499953606108
 20
839.99993353408172
 30
0.0
 11
1603.499953606108
 21
934.99993353408172
 31
0.0
  0
LINE
  5
329
100
AcDbEntity
  8
IMPORTED
  6
STYLE_05
 62
              30
100
AcDbLine
 10
1503.499953606108
 20
839.99993353408172
 30
0.0
 11
1503.499953606108
 21
929.99993353408172
 31
0.0
  0
LINE
  5
32A
100
AcDbEntity
  8
IMPORTED
  6
STYLE_05
 62
              30
100
AcDbLine
 10
1508.499953606108
 20
839.99993353408172
 30
0.0
 11
1508.499953606108
 21
929.99993353408172
 31
0.0
  0
LINE
  5
32B
100
AcDbEntity
  8
IMPORTED
  6
CONTINUOUS
 62
              30
100
AcDbLine
 10
1598.499953606108
 20
839.99993353408172
 30
0.0
 11
1598.499953606108
 21
934.99993353408172
 31
0.0
  0
LINE
  5
32C
100
AcDbEntity
  8
IMPORTED
  6
STYLE_05
 62
              30
100
AcDbLine
 10
1223.499953606108
 20
839.99993353408172
 30
0.0
 11
1223.499953606108
 21
934.99993353408172
 31
0.0
  0
LINE
  5
32D
100
AcDbEntity
  8
IMPORTED
  6
STYLE_05
 62
              30
100
AcDbLine
 10
1323.499953606108
 20
839.99993353408172
 30
0.0
 11
1323.499953606108
 21
929.99993353408172
 31
0.0
  0
LINE
  5
32E
100
AcDbEntity
  8
IMPORTED
  6
STYLE_05
 62
              30
100
AcDbLine
 10
1318.499953606108
 20
839.99993353408172
 30
0.0
 11
1318.499953606108
 21
929.99993353408172
 31
0.0
  0
LINE
  5
32F
100
AcDbEntity
  8
IMPORTED
  6
CONTINUOUS
 62
              30
100
AcDbLine
 10
1228.499953606108
 20
839.99993353408172
 30
0.0
 11
1228.499953606108
 21
934.99993353408172
 31
0.0
  0
POLYLINE
  5
330
100
AcDbEntity
  8
IMPORTED
  6
STYLE_05
 62
              30
100
AcDb2dPolyline
 66
               1
 10
0.0
 20
0.0
 30
0.0
 70
             129
  0
VERTEX
  5
331
100
AcDbEntity
  8
IMPORTED
  6
STYLE_05
 62
              30
100
AcDbVertex
100
AcDb2dVertex
 10
-1594.9999463938918
 20
-989.99996646591808
 30
0.0
  0
VERTEX
  5
332
100
AcDbEntity
  8
IMPORTED
  6
STYLE_05
 62
              30
100
AcDbVertex
100
AcDb2dVertex
 10
-1504.9999463938918
 20
-989.99996646591808
 30
0.0
  0
VERTEX
  5
333
100
AcDbEntity
  8
IMPORTED
  6
STYLE_05
 62
              30
100
AcDbVertex
100
AcDb2dVertex
 10
-1499.9999463938918
 20
-994.99996646591808
 30
0.0
  0
VERTEX
  5
334
100
AcDbEntity
  8
IMPORTED
  6
STYLE_05
 62
              30
100
AcDbVertex
100
AcDb2dVertex
 10
-1499.9999463938918
 20
-1084.9999664659181
 30
0.0
  0
VERTEX
  5
335
100
AcDbEntity
  8
IMPORTED
  6
STYLE_05
 62
              30
100
AcDbVertex
100
AcDb2dVertex
 10
-1504.9999463938918
 20
-1089.9999664659179
 30
0.0
  0
VERTEX
  5
336
100
AcDbEntity
  8
IMPORTED
  6
STYLE_05
 62
              30
100
AcDbVertex
100
AcDb2dVertex
 10
-1594.9999463938918
 20
-1089.9999664659179
 30
0.0
  0
VERTEX
  5
337
100
AcDbEntity
  8
IMPORTED
  6
STYLE_05
 62
              30
100
AcDbVertex
100
AcDb2dVertex
 10
-1599.9999463938918
 20
-1084.9999664659181
 30
0.0
  0
VERTEX
  5
338
100
AcDbEntity
  8
IMPORTED
  6
STYLE_05
 62
              30
100
AcDbVertex
100
AcDb2dVertex
 10
-1599.9999463938918
 20
-994.99996646591808
 30
0.0
  0
SEQEND
  5
339
100
AcDbEntity
  8
IMPORTED
  6
STYLE_05
 62
              30
  0
POLYLINE
  5
33A
100
AcDbEntity
  8
IMPORTED
  6
STYLE_05
 62
              30
100
AcDb2dPolyline
 66
               1
 10
0.0
 20
0.0
 30
0.0
 70
             129
  0
VERTEX
  5
33B
100
AcDbEntity
  8
IMPORTED
  6
STYLE_05
 62
              30
100
AcDbVertex
100
AcDb2dVertex
 10
-1489.9999463938918
 20
-709.99996646591808
 30
0.0
  0
VERTEX
  5
33C
100
AcDbEntity
  8
IMPORTED
  6
STYLE_05
 62
              30
100
AcDbVertex
100
AcDb2dVertex
 10
-1449.9999463938918
 20
-709.99996646591808
 30
0.0
  0
VERTEX
  5
33D
100
AcDbEntity
  8
IMPORTED
  6
STYLE_05
 62
              30
100
AcDbVertex
100
AcDb2dVertex
 10
-1444.9999463938918
 20
-714.99996646591808
 30
0.0
  0
VERTEX
  5
33E
100
AcDbEntity
  8
IMPORTED
  6
STYLE_05
 62
              30
100
AcDbVertex
100
AcDb2dVertex
 10
-1444.9999463938918
 20
-1084.9999664659181
 30
0.0
  0
VERTEX
  5
33F
100
AcDbEntity
  8
IMPORTED
  6
STYLE_05
 62
              30
100
AcDbVertex
100
AcDb2dVertex
 10
-1449.9999463938918
 20
-1089.9999664659179
 30
0.0
  0
VERTEX
  5
340
100
AcDbEntity
  8
IMPORTED
  6
STYLE_05
 62
              30
100
AcDbVertex
100
AcDb2dVertex
 10
-1489.9999463938918
 20
-1089.9999664659179
 30
0.0
  0
VERTEX
  5
341
100
AcDbEntity
  8
IMPORTED
  6
STYLE_05
 62
              30
100
AcDbVertex
100
AcDb2dVertex
 10
-1494.9999463938918
 20
-1084.9999664659181
 30
0.0
  0
VERTEX
  5
342
100
AcDbEntity
  8
IMPORTED
  6
STYLE_05
 62
              30
100
AcDbVertex
100
AcDb2dVertex
 10
-1494.9999463938918
 20
-714.99996646591808
 30
0.0
  0
SEQEND
  5
343
100
AcDbEntity
  8
IMPORTED
  6
STYLE_05
 62
              30
  0
LINE
  5
344
100
AcDbEntity
  8
IMPORTED
  6
STYLE_05
 62
              30
100
AcDbLine
 10
-1654.9999463938918
 20
-1084.9999664659181
 30
0.0
 11
-1604.9999463938918
 21
-1084.9999664659181
 31
0.0
  0
LINE
  5
345
100
AcDbEntity
  8
IMPORTED
  6
STYLE_05
 62
              30
100
AcDbLine
 10
-1494.9999463938918
 20
-1084.9999664659181
 30
0.0
 11
-1444.9999463938918
 21
-1084.9999664659181
 31
0.0
  0
POLYLINE
  5
346
100
AcDbEntity
  8
IMPORTED
  6
STYLE_05
 62
              30
100
AcDb2dPolyline
 66
               1
 10
0.0
 20
0.0
 30
0.0
 70
             129
  0
VERTEX
  5
347
100
AcDbEntity
  8
IMPORTED
  6
STYLE_05
 62
              30
100
AcDbVertex
100
AcDb2dVertex
 10
-1505.9999463938918
 20
-1001.9999664659181
 30
0.0
  0
VERTEX
  5
348
100
AcDbEntity
  8
IMPORTED
  6
STYLE_05
 62
              30
100
AcDbVertex
100
AcDb2dVertex
 10
-1505.9999463938918
 20
-1021.299966465918
 30
0.0
  0
VERTEX
  5
349
100
AcDbEntity
  8
IMPORTED
  6
STYLE_05
 62
              30
100
AcDbVertex
100
AcDb2dVertex
 10
-1593.9999463938918
 20
-1021.299966465918
 30
0.0
  0
VERTEX
  5
34A
100
AcDbEntity
  8
IMPORTED
  6
STYLE_05
 62
              30
100
AcDbVertex
100
AcDb2dVertex
 10
-1593.9999463938918
 20
-1001.9999664659181
 30
0.0
  0
VERTEX
  5
34B
100
AcDbEntity
  8
IMPORTED
  6
STYLE_05
 62
              30
100
AcDbVertex
100
AcDb2dVertex
 10
-1587.9999463938918
 20
-995.99996646591808
 30
0.0
  0
VERTEX
  5
34C
100
AcDbEntity
  8
IMPORTED
  6
STYLE_05
 62
              30
100
AcDbVertex
100
AcDb2dVertex
 10
-1511.9999463938918
 20
-995.99996646591808
 30
0.0
  0
SEQEND
  5
34D
100
AcDbEntity
  8
IMPORTED
  6
STYLE_05
 62
              30
  0
POLYLINE
  5
34E
100
AcDbEntity
  8
IMPORTED
  6
STYLE_05
 62
              30
100
AcDb2dPolyline
 66
               1
 10
0.0
 20
0.0
 30
0.0
 70
             129
  0
VERTEX
  5
34F
100
AcDbEntity
  8
IMPORTED
  6
STYLE_05
 62
              30
100
AcDbVertex
100
AcDb2dVertex
 10
-1505.9999463938918
 20
-1077.9999664659181
 30
0.0
  0
VERTEX
  5
350
100
AcDbEntity
  8
IMPORTED
  6
STYLE_05
 62
              30
100
AcDbVertex
100
AcDb2dVertex
 10
-1505.9999463938918
 20
-1058.6999664659179
 30
0.0
  0
VERTEX
  5
351
100
AcDbEntity
  8
IMPORTED
  6
STYLE_05
 62
              30
100
AcDbVertex
100
AcDb2dVertex
 10
-1593.9999463938918
 20
-1058.6999664659179
 30
0.0
  0
VERTEX
  5
352
100
AcDbEntity
  8
IMPORTED
  6
STYLE_05
 62
              30
100
AcDbVertex
100
AcDb2dVertex
 10
-1593.9999463938918
 20
-1077.9999664659181
 30
0.0
  0
VERTEX
  5
353
100
AcDbEntity
  8
IMPORTED
  6
STYLE_05
 62
              30
100
AcDbVertex
100
AcDb2dVertex
 10
-1587.9999463938918
 20
-1083.9999664659181
 30
0.0
  0
VERTEX
  5
354
100
AcDbEntity
  8
IMPORTED
  6
STYLE_05
 62
              30
100
AcDbVertex
100
AcDb2dVertex
 10
-1511.9999463938918
 20
-1083.9999664659181
 30
0.0
  0
SEQEND
  5
355
100
AcDbEntity
  8
IMPORTED
  6
STYLE_05
 62
              30
  0
POLYLINE
  5
356
100
AcDbEntity
  8
IMPORTED
  6
STYLE_05
 62
              30
100
AcDb2dPolyline
 66
               1
 10
0.0
 20
0.0
 30
0.0
 70
             129
  0
VERTEX
  5
357
100
AcDbEntity
  8
IMPORTED
  6
STYLE_05
 62
              30
100
AcDbVertex
100
AcDb2dVertex
 10
-1505.9999463938918
 20
-1027.299966465918
 30
0.0
  0
VERTEX
  5
358
100
AcDbEntity
  8
IMPORTED
  6
STYLE_05
 62
              30
100
AcDbVertex
100
AcDb2dVertex
 10
-1505.9999463938918
 20
-1052.6999664659179
 30
0.0
  0
VERTEX
  5
359
100
AcDbEntity
  8
IMPORTED
  6
STYLE_05
 62
              30
100
AcDbVertex
100
AcDb2dVertex
 10
-1593.9999463938918
 20
-1052.6999664659179
 30
0.0
  0
VERTEX
  5
35A
100
AcDbEntity
  8
IMPORTED
  6
STYLE_05
 62
              30
100
AcDbVertex
100
AcDb2dVertex
 10
-1593.9999463938918
 20
-1027.299966465918
 30
0.0
  0
SEQEND
  5
35B
100
AcDbEntity
  8
IMPORTED
  6
STYLE_05
 62
              30
  0
CIRCLE
  5
35C
100
AcDbEntity
  8
IMPORTED
  6
STYLE_05
 62
              30
100
AcDbCircle
 10
-1524.9999463938918
 20
-949.99996646591808
 30
0.0
 40
4.0
  0
POLYLINE
  5
35D
100
AcDbEntity
  8
IMPORTED
  6
STYLE_05
 62
              30
100
AcDb2dPolyline
 66
               1
 10
0.0
 20
0.0
 30
0.0
 70
             129
  0
VERTEX
  5
35E
100
AcDbEntity
  8
IMPORTED
  6
STYLE_05
 62
              30
100
AcDbVertex
100
AcDb2dVertex
 10
-1505.9999463938918
 20
-721.99996646591808
 30
0.0
  0
VERTEX
  5
35F
100
AcDbEntity
  8
IMPORTED
  6
STYLE_05
 62
              30
100
AcDbVertex
100
AcDb2dVertex
 10
-1505.9999463938918
 20
-741.29996646591815
 30
0.0
  0
VERTEX
  5
360
100
AcDbEntity
  8
IMPORTED
  6
STYLE_05
 62
              30
100
AcDbVertex
100
AcDb2dVertex
 10
-1593.9999463938918
 20
-741.29996646591815
 30
0.0
  0
VERTEX
  5
361
100
AcDbEntity
  8
IMPORTED
  6
STYLE_05
 62
              30
100
AcDbVertex
100
AcDb2dVertex
 10
-1593.9999463938918
 20
-721.99996646591808
 30
0.0
  0
VERTEX
  5
362
100
AcDbEntity
  8
IMPORTED
  6
STYLE_05
 62
              30
100
AcDbVertex
100
AcDb2dVertex
 10
-1587.9999463938918
 20
-715.99996646591808
 30
0.0
  0
VERTEX
  5
363
100
AcDbEntity
  8
IMPORTED
  6
STYLE_05
 62
              30
100
AcDbVertex
100
AcDb2dVertex
 10
-1511.9999463938918
 20
-715.99996646591808
 30
0.0
  0
SEQEND
  5
364
100
AcDbEntity
  8
IMPORTED
  6
STYLE_05
 62
              30
  0
POLYLINE
  5
365
100
AcDbEntity
  8
IMPORTED
  6
STYLE_05
 62
              30
100
AcDb2dPolyline
 66
               1
 10
0.0
 20
0.0
 30
0.0
 70
             129
  0
VERTEX
  5
366
100
AcDbEntity
  8
IMPORTED
  6
STYLE_05
 62
              30
100
AcDbVertex
100
AcDb2dVertex
 10
-1505.9999463938918
 20
-747.29996646591815
 30
0.0
  0
VERTEX
  5
367
100
AcDbEntity
  8
IMPORTED
  6
STYLE_05
 62
              30
100
AcDbVertex
100
AcDb2dVertex
 10
-1505.9999463938918
 20
-772.69996646591812
 30
0.0
  0
VERTEX
  5
368
100
AcDbEntity
  8
IMPORTED
  6
STYLE_05
 62
              30
100
AcDbVertex
100
AcDb2dVertex
 10
-1593.9999463938918
 20
-772.69996646591812
 30
0.0
  0
VERTEX
  5
369
100
AcDbEntity
  8
IMPORTED
  6
STYLE_05
 62
              30
100
AcDbVertex
100
AcDb2dVertex
 10
-1593.9999463938918
 20
-747.29996646591815
 30
0.0
  0
SEQEND
  5
36A
100
AcDbEntity
  8
IMPORTED
  6
STYLE_05
 62
              30
  0
POLYLINE
  5
36B
100
AcDbEntity
  8
IMPORTED
  6
STYLE_05
 62
              30
100
AcDb2dPolyline
 66
               1
 10
0.0
 20
0.0
 30
0.0
 70
             129
  0
VERTEX
  5
36C
100
AcDbEntity
  8
IMPORTED
  6
STYLE_05
 62
              30
100
AcDbVertex
100
AcDb2dVertex
 10
-1594.9999463938918
 20
-709.99996646591808
 30
0.0
  0
VERTEX
  5
36D
100
AcDbEntity
  8
IMPORTED
  6
STYLE_05
 62
              30
100
AcDbVertex
100
AcDb2dVertex
 10
-1504.9999463938918
 20
-709.99996646591808
 30
0.0
  0
VERTEX
  5
36E
100
AcDbEntity
  8
IMPORTED
  6
STYLE_05
 62
              30
100
AcDbVertex
100
AcDb2dVertex
 10
-1499.9999463938918
 20
-714.99996646591808
 30
0.0
  0
VERTEX
  5
36F
100
AcDbEntity
  8
IMPORTED
  6
STYLE_05
 62
              30
100
AcDbVertex
100
AcDb2dVertex
 10
-1499.9999463938918
 20
-804.99996646591808
 30
0.0
  0
VERTEX
  5
370
100
AcDbEntity
  8
IMPORTED
  6
STYLE_05
 62
              30
100
AcDbVertex
100
AcDb2dVertex
 10
-1504.9999463938918
 20
-809.99996646591808
 30
0.0
  0
VERTEX
  5
371
100
AcDbEntity
  8
IMPORTED
  6
STYLE_05
 62
              30
100
AcDbVertex
100
AcDb2dVertex
 10
-1594.9999463938918
 20
-809.99996646591808
 30
0.0
  0
VERTEX
  5
372
100
AcDbEntity
  8
IMPORTED
  6
STYLE_05
 62
              30
100
AcDbVertex
100
AcDb2dVertex
 10
-1599.9999463938918
 20
-804.99996646591808
 30
0.0
  0
VERTEX
  5
373
100
AcDbEntity
  8
IMPORTED
  6
STYLE_05
 62
              30
100
AcDbVertex
100
AcDb2dVertex
 10
-1599.9999463938918
 20
-714.99996646591808
 30
0.0
  0
SEQEND
  5
374
100
AcDbEntity
  8
IMPORTED
  6
STYLE_05
 62
              30
  0
POLYLINE
  5
375
100
AcDbEntity
  8
IMPORTED
  6
STYLE_05
 62
              30
100
AcDb2dPolyline
 66
               1
 10
0.0
 20
0.0
 30
0.0
 70
             129
  0
VERTEX
  5
376
100
AcDbEntity
  8
IMPORTED
  6
STYLE_05
 62
              30
100
AcDbVertex
100
AcDb2dVertex
 10
-1505.9999463938918
 20
-797.99996646591808
 30
0.0
  0
VERTEX
  5
377
100
AcDbEntity
  8
IMPORTED
  6
STYLE_05
 62
              30
100
AcDbVertex
100
AcDb2dVertex
 10
-1505.9999463938918
 20
-778.69996646591812
 30
0.0
  0
VERTEX
  5
378
100
AcDbEntity
  8
IMPORTED
  6
STYLE_05
 62
              30
100
AcDbVertex
100
AcDb2dVertex
 10
-1593.9999463938918
 20
-778.69996646591812
 30
0.0
  0
VERTEX
  5
379
100
AcDbEntity
  8
IMPORTED
  6
STYLE_05
 62
              30
100
AcDbVertex
100
AcDb2dVertex
 10
-1593.9999463938918
 20
-797.99996646591808
 30
0.0
  0
VERTEX
  5
37A
100
AcDbEntity
  8
IMPORTED
  6
STYLE_05
 62
              30
100
AcDbVertex
100
AcDb2dVertex
 10
-1587.9999463938918
 20
-803.99996646591808
 30
0.0
  0
VERTEX
  5
37B
100
AcDbEntity
  8
IMPORTED
  6
STYLE_05
 62
              30
100
AcDbVertex
100
AcDb2dVertex
 10
-1511.9999463938918
 20
-803.99996646591808
 30
0.0
  0
SEQEND
  5
37C
100
AcDbEntity
  8
IMPORTED
  6
STYLE_05
 62
              30
  0
CIRCLE
  5
37D
100
AcDbEntity
  8
IMPORTED
  6
STYLE_05
 62
              30
100
AcDbCircle
 10
-1574.9999463938918
 20
-849.99996646591808
 30
0.0
 40
4.0
  0
CIRCLE
  5
37E
100
AcDbEntity
  8
IMPORTED
  6
STYLE_05
 62
              30
100
AcDbCircle
 10
-1524.9999463938918
 20
-794.99996646591808
 30
0.0
 40
4.0
  0
CIRCLE
  5
37F
100
AcDbEntity
  8
IMPORTED
  6
STYLE_05
 62
              30
100
AcDbCircle
 10
-1574.9999463938918
 20
-731.99996646591808
 30
0.0
 40
4.0
  0
LINE
  5
380
100
AcDbEntity
  8
IMPORTED
  6
STYLE_05
 62
              30
100
AcDbLine
 10
-1654.9999463938918
 20
-714.99996646591808
 30
0.0
 11
-1604.9999463938918
 21
-714.99996646591808
 31
0.0
  0
LINE
  5
381
100
AcDbEntity
  8
IMPORTED
  6
STYLE_05
 62
              30
100
AcDbLine
 10
-1494.9999463938918
 20
-714.99996646591808
 30
0.0
 11
-1444.9999463938918
 21
-714.99996646591808
 31
0.0
  0
POLYLINE
  5
382
100
AcDbEntity
  8
IMPORTED
  6
STYLE_05
 62
              30
100
AcDb2dPolyline
 66
               1
 10
0.0
 20
0.0
 30
0.0
 70
             129
  0
VERTEX
  5
383
100
AcDbEntity
  8
IMPORTED
  6
STYLE_05
 62
              30
100
AcDbVertex
100
AcDb2dVertex
 10
-1649.9999463938918
 20
-709.99996646591808
 30
0.0
  0
VERTEX
  5
384
100
AcDbEntity
  8
IMPORTED
  6
STYLE_05
 62
              30
100
AcDbVertex
100
AcDb2dVertex
 10
-1609.9999463938918
 20
-709.99996646591808
 30
0.0
  0
VERTEX
  5
385
100
AcDbEntity
  8
IMPORTED
  6
STYLE_05
 62
              30
100
AcDbVertex
100
AcDb2dVertex
 10
-1604.9999463938918
 20
-714.99996646591808
 30
0.0
  0
VERTEX
  5
386
100
AcDbEntity
  8
IMPORTED
  6
STYLE_05
 62
              30
100
AcDbVertex
100
AcDb2dVertex
 10
-1604.9999463938918
 20
-1084.9999664659181
 30
0.0
  0
VERTEX
  5
387
100
AcDbEntity
  8
IMPORTED
  6
STYLE_05
 62
              30
100
AcDbVertex
100
AcDb2dVertex
 10
-1609.9999463938918
 20
-1089.9999664659179
 30
0.0
  0
VERTEX
  5
388
100
AcDbEntity
  8
IMPORTED
  6
STYLE_05
 62
              30
100
AcDbVertex
100
AcDb2dVertex
 10
-1649.9999463938918
 20
-1089.9999664659179
 30
0.0
  0
VERTEX
  5
389
100
AcDbEntity
  8
IMPORTED
  6
STYLE_05
 62
              30
100
AcDbVertex
100
AcDb2dVertex
 10
-1654.9999463938918
 20
-1084.9999664659181
 30
0.0
  0
VERTEX
  5
38A
100
AcDbEntity
  8
IMPORTED
  6
STYLE_05
 62
              30
100
AcDbVertex
100
AcDb2dVertex
 10
-1654.9999463938918
 20
-714.99996646591808
 30
0.0
  0
SEQEND
  5
38B
100
AcDbEntity
  8
IMPORTED
  6
STYLE_05
 62
              30
  0
CIRCLE
  5
38C
100
AcDbEntity
  8
IMPORTED
  6
STYLE_05
 62
              30
100
AcDbCircle
 10
-1524.9999463938918
 20
-1067.9999664659181
 30
0.0
 40
4.0
  0
CIRCLE
  5
38D
100
AcDbEntity
  8
IMPORTED
  6
STYLE_05
 62
              30
100
AcDbCircle
 10
-1574.9999463938918
 20
-1004.9999664659181
 30
0.0
 40
4.0
  0
POLYLINE
  5
38E
100
AcDbEntity
  8
IMPORTED
  6
STYLE_05
 62
              30
100
AcDb2dPolyline
 66
               1
 10
0.0
 20
0.0
 30
0.0
 70
               1
 75
               5
  0
VERTEX
  5
38F
100
AcDbEntity
  8
IMPORTED
  6
STYLE_05
 62
              30
100
AcDbVertex
100
AcDb2dVertex
 10
-1604.9999463938918
 20
-719.99996646591808
 30
0.0
  0
VERTEX
  5
390
100
AcDbEntity
  8
IMPORTED
  6
STYLE_05
 62
              30
100
AcDbVertex
100
AcDb2dVertex
 10
-1494.9999463938918
 20
-719.99996646591808
 30
0.0
  0
VERTEX
  5
391
100
AcDbEntity
  8
IMPORTED
  6
STYLE_05
 62
              30
100
AcDbVertex
100
AcDb2dVertex
 10
-1494.9999463938918
 20
-1079.9999664659181
 30
0.0
  0
VERTEX
  5
392
100
AcDbEntity
  8
IMPORTED
  6
STYLE_05
 62
              30
100
AcDbVertex
100
AcDb2dVertex
 10
-1604.9999463938918
 20
-1079.9999664659181
 30
0.0
  0
SEQEND
  5
393
100
AcDbEntity
  8
IMPORTED
  6
STYLE_05
 62
              30
  0
LINE
  5
395
100
AcDbEntity
  8
IMPORTED
  6
STYLE_05
 62
              30
100
AcDbLine
 10
-1599.9999463938918
 20
-719.99996646591808
 30
0.0
 11
-1599.9999463938918
 21
-1079.9999664659181
 31
0.0
  0
LINE
  5
396
100
AcDbEntity
  8
IMPORTED
  6
STYLE_05
 62
              30
100
AcDbLine
 10
-1499.9999463938918
 20
-1079.9999664659181
 30
0.0
 11
-1499.9999463938918
 21
-719.99996646591808
 31
0.0
  0
POLYLINE
  5
397
100
AcDbEntity
  8
IMPORTED
  6
STYLE_05
 62
              30
100
AcDb2dPolyline
 66
               1
 10
0.0
 20
0.0
 30
0.0
 70
             129
  0
VERTEX
  5
398
100
AcDbEntity
  8
IMPORTED
  6
STYLE_05
 62
              30
100
AcDbVertex
100
AcDb2dVertex
 10
-1654.9999463938918
 20
-798.99996646591808
 30
0.0
  0
VERTEX
  5
399
100
AcDbEntity
  8
IMPORTED
  6
STYLE_05
 62
              30
100
AcDbVertex
100
AcDb2dVertex
 10
-1444.9999463938918
 20
-798.99996646591808
 30
0.0
  0
VERTEX
  5
39A
100
AcDbEntity
  8
IMPORTED
  6
STYLE_05
 62
              30
100
AcDbVertex
100
AcDb2dVertex
 10
-1444.9999463938918
 20
-790.99996646591808
 30
0.0
  0
VERTEX
  5
39B
100
AcDbEntity
  8
IMPORTED
  6
STYLE_05
 62
              30
100
AcDbVertex
100
AcDb2dVertex
 10
-1654.9999463938918
 20
-790.99996646591808
 30
0.0
  0
SEQEND
  5
39C
100
AcDbEntity
  8
IMPORTED
  6
STYLE_05
 62
              30
  0
POLYLINE
  5
39D
100
AcDbEntity
  8
IMPORTED
  6
STYLE_05
 62
              30
100
AcDb2dPolyline
 66
               1
 10
0.0
 20
0.0
 30
0.0
 70
             129
  0
VERTEX
  5
39E
100
AcDbEntity
  8
IMPORTED
  6
STYLE_05
 62
              30
100
AcDbVertex
100
AcDb2dVertex
 10
-1444.9999463938918
 20
-802.99996646591808
 30
0.0
  0
VERTEX
  5
39F
100
AcDbEntity
  8
IMPORTED
  6
STYLE_05
 62
              30
100
AcDbVertex
100
AcDb2dVertex
 10
-1442.9999463938918
 20
-802.99996646591808
 30
0.0
  0
VERTEX
  5
3A0
100
AcDbEntity
  8
IMPORTED
  6
STYLE_05
 62
              30
100
AcDbVertex
100
AcDb2dVertex
 10
-1442.9999463938918
 20
-786.99996646591808
 30
0.0
  0
VERTEX
  5
3A1
100
AcDbEntity
  8
IMPORTED
  6
STYLE_05
 62
              30
100
AcDbVertex
100
AcDb2dVertex
 10
-1444.9999463938918
 20
-786.99996646591808
 30
0.0
  0
SEQEND
  5
3A2
100
AcDbEntity
  8
IMPORTED
  6
STYLE_05
 62
              30
  0
LINE
  5
3A3
100
AcDbEntity
  8
IMPORTED
  6
STYLE_05
 62
              30
100
AcDbLine
 10
-1436.2499463938918
 20
-800.74996646591808
 30
0.0
 11
-1436.4999463938918
 21
-800.74996646591808
 31
0.0
  0
LINE
  5
3A4
100
AcDbEntity
  8
IMPORTED
  6
STYLE_05
 62
              30
100
AcDbLine
 10
-1436.2499463938918
 20
-789.24996646591808
 30
0.0
 11
-1436.4999463938918
 21
-789.24996646591808
 31
0.0
  0
LINE
  5
3A5
100
AcDbEntity
  8
IMPORTED
  6
STYLE_05
 62
              30
100
AcDbLine
 10
-1436.4999463938918
 20
-800.74996646591808
 30
0.0
 11
-1436.4999463938918
 21
-789.24996646591808
 31
0.0
  0
ARC
  5
3A6
100
AcDbEntity
  8
IMPORTED
  6
STYLE_05
 62
              30
100
AcDbCircle
 10
-1436.2499463938918
 20
-794.99996646591808
 30
0.0
 40
5.75
100
AcDbArc
 50
270.0
 51
90.0
  0
LINE
  5
3A7
100
AcDbEntity
  8
IMPORTED
  6
STYLE_05
 62
              30
100
AcDbLine
 10
-1437.5103463938917
 20
-802.49996646591808
 30
0.0
 11
-1441.9895463938917
 21
-802.49996646591808
 31
0.0
  0
LINE
  5
3A8
100
AcDbEntity
  8
IMPORTED
  6
STYLE_05
 62
              30
100
AcDbLine
 10
-1442.9999463938918
 20
-800.74996646591808
 30
0.0
 11
-1441.9895463938917
 21
-802.49996646591808
 31
0.0
  0
LINE
  5
3A9
100
AcDbEntity
  8
IMPORTED
  6
STYLE_05
 62
              30
100
AcDbLine
 10
-1437.5103463938917
 20
-787.49996646591808
 30
0.0
 11
-1441.9895463938917
 21
-787.49996646591808
 31
0.0
  0
LINE
  5
3AA
100
AcDbEntity
  8
IMPORTED
  6
STYLE_05
 62
              30
100
AcDbLine
 10
-1442.9999463938918
 20
-789.24996646591808
 30
0.0
 11
-1441.9895463938917
 21
-787.49996646591808
 31
0.0
  0
LINE
  5
3AB
100
AcDbEntity
  8
IMPORTED
  6
STYLE_05
 62
              30
100
AcDbLine
 10
-1442.9999463938918
 20
-800.74996646591808
 30
0.0
 11
-1442.9999463938918
 21
-789.24996646591808
 31
0.0
  0
LINE
  5
3AC
100
AcDbEntity
  8
IMPORTED
  6
STYLE_05
 62
              30
100
AcDbLine
 10
-1436.4999463938918
 20
-800.74996646591808
 30
0.0
 11
-1437.5103463938917
 21
-802.49996646591808
 31
0.0
  0
LINE
  5
3AD
100
AcDbEntity
  8
IMPORTED
  6
STYLE_05
 62
              30
100
AcDbLine
 10
-1436.4999463938918
 20
-798.74156646591814
 30
0.0
 11
-1442.9999463938918
 21
-798.74156646591814
 31
0.0
  0
LINE
  5
3AE
100
AcDbEntity
  8
IMPORTED
  6
STYLE_05
 62
              30
100
AcDbLine
 10
-1436.4999463938918
 20
-789.24996646591808
 30
0.0
 11
-1437.5103463938917
 21
-787.49996646591808
 31
0.0
  0
LINE
  5
3AF
100
AcDbEntity
  8
IMPORTED
  6
STYLE_05
 62
              30
100
AcDbLine
 10
-1436.4999463938918
 20
-791.25826646591815
 30
0.0
 11
-1442.9999463938918
 21
-791.25826646591815
 31
0.0
  0
POLYLINE
  5
3B0
100
AcDbEntity
  8
IMPORTED
  6
STYLE_05
 62
              30
100
AcDb2dPolyline
 66
               1
 10
0.0
 20
0.0
 30
0.0
 70
             129
  0
VERTEX
  5
3B1
100
AcDbEntity
  8
IMPORTED
  6
STYLE_05
 62
              30
100
AcDbVertex
100
AcDb2dVertex
 10
-1654.9999463938918
 20
-802.99996646591808
 30
0.0
  0
VERTEX
  5
3B2
100
AcDbEntity
  8
IMPORTED
  6
STYLE_05
 62
              30
100
AcDbVertex
100
AcDb2dVertex
 10
-1656.9999463938918
 20
-802.99996646591808
 30
0.0
  0
VERTEX
  5
3B3
100
AcDbEntity
  8
IMPORTED
  6
STYLE_05
 62
              30
100
AcDbVertex
100
AcDb2dVertex
 10
-1656.9999463938918
 20
-786.99996646591808
 30
0.0
  0
VERTEX
  5
3B4
100
AcDbEntity
  8
IMPORTED
  6
STYLE_05
 62
              30
100
AcDbVertex
100
AcDb2dVertex
 10
-1654.9999463938918
 20
-786.99996646591808
 30
0.0
  0
SEQEND
  5
3B5
100
AcDbEntity
  8
IMPORTED
  6
STYLE_05
 62
              30
  0
LINE
  5
3B6
100
AcDbEntity
  8
IMPORTED
  6
STYLE_05
 62
              30
100
AcDbLine
 10
-1663.7499463938918
 20
-800.74996646591808
 30
0.0
 11
-1663.4999463938918
 21
-800.74996646591808
 31
0.0
  0
LINE
  5
3B7
100
AcDbEntity
  8
IMPORTED
  6
STYLE_05
 62
              30
100
AcDbLine
 10
-1663.7499463938918
 20
-789.24996646591808
 30
0.0
 11
-1663.4999463938918
 21
-789.24996646591808
 31
0.0
  0
LINE
  5
3B8
100
AcDbEntity
  8
IMPORTED
  6
STYLE_05
 62
              30
100
AcDbLine
 10
-1663.4999463938918
 20
-800.74996646591808
 30
0.0
 11
-1663.4999463938918
 21
-789.24996646591808
 31
0.0
  0
ARC
  5
3B9
100
AcDbEntity
  8
IMPORTED
  6
STYLE_05
 62
              30
100
AcDbCircle
 10
-1663.7499463938918
 20
-794.99996646591808
 30
0.0
 40
5.75
100
AcDbArc
 50
90.0
 51
270.0
  0
LINE
  5
3BA
100
AcDbEntity
  8
IMPORTED
  6
STYLE_05
 62
              30
100
AcDbLine
 10
-1662.4895463938917
 20
-802.49996646591808
 30
0.0
 11
-1658.0103463938917
 21
-802.49996646591808
 31
0.0
  0
LINE
  5
3BB
100
AcDbEntity
  8
IMPORTED
  6
STYLE_05
 62
              30
100
AcDbLine
 10
-1656.9999463938918
 20
-800.74996646591808
 30
0.0
 11
-1658.0103463938917
 21
-802.49996646591808
 31
0.0
  0
LINE
  5
3BC
100
AcDbEntity
  8
IMPORTED
  6
STYLE_05
 62
              30
100
AcDbLine
 10
-1662.4895463938917
 20
-787.49996646591808
 30
0.0
 11
-1658.0103463938917
 21
-787.49996646591808
 31
0.0
  0
LINE
  5
3BD
100
AcDbEntity
  8
IMPORTED
  6
STYLE_05
 62
              30
100
AcDbLine
 10
-1656.9999463938918
 20
-789.24996646591808
 30
0.0
 11
-1658.0103463938917
 21
-787.49996646591808
 31
0.0
  0
LINE
  5
3BE
100
AcDbEntity
  8
IMPORTED
  6
STYLE_05
 62
              30
100
AcDbLine
 10
-1656.9999463938918
 20
-800.74996646591808
 30
0.0
 11
-1656.9999463938918
 21
-789.24996646591808
 31
0.0
  0
LINE
  5
3BF
100
AcDbEntity
  8
IMPORTED
  6
STYLE_05
 62
              30
100
AcDbLine
 10
-1663.4999463938918
 20
-800.74996646591808
 30
0.0
 11
-1662.4895463938917
 21
-802.49996646591808
 31
0.0
  0
LINE
  5
3C0
100
AcDbEntity
  8
IMPORTED
  6
STYLE_05
 62
              30
100
AcDbLine
 10
-1663.4999463938918
 20
-798.74156646591814
 30
0.0
 11
-1656.9999463938918
 21
-798.74156646591814
 31
0.0
  0
LINE
  5
3C1
100
AcDbEntity
  8
IMPORTED
  6
STYLE_05
 62
              30
100
AcDbLine
 10
-1663.4999463938918
 20
-789.24996646591808
 30
0.0
 11
-1662.4895463938917
 21
-787.49996646591808
 31
0.0
  0
LINE
  5
3C2
100
AcDbEntity
  8
IMPORTED
  6
STYLE_05
 62
              30
100
AcDbLine
 10
-1663.4999463938918
 20
-791.25826646591815
 30
0.0
 11
-1656.9999463938918
 21
-791.25826646591815
 31
0.0
  0
POLYLINE
  5
3C3
100
AcDbEntity
  8
IMPORTED
  6
STYLE_05
 62
              30
100
AcDb2dPolyline
 66
               1
 10
0.0
 20
0.0
 30
0.0
 70
             129
  0
VERTEX
  5
3C4
100
AcDbEntity
  8
IMPORTED
  6
STYLE_05
 62
              30
100
AcDbVertex
100
AcDb2dVertex
 10
-1654.9999463938918
 20
-730.99996646591808
 30
0.0
  0
VERTEX
  5
3C5
100
AcDbEntity
  8
IMPORTED
  6
STYLE_05
 62
              30
100
AcDbVertex
100
AcDb2dVertex
 10
-1444.9999463938918
 20
-730.99996646591808
 30
0.0
  0
VERTEX
  5
3C6
100
AcDbEntity
  8
IMPORTED
  6
STYLE_05
 62
              30
100
AcDbVertex
100
AcDb2dVertex
 10
-1444.9999463938918
 20
-738.99996646591808
 30
0.0
  0
VERTEX
  5
3C7
100
AcDbEntity
  8
IMPORTED
  6
STYLE_05
 62
              30
100
AcDbVertex
100
AcDb2dVertex
 10
-1654.9999463938918
 20
-738.99996646591808
 30
0.0
  0
SEQEND
  5
3C8
100
AcDbEntity
  8
IMPORTED
  6
STYLE_05
 62
              30
  0
POLYLINE
  5
3C9
100
AcDbEntity
  8
IMPORTED
  6
STYLE_05
 62
              30
100
AcDb2dPolyline
 66
               1
 10
0.0
 20
0.0
 30
0.0
 70
             129
  0
VERTEX
  5
3CA
100
AcDbEntity
  8
IMPORTED
  6
STYLE_05
 62
              30
100
AcDbVertex
100
AcDb2dVertex
 10
-1444.9999463938918
 20
-726.99996646591808
 30
0.0
  0
VERTEX
  5
3CB
100
AcDbEntity
  8
IMPORTED
  6
STYLE_05
 62
              30
100
AcDbVertex
100
AcDb2dVertex
 10
-1442.9999463938918
 20
-726.99996646591808
 30
0.0
  0
VERTEX
  5
3CC
100
AcDbEntity
  8
IMPORTED
  6
STYLE_05
 62
              30
100
AcDbVertex
100
AcDb2dVertex
 10
-1442.9999463938918
 20
-742.99996646591808
 30
0.0
  0
VERTEX
  5
3CD
100
AcDbEntity
  8
IMPORTED
  6
STYLE_05
 62
              30
100
AcDbVertex
100
AcDb2dVertex
 10
-1444.9999463938918
 20
-742.99996646591808
 30
0.0
  0
SEQEND
  5
3CE
100
AcDbEntity
  8
IMPORTED
  6
STYLE_05
 62
              30
  0
LINE
  5
3CF
100
AcDbEntity
  8
IMPORTED
  6
STYLE_05
 62
              30
100
AcDbLine
 10
-1436.2499463938918
 20
-729.24996646591808
 30
0.0
 11
-1436.4999463938918
 21
-729.24996646591808
 31
0.0
  0
LINE
  5
3D0
100
AcDbEntity
  8
IMPORTED
  6
STYLE_05
 62
              30
100
AcDbLine
 10
-1436.2499463938918
 20
-740.74996646591808
 30
0.0
 11
-1436.4999463938918
 21
-740.74996646591808
 31
0.0
  0
LINE
  5
3D1
100
AcDbEntity
  8
IMPORTED
  6
STYLE_05
 62
              30
100
AcDbLine
 10
-1436.4999463938918
 20
-729.24996646591808
 30
0.0
 11
-1436.4999463938918
 21
-740.74996646591808
 31
0.0
  0
ARC
  5
3D2
100
AcDbEntity
  8
IMPORTED
  6
STYLE_05
 62
              30
100
AcDbCircle
 10
-1436.2499463938918
 20
-734.99996646591808
 30
0.0
 40
5.75
100
AcDbArc
 50
270.0
 51
90.0
  0
LINE
  5
3D3
100
AcDbEntity
  8
IMPORTED
  6
STYLE_05
 62
              30
100
AcDbLine
 10
-1437.5103463938917
 20
-727.49996646591808
 30
0.0
 11
-1441.9895463938917
 21
-727.49996646591808
 31
0.0
  0
LINE
  5
3D4
100
AcDbEntity
  8
IMPORTED
  6
STYLE_05
 62
              30
100
AcDbLine
 10
-1442.9999463938918
 20
-729.24996646591808
 30
0.0
 11
-1441.9895463938917
 21
-727.49996646591808
 31
0.0
  0
LINE
  5
3D5
100
AcDbEntity
  8
IMPORTED
  6
STYLE_05
 62
              30
100
AcDbLine
 10
-1437.5103463938917
 20
-742.49996646591808
 30
0.0
 11
-1441.9895463938917
 21
-742.49996646591808
 31
0.0
  0
LINE
  5
3D6
100
AcDbEntity
  8
IMPORTED
  6
STYLE_05
 62
              30
100
AcDbLine
 10
-1442.9999463938918
 20
-740.74996646591808
 30
0.0
 11
-1441.9895463938917
 21
-742.49996646591808
 31
0.0
  0
LINE
  5
3D7
100
AcDbEntity
  8
IMPORTED
  6
STYLE_05
 62
              30
100
AcDbLine
 10
-1442.9999463938918
 20
-729.24996646591808
 30
0.0
 11
-1442.9999463938918
 21
-740.74996646591808
 31
0.0
  0
LINE
  5
3D8
100
AcDbEntity
  8
IMPORTED
  6
STYLE_05
 62
              30
100
AcDbLine
 10
-1436.4999463938918
 20
-729.24996646591808
 30
0.0
 11
-1437.5103463938917
 21
-727.49996646591808
 31
0.0
  0
LINE
  5
3D9
100
AcDbEntity
  8
IMPORTED
  6
STYLE_05
 62
              30
100
AcDbLine
 10
-1436.4999463938918
 20
-731.25836646591813
 30
0.0
 11
-1442.9999463938918
 21
-731.25836646591813
 31
0.0
  0
LINE
  5
3DA
100
AcDbEntity
  8
IMPORTED
  6
STYLE_05
 62
              30
100
AcDbLine
 10
-1436.4999463938918
 20
-740.74996646591808
 30
0.0
 11
-1437.5103463938917
 21
-742.49996646591808
 31
0.0
  0
LINE
  5
3DB
100
AcDbEntity
  8
IMPORTED
  6
STYLE_05
 62
              30
100
AcDbLine
 10
-1436.4999463938918
 20
-738.74166646591812
 30
0.0
 11
-1442.9999463938918
 21
-738.74166646591812
 31
0.0
  0
POLYLINE
  5
3DC
100
AcDbEntity
  8
IMPORTED
  6
STYLE_05
 62
              30
100
AcDb2dPolyline
 66
               1
 10
0.0
 20
0.0
 30
0.0
 70
             129
  0
VERTEX
  5
3DD
100
AcDbEntity
  8
IMPORTED
  6
STYLE_05
 62
              30
100
AcDbVertex
100
AcDb2dVertex
 10
-1654.9999463938918
 20
-726.99996646591808
 30
0.0
  0
VERTEX
  5
3DE
100
AcDbEntity
  8
IMPORTED
  6
STYLE_05
 62
              30
100
AcDbVertex
100
AcDb2dVertex
 10
-1656.9999463938918
 20
-726.99996646591808
 30
0.0
  0
VERTEX
  5
3DF
100
AcDbEntity
  8
IMPORTED
  6
STYLE_05
 62
              30
100
AcDbVertex
100
AcDb2dVertex
 10
-1656.9999463938918
 20
-742.99996646591808
 30
0.0
  0
VERTEX
  5
3E0
100
AcDbEntity
  8
IMPORTED
  6
STYLE_05
 62
              30
100
AcDbVertex
100
AcDb2dVertex
 10
-1654.9999463938918
 20
-742.99996646591808
 30
0.0
  0
SEQEND
  5
3E1
100
AcDbEntity
  8
IMPORTED
  6
STYLE_05
 62
              30
  0
LINE
  5
3E2
100
AcDbEntity
  8
IMPORTED
  6
STYLE_05
 62
              30
100
AcDbLine
 10
-1663.7499463938918
 20
-729.24996646591808
 30
0.0
 11
-1663.4999463938918
 21
-729.24996646591808
 31
0.0
  0
LINE
  5
3E3
100
AcDbEntity
  8
IMPORTED
  6
STYLE_05
 62
              30
100
AcDbLine
 10
-1663.7499463938918
 20
-740.74996646591808
 30
0.0
 11
-1663.4999463938918
 21
-740.74996646591808
 31
0.0
  0
LINE
  5
3E4
100
AcDbEntity
  8
IMPORTED
  6
STYLE_05
 62
              30
100
AcDbLine
 10
-1663.4999463938918
 20
-729.24996646591808
 30
0.0
 11
-1663.4999463938918
 21
-740.74996646591808
 31
0.0
  0
ARC
  5
3E5
100
AcDbEntity
  8
IMPORTED
  6
STYLE_05
 62
              30
100
AcDbCircle
 10
-1663.7499463938918
 20
-734.99996646591808
 30
0.0
 40
5.75
100
AcDbArc
 50
90.0
 51
270.0
  0
LINE
  5
3E6
100
AcDbEntity
  8
IMPORTED
  6
STYLE_05
 62
              30
100
AcDbLine
 10
-1662.4895463938917
 20
-727.49996646591808
 30
0.0
 11
-1658.0103463938917
 21
-727.49996646591808
 31
0.0
  0
LINE
  5
3E7
100
AcDbEntity
  8
IMPORTED
  6
STYLE_05
 62
              30
100
AcDbLine
 10
-1656.9999463938918
 20
-729.24996646591808
 30
0.0
 11
-1658.0103463938917
 21
-727.49996646591808
 31
0.0
  0
LINE
  5
3E8
100
AcDbEntity
  8
IMPORTED
  6
STYLE_05
 62
              30
100
AcDbLine
 10
-1662.4895463938917
 20
-742.49996646591808
 30
0.0
 11
-1658.0103463938917
 21
-742.49996646591808
 31
0.0
  0
LINE
  5
3E9
100
AcDbEntity
  8
IMPORTED
  6
STYLE_05
 62
              30
100
AcDbLine
 10
-1656.9999463938918
 20
-740.74996646591808
 30
0.0
 11
-1658.0103463938917
 21
-742.49996646591808
 31
0.0
  0
LINE
  5
3EA
100
AcDbEntity
  8
IMPORTED
  6
STYLE_05
 62
              30
100
AcDbLine
 10
-1656.9999463938918
 20
-729.24996646591808
 30
0.0
 11
-1656.9999463938918
 21
-740.74996646591808
 31
0.0
  0
LINE
  5
3EB
100
AcDbEntity
  8
IMPORTED
  6
STYLE_05
 62
              30
100
AcDbLine
 10
-1663.4999463938918
 20
-729.24996646591808
 30
0.0
 11
-1662.4895463938917
 21
-727.49996646591808
 31
0.0
  0
LINE
  5
3EC
100
AcDbEntity
  8
IMPORTED
  6
STYLE_05
 62
              30
100
AcDbLine
 10
-1663.4999463938918
 20
-731.25836646591813
 30
0.0
 11
-1656.9999463938918
 21
-731.25836646591813
 31
0.0
  0
LINE
  5
3ED
100
AcDbEntity
  8
IMPORTED
  6
STYLE_05
 62
              30
100
AcDbLine
 10
-1663.4999463938918
 20
-740.74996646591808
 30
0.0
 11
-1662.4895463938917
 21
-742.49996646591808
 31
0.0
  0
LINE
  5
3EE
100
AcDbEntity
  8
IMPORTED
  6
STYLE_05
 62
              30
100
AcDbLine
 10
-1663.4999463938918
 20
-738.74166646591812
 30
0.0
 11
-1656.9999463938918
 21
-738.74166646591812
 31
0.0
  0
POLYLINE
  5
3EF
100
AcDbEntity
  8
IMPORTED
  6
STYLE_05
 62
              30
100
AcDb2dPolyline
 66
               1
 10
0.0
 20
0.0
 30
0.0
 70
             129
  0
VERTEX
  5
3F0
100
AcDbEntity
  8
IMPORTED
  6
STYLE_05
 62
              30
100
AcDbVertex
100
AcDb2dVertex
 10
-1654.9999463938918
 20
-1000.9999664659181
 30
0.0
  0
VERTEX
  5
3F1
100
AcDbEntity
  8
IMPORTED
  6
STYLE_05
 62
              30
100
AcDbVertex
100
AcDb2dVertex
 10
-1444.9999463938918
 20
-1000.9999664659181
 30
0.0
  0
VERTEX
  5
3F2
100
AcDbEntity
  8
IMPORTED
  6
STYLE_05
 62
              30
100
AcDbVertex
100
AcDb2dVertex
 10
-1444.9999463938918
 20
-1008.9999664659181
 30
0.0
  0
VERTEX
  5
3F3
100
AcDbEntity
  8
IMPORTED
  6
STYLE_05
 62
              30
100
AcDbVertex
100
AcDb2dVertex
 10
-1654.9999463938918
 20
-1008.9999664659181
 30
0.0
  0
SEQEND
  5
3F4
100
AcDbEntity
  8
IMPORTED
  6
STYLE_05
 62
              30
  0
POLYLINE
  5
3F5
100
AcDbEntity
  8
IMPORTED
  6
STYLE_05
 62
              30
100
AcDb2dPolyline
 66
               1
 10
0.0
 20
0.0
 30
0.0
 70
             129
  0
VERTEX
  5
3F6
100
AcDbEntity
  8
IMPORTED
  6
STYLE_05
 62
              30
100
AcDbVertex
100
AcDb2dVertex
 10
-1444.9999463938918
 20
-996.99996646591808
 30
0.0
  0
VERTEX
  5
3F7
100
AcDbEntity
  8
IMPORTED
  6
STYLE_05
 62
              30
100
AcDbVertex
100
AcDb2dVertex
 10
-1442.9999463938918
 20
-996.99996646591808
 30
0.0
  0
VERTEX
  5
3F8
100
AcDbEntity
  8
IMPORTED
  6
STYLE_05
 62
              30
100
AcDbVertex
100
AcDb2dVertex
 10
-1442.9999463938918
 20
-1012.9999664659181
 30
0.0
  0
VERTEX
  5
3F9
100
AcDbEntity
  8
IMPORTED
  6
STYLE_05
 62
              30
100
AcDbVertex
100
AcDb2dVertex
 10
-1444.9999463938918
 20
-1012.9999664659181
 30
0.0
  0
SEQEND
  5
3FA
100
AcDbEntity
  8
IMPORTED
  6
STYLE_05
 62
              30
  0
LINE
  5
3FB
100
AcDbEntity
  8
IMPORTED
  6
STYLE_05
 62
              30
100
AcDbLine
 10
-1436.2499463938918
 20
-999.24996646591808
 30
0.0
 11
-1436.4999463938918
 21
-999.24996646591808
 31
0.0
  0
LINE
  5
3FC
100
AcDbEntity
  8
IMPORTED
  6
STYLE_05
 62
              30
100
AcDbLine
 10
-1436.2499463938918
 20
-1010.7499664659181
 30
0.0
 11
-1436.4999463938918
 21
-1010.7499664659181
 31
0.0
  0
LINE
  5
3FD
100
AcDbEntity
  8
IMPORTED
  6
STYLE_05
 62
              30
100
AcDbLine
 10
-1436.4999463938918
 20
-999.24996646591808
 30
0.0
 11
-1436.4999463938918
 21
-1010.7499664659181
 31
0.0
  0
ARC
  5
3FE
100
AcDbEntity
  8
IMPORTED
  6
STYLE_05
 62
              30
100
AcDbCircle
 10
-1436.2499463938918
 20
-1004.9999664659181
 30
0.0
 40
5.75
100
AcDbArc
 50
270.0
 51
90.0
  0
LINE
  5
3FF
100
AcDbEntity
  8
IMPORTED
  6
STYLE_05
 62
              30
100
AcDbLine
 10
-1437.5103463938917
 20
-997.49996646591808
 30
0.0
 11
-1441.9895463938917
 21
-997.49996646591808
 31
0.0
  0
LINE
  5
400
100
AcDbEntity
  8
IMPORTED
  6
STYLE_05
 62
              30
100
AcDbLine
 10
-1442.9999463938918
 20
-999.24996646591808
 30
0.0
 11
-1441.9895463938917
 21
-997.49996646591808
 31
0.0
  0
LINE
  5
401
100
AcDbEntity
  8
IMPORTED
  6
STYLE_05
 62
              30
100
AcDbLine
 10
-1437.5103463938917
 20
-1012.4999664659181
 30
0.0
 11
-1441.9895463938917
 21
-1012.4999664659181
 31
0.0
  0
LINE
  5
402
100
AcDbEntity
  8
IMPORTED
  6
STYLE_05
 62
              30
100
AcDbLine
 10
-1442.9999463938918
 20
-1010.7499664659181
 30
0.0
 11
-1441.9895463938917
 21
-1012.4999664659181
 31
0.0
  0
LINE
  5
403
100
AcDbEntity
  8
IMPORTED
  6
STYLE_05
 62
              30
100
AcDbLine
 10
-1442.9999463938918
 20
-999.24996646591808
 30
0.0
 11
-1442.9999463938918
 21
-1010.7499664659181
 31
0.0
  0
LINE
  5
404
100
AcDbEntity
  8
IMPORTED
  6
STYLE_05
 62
              30
100
AcDbLine
 10
-1436.4999463938918
 20
-999.24996646591808
 30
0.0
 11
-1437.5103463938917
 21
-997.49996646591808
 31
0.0
  0
LINE
  5
405
100
AcDbEntity
  8
IMPORTED
  6
STYLE_05
 62
              30
100
AcDbLine
 10
-1436.4999463938918
 20
-1001.2583664659181
 30
0.0
 11
-1442.9999463938918
 21
-1001.2583664659181
 31
0.0
  0
LINE
  5
406
100
AcDbEntity
  8
IMPORTED
  6
STYLE_05
 62
              30
100
AcDbLine
 10
-1436.4999463938918
 20
-1010.7499664659181
 30
0.0
 11
-1437.5103463938917
 21
-1012.4999664659181
 31
0.0
  0
LINE
  5
407
100
AcDbEntity
  8
IMPORTED
  6
STYLE_05
 62
              30
100
AcDbLine
 10
-1436.4999463938918
 20
-1008.7416664659181
 30
0.0
 11
-1442.9999463938918
 21
-1008.7416664659181
 31
0.0
  0
POLYLINE
  5
408
100
AcDbEntity
  8
IMPORTED
  6
STYLE_05
 62
              30
100
AcDb2dPolyline
 66
               1
 10
0.0
 20
0.0
 30
0.0
 70
             129
  0
VERTEX
  5
409
100
AcDbEntity
  8
IMPORTED
  6
STYLE_05
 62
              30
100
AcDbVertex
100
AcDb2dVertex
 10
-1654.9999463938918
 20
-996.99996646591808
 30
0.0
  0
VERTEX
  5
40A
100
AcDbEntity
  8
IMPORTED
  6
STYLE_05
 62
              30
100
AcDbVertex
100
AcDb2dVertex
 10
-1656.9999463938918
 20
-996.99996646591808
 30
0.0
  0
VERTEX
  5
40B
100
AcDbEntity
  8
IMPORTED
  6
STYLE_05
 62
              30
100
AcDbVertex
100
AcDb2dVertex
 10
-1656.9999463938918
 20
-1012.9999664659181
 30
0.0
  0
VERTEX
  5
40C
100
AcDbEntity
  8
IMPORTED
  6
STYLE_05
 62
              30
100
AcDbVertex
100
AcDb2dVertex
 10
-1654.9999463938918
 20
-1012.9999664659181
 30
0.0
  0
SEQEND
  5
40D
100
AcDbEntity
  8
IMPORTED
  6
STYLE_05
 62
              30
  0
LINE
  5
40E
100
AcDbEntity
  8
IMPORTED
  6
STYLE_05
 62
              30
100
AcDbLine
 10
-1663.7499463938918
 20
-999.24996646591808
 30
0.0
 11
-1663.4999463938918
 21
-999.24996646591808
 31
0.0
  0
LINE
  5
40F
100
AcDbEntity
  8
IMPORTED
  6
STYLE_05
 62
              30
100
AcDbLine
 10
-1663.7499463938918
 20
-1010.7499664659181
 30
0.0
 11
-1663.4999463938918
 21
-1010.7499664659181
 31
0.0
  0
LINE
  5
410
100
AcDbEntity
  8
IMPORTED
  6
STYLE_05
 62
              30
100
AcDbLine
 10
-1663.4999463938918
 20
-999.24996646591808
 30
0.0
 11
-1663.4999463938918
 21
-1010.7499664659181
 31
0.0
  0
ARC
  5
411
100
AcDbEntity
  8
IMPORTED
  6
STYLE_05
 62
              30
100
AcDbCircle
 10
-1663.7499463938918
 20
-1004.9999664659181
 30
0.0
 40
5.75
100
AcDbArc
 50
90.0
 51
270.0
  0
LINE
  5
412
100
AcDbEntity
  8
IMPORTED
  6
STYLE_05
 62
              30
100
AcDbLine
 10
-1662.4895463938917
 20
-997.49996646591808
 30
0.0
 11
-1658.0103463938917
 21
-997.49996646591808
 31
0.0
  0
LINE
  5
413
100
AcDbEntity
  8
IMPORTED
  6
STYLE_05
 62
              30
100
AcDbLine
 10
-1656.9999463938918
 20
-999.24996646591808
 30
0.0
 11
-1658.0103463938917
 21
-997.49996646591808
 31
0.0
  0
LINE
  5
414
100
AcDbEntity
  8
IMPORTED
  6
STYLE_05
 62
              30
100
AcDbLine
 10
-1662.4895463938917
 20
-1012.4999664659181
 30
0.0
 11
-1658.0103463938917
 21
-1012.4999664659181
 31
0.0
  0
LINE
  5
415
100
AcDbEntity
  8
IMPORTED
  6
STYLE_05
 62
              30
100
AcDbLine
 10
-1656.9999463938918
 20
-1010.7499664659181
 30
0.0
 11
-1658.0103463938917
 21
-1012.4999664659181
 31
0.0
  0
LINE
  5
416
100
AcDbEntity
  8
IMPORTED
  6
STYLE_05
 62
              30
100
AcDbLine
 10
-1656.9999463938918
 20
-999.24996646591808
 30
0.0
 11
-1656.9999463938918
 21
-1010.7499664659181
 31
0.0
  0
LINE
  5
417
100
AcDbEntity
  8
IMPORTED
  6
STYLE_05
 62
              30
100
AcDbLine
 10
-1663.4999463938918
 20
-999.24996646591808
 30
0.0
 11
-1662.4895463938917
 21
-997.49996646591808
 31
0.0
  0
LINE
  5
418
100
AcDbEntity
  8
IMPORTED
  6
STYLE_05
 62
              30
100
AcDbLine
 10
-1663.4999463938918
 20
-1001.2583664659181
 30
0.0
 11
-1656.9999463938918
 21
-1001.2583664659181
 31
0.0
  0
LINE
  5
419
100
AcDbEntity
  8
IMPORTED
  6
STYLE_05
 62
              30
100
AcDbLine
 10
-1663.4999463938918
 20
-1010.7499664659181
 30
0.0
 11
-1662.4895463938917
 21
-1012.4999664659181
 31
0.0
  0
LINE
  5
41A
100
AcDbEntity
  8
IMPORTED
  6
STYLE_05
 62
              30
100
AcDbLine
 10
-1663.4999463938918
 20
-1008.7416664659181
 30
0.0
 11
-1656.9999463938918
 21
-1008.7416664659181
 31
0.0
  0
POLYLINE
  5
41B
100
AcDbEntity
  8
IMPORTED
  6
STYLE_05
 62
              30
100
AcDb2dPolyline
 66
               1
 10
0.0
 20
0.0
 30
0.0
 70
             129
  0
VERTEX
  5
41C
100
AcDbEntity
  8
IMPORTED
  6
STYLE_05
 62
              30
100
AcDbVertex
100
AcDb2dVertex
 10
-1654.9999463938918
 20
-1068.9999664659181
 30
0.0
  0
VERTEX
  5
41D
100
AcDbEntity
  8
IMPORTED
  6
STYLE_05
 62
              30
100
AcDbVertex
100
AcDb2dVertex
 10
-1444.9999463938918
 20
-1068.9999664659181
 30
0.0
  0
VERTEX
  5
41E
100
AcDbEntity
  8
IMPORTED
  6
STYLE_05
 62
              30
100
AcDbVertex
100
AcDb2dVertex
 10
-1444.9999463938918
 20
-1060.9999664659181
 30
0.0
  0
VERTEX
  5
41F
100
AcDbEntity
  8
IMPORTED
  6
STYLE_05
 62
              30
100
AcDbVertex
100
AcDb2dVertex
 10
-1654.9999463938918
 20
-1060.9999664659181
 30
0.0
  0
SEQEND
  5
420
100
AcDbEntity
  8
IMPORTED
  6
STYLE_05
 62
              30
  0
POLYLINE
  5
421
100
AcDbEntity
  8
IMPORTED
  6
STYLE_05
 62
              30
100
AcDb2dPolyline
 66
               1
 10
0.0
 20
0.0
 30
0.0
 70
             129
  0
VERTEX
  5
422
100
AcDbEntity
  8
IMPORTED
  6
STYLE_05
 62
              30
100
AcDbVertex
100
AcDb2dVertex
 10
-1444.9999463938918
 20
-1072.9999664659181
 30
0.0
  0
VERTEX
  5
423
100
AcDbEntity
  8
IMPORTED
  6
STYLE_05
 62
              30
100
AcDbVertex
100
AcDb2dVertex
 10
-1442.9999463938918
 20
-1072.9999664659181
 30
0.0
  0
VERTEX
  5
424
100
AcDbEntity
  8
IMPORTED
  6
STYLE_05
 62
              30
100
AcDbVertex
100
AcDb2dVertex
 10
-1442.9999463938918
 20
-1056.9999664659181
 30
0.0
  0
VERTEX
  5
425
100
AcDbEntity
  8
IMPORTED
  6
STYLE_05
 62
              30
100
AcDbVertex
100
AcDb2dVertex
 10
-1444.9999463938918
 20
-1056.9999664659181
 30
0.0
  0
SEQEND
  5
426
100
AcDbEntity
  8
IMPORTED
  6
STYLE_05
 62
              30
  0
LINE
  5
427
100
AcDbEntity
  8
IMPORTED
  6
STYLE_05
 62
              30
100
AcDbLine
 10
-1436.2499463938918
 20
-1070.7499664659181
 30
0.0
 11
-1436.4999463938918
 21
-1070.7499664659181
 31
0.0
  0
LINE
  5
428
100
AcDbEntity
  8
IMPORTED
  6
STYLE_05
 62
              30
100
AcDbLine
 10
-1436.2499463938918
 20
-1059.2499664659181
 30
0.0
 11
-1436.4999463938918
 21
-1059.2499664659181
 31
0.0
  0
LINE
  5
429
100
AcDbEntity
  8
IMPORTED
  6
STYLE_05
 62
              30
100
AcDbLine
 10
-1436.4999463938918
 20
-1070.7499664659181
 30
0.0
 11
-1436.4999463938918
 21
-1059.2499664659181
 31
0.0
  0
ARC
  5
42A
100
AcDbEntity
  8
IMPORTED
  6
STYLE_05
 62
              30
100
AcDbCircle
 10
-1436.2499463938918
 20
-1064.9999664659181
 30
0.0
 40
5.75
100
AcDbArc
 50
270.0
 51
90.0
  0
LINE
  5
42B
100
AcDbEntity
  8
IMPORTED
  6
STYLE_05
 62
              30
100
AcDbLine
 10
-1437.5103463938917
 20
-1072.4999664659181
 30
0.0
 11
-1441.9895463938917
 21
-1072.4999664659181
 31
0.0
  0
LINE
  5
42C
100
AcDbEntity
  8
IMPORTED
  6
STYLE_05
 62
              30
100
AcDbLine
 10
-1442.9999463938918
 20
-1070.7499664659181
 30
0.0
 11
-1441.9895463938917
 21
-1072.4999664659181
 31
0.0
  0
LINE
  5
42D
100
AcDbEntity
  8
IMPORTED
  6
STYLE_05
 62
              30
100
AcDbLine
 10
-1437.5103463938917
 20
-1057.4999664659181
 30
0.0
 11
-1441.9895463938917
 21
-1057.4999664659181
 31
0.0
  0
LINE
  5
42E
100
AcDbEntity
  8
IMPORTED
  6
STYLE_05
 62
              30
100
AcDbLine
 10
-1442.9999463938918
 20
-1059.2499664659181
 30
0.0
 11
-1441.9895463938917
 21
-1057.4999664659181
 31
0.0
  0
LINE
  5
42F
100
AcDbEntity
  8
IMPORTED
  6
STYLE_05
 62
              30
100
AcDbLine
 10
-1442.9999463938918
 20
-1070.7499664659181
 30
0.0
 11
-1442.9999463938918
 21
-1059.2499664659181
 31
0.0
  0
LINE
  5
430
100
AcDbEntity
  8
IMPORTED
  6
STYLE_05
 62
              30
100
AcDbLine
 10
-1436.4999463938918
 20
-1070.7499664659181
 30
0.0
 11
-1437.5103463938917
 21
-1072.4999664659181
 31
0.0
  0
LINE
  5
431
100
AcDbEntity
  8
IMPORTED
  6
STYLE_05
 62
              30
100
AcDbLine
 10
-1436.4999463938918
 20
-1068.7415664659179
 30
0.0
 11
-1442.9999463938918
 21
-1068.7415664659179
 31
0.0
  0
LINE
  5
432
100
AcDbEntity
  8
IMPORTED
  6
STYLE_05
 62
              30
100
AcDbLine
 10
-1436.4999463938918
 20
-1059.2499664659181
 30
0.0
 11
-1437.5103463938917
 21
-1057.4999664659181
 31
0.0
  0
LINE
  5
433
100
AcDbEntity
  8
IMPORTED
  6
STYLE_05
 62
              30
100
AcDbLine
 10
-1436.4999463938918
 20
-1061.258266465918
 30
0.0
 11
-1442.9999463938918
 21
-1061.258266465918
 31
0.0
  0
POLYLINE
  5
434
100
AcDbEntity
  8
IMPORTED
  6
STYLE_05
 62
              30
100
AcDb2dPolyline
 66
               1
 10
0.0
 20
0.0
 30
0.0
 70
             129
  0
VERTEX
  5
435
100
AcDbEntity
  8
IMPORTED
  6
STYLE_05
 62
              30
100
AcDbVertex
100
AcDb2dVertex
 10
-1654.9999463938918
 20
-1072.9999664659181
 30
0.0
  0
VERTEX
  5
436
100
AcDbEntity
  8
IMPORTED
  6
STYLE_05
 62
              30
100
AcDbVertex
100
AcDb2dVertex
 10
-1656.9999463938918
 20
-1072.9999664659181
 30
0.0
  0
VERTEX
  5
437
100
AcDbEntity
  8
IMPORTED
  6
STYLE_05
 62
              30
100
AcDbVertex
100
AcDb2dVertex
 10
-1656.9999463938918
 20
-1056.9999664659181
 30
0.0
  0
VERTEX
  5
438
100
AcDbEntity
  8
IMPORTED
  6
STYLE_05
 62
              30
100
AcDbVertex
100
AcDb2dVertex
 10
-1654.9999463938918
 20
-1056.9999664659181
 30
0.0
  0
SEQEND
  5
439
100
AcDbEntity
  8
IMPORTED
  6
STYLE_05
 62
              30
  0
LINE
  5
43A
100
AcDbEntity
  8
IMPORTED
  6
STYLE_05
 62
              30
100
AcDbLine
 10
-1663.7499463938918
 20
-1070.7499664659181
 30
0.0
 11
-1663.4999463938918
 21
-1070.7499664659181
 31
0.0
  0
LINE
  5
43B
100
AcDbEntity
  8
IMPORTED
  6
STYLE_05
 62
              30
100
AcDbLine
 10
-1663.7499463938918
 20
-1059.2499664659181
 30
0.0
 11
-1663.4999463938918
 21
-1059.2499664659181
 31
0.0
  0
LINE
  5
43C
100
AcDbEntity
  8
IMPORTED
  6
STYLE_05
 62
              30
100
AcDbLine
 10
-1663.4999463938918
 20
-1070.7499664659181
 30
0.0
 11
-1663.4999463938918
 21
-1059.2499664659181
 31
0.0
  0
ARC
  5
43D
100
AcDbEntity
  8
IMPORTED
  6
STYLE_05
 62
              30
100
AcDbCircle
 10
-1663.7499463938918
 20
-1064.9999664659181
 30
0.0
 40
5.75
100
AcDbArc
 50
90.0
 51
270.0
  0
LINE
  5
43E
100
AcDbEntity
  8
IMPORTED
  6
STYLE_05
 62
              30
100
AcDbLine
 10
-1662.4895463938917
 20
-1072.4999664659181
 30
0.0
 11
-1658.0103463938917
 21
-1072.4999664659181
 31
0.0
  0
LINE
  5
43F
100
AcDbEntity
  8
IMPORTED
  6
STYLE_05
 62
              30
100
AcDbLine
 10
-1656.9999463938918
 20
-1070.7499664659181
 30
0.0
 11
-1658.0103463938917
 21
-1072.4999664659181
 31
0.0
  0
LINE
  5
440
100
AcDbEntity
  8
IMPORTED
  6
STYLE_05
 62
              30
100
AcDbLine
 10
-1662.4895463938917
 20
-1057.4999664659181
 30
0.0
 11
-1658.0103463938917
 21
-1057.4999664659181
 31
0.0
  0
LINE
  5
441
100
AcDbEntity
  8
IMPORTED
  6
STYLE_05
 62
              30
100
AcDbLine
 10
-1656.9999463938918
 20
-1059.2499664659181
 30
0.0
 11
-1658.0103463938917
 21
-1057.4999664659181
 31
0.0
  0
LINE
  5
442
100
AcDbEntity
  8
IMPORTED
  6
STYLE_05
 62
              30
100
AcDbLine
 10
-1656.9999463938918
 20
-1070.7499664659181
 30
0.0
 11
-1656.9999463938918
 21
-1059.2499664659181
 31
0.0
  0
LINE
  5
443
100
AcDbEntity
  8
IMPORTED
  6
STYLE_05
 62
              30
100
AcDbLine
 10
-1663.4999463938918
 20
-1070.7499664659181
 30
0.0
 11
-1662.4895463938917
 21
-1072.4999664659181
 31
0.0
  0
LINE
  5
444
100
AcDbEntity
  8
IMPORTED
  6
STYLE_05
 62
              30
100
AcDbLine
 10
-1663.4999463938918
 20
-1068.7415664659179
 30
0.0
 11
-1656.9999463938918
 21
-1068.7415664659179
 31
0.0
  0
LINE
  5
445
100
AcDbEntity
  8
IMPORTED
  6
STYLE_05
 62
              30
100
AcDbLine
 10
-1663.4999463938918
 20
-1059.2499664659181
 30
0.0
 11
-1662.4895463938917
 21
-1057.4999664659181
 31
0.0
  0
LINE
  5
446
100
AcDbEntity
  8
IMPORTED
  6
STYLE_05
 62
              30
100
AcDbLine
 10
-1663.4999463938918
 20
-1061.258266465918
 30
0.0
 11
-1656.9999463938918
 21
-1061.258266465918
 31
0.0
  0
CIRCLE
  5
447
100
AcDbEntity
  8
IMPORTED
  6
CONTINUOUS
 62
              30
100
AcDbCircle
 10
1248.499953606108
 20
864.99993353408172
 30
0.0
 40
5.75
  0
POLYLINE
  5
448
100
AcDbEntity
  8
IMPORTED
  6
CONTINUOUS
 62
              30
100
AcDb2dPolyline
 66
               1
 10
0.0
 20
0.0
 30
0.0
 70
               1
 75
               5
  0
VERTEX
  5
449
100
AcDbEntity
  8
IMPORTED
  6
CONTINUOUS
 62
              30
100
AcDbVertex
100
AcDb2dVertex
 10
1248.499953606108
 20
872.49983353408174
 30
0.0
  0
VERTEX
  5
44A
100
AcDbEntity
  8
IMPORTED
  6
CONTINUOUS
 62
              30
100
AcDbVertex
100
AcDb2dVertex
 10
1241.0000536061079
 20
868.74993353408172
 30
0.0
  0
VERTEX
  5
44B
100
AcDbEntity
  8
IMPORTED
  6
CONTINUOUS
 62
              30
100
AcDbVertex
100
AcDb2dVertex
 10
1240.999953606108
 20
861.24993353408172
 30
0.0
  0
VERTEX
  5
44C
100
AcDbEntity
  8
IMPORTED
  6
CONTINUOUS
 62
              30
100
AcDbVertex
100
AcDb2dVertex
 10
1248.499753606108
 20
857.49983353408174
 30
0.0
  0
VERTEX
  5
44D
100
AcDbEntity
  8
IMPORTED
  6
CONTINUOUS
 62
              30
100
AcDbVertex
100
AcDb2dVertex
 10
1255.999853606108
 20
861.24973353408177
 30
0.0
  0
VERTEX
  5
44E
100
AcDbEntity
  8
IMPORTED
  6
CONTINUOUS
 62
              30
100
AcDbVertex
100
AcDb2dVertex
 10
1255.999953606108
 20
868.74973353408177
 30
0.0
  0
SEQEND
  5
44F
100
AcDbEntity
  8
IMPORTED
  6
CONTINUOUS
 62
              30
  0
CIRCLE
  5
451
100
AcDbEntity
  8
IMPORTED
  6
CONTINUOUS
 62
              30
100
AcDbCircle
 10
1308.499953606108
 20
909.99993353408172
 30
0.0
 40
5.75
  0
POLYLINE
  5
452
100
AcDbEntity
  8
IMPORTED
  6
CONTINUOUS
 62
              30
100
AcDb2dPolyline
 66
               1
 10
0.0
 20
0.0
 30
0.0
 70
               1
 75
               5
  0
VERTEX
  5
453
100
AcDbEntity
  8
IMPORTED
  6
CONTINUOUS
 62
              30
100
AcDbVertex
100
AcDb2dVertex
 10
1308.499953606108
 20
917.49983353408174
 30
0.0
  0
VERTEX
  5
454
100
AcDbEntity
  8
IMPORTED
  6
CONTINUOUS
 62
              30
100
AcDbVertex
100
AcDb2dVertex
 10
1301.0000536061079
 20
913.74993353408172
 30
0.0
  0
VERTEX
  5
455
100
AcDbEntity
  8
IMPORTED
  6
CONTINUOUS
 62
              30
100
AcDbVertex
100
AcDb2dVertex
 10
1300.999953606108
 20
906.24993353408172
 30
0.0
  0
VERTEX
  5
456
100
AcDbEntity
  8
IMPORTED
  6
CONTINUOUS
 62
              30
100
AcDbVertex
100
AcDb2dVertex
 10
1308.499753606108
 20
902.49983353408174
 30
0.0
  0
VERTEX
  5
457
100
AcDbEntity
  8
IMPORTED
  6
CONTINUOUS
 62
              30
100
AcDbVertex
100
AcDb2dVertex
 10
1315.999853606108
 20
906.24973353408177
 30
0.0
  0
VERTEX
  5
458
100
AcDbEntity
  8
IMPORTED
  6
CONTINUOUS
 62
              30
100
AcDbVertex
100
AcDb2dVertex
 10
1315.999953606108
 20
913.74973353408177
 30
0.0
  0
SEQEND
  5
459
100
AcDbEntity
  8
IMPORTED
  6
CONTINUOUS
 62
              30
  0
CIRCLE
  5
45B
100
AcDbEntity
  8
IMPORTED
  6
CONTINUOUS
 62
              30
100
AcDbCircle
 10
1518.499953606108
 20
909.99993353408172
 30
0.0
 40
5.75
  0
POLYLINE
  5
45C
100
AcDbEntity
  8
IMPORTED
  6
CONTINUOUS
 62
              30
100
AcDb2dPolyline
 66
               1
 10
0.0
 20
0.0
 30
0.0
 70
               1
 75
               5
  0
VERTEX
  5
45D
100
AcDbEntity
  8
IMPORTED
  6
CONTINUOUS
 62
              30
100
AcDbVertex
100
AcDb2dVertex
 10
1518.499953606108
 20
917.49983353408174
 30
0.0
  0
VERTEX
  5
45E
100
AcDbEntity
  8
IMPORTED
  6
CONTINUOUS
 62
              30
100
AcDbVertex
100
AcDb2dVertex
 10
1511.0000536061079
 20
913.74993353408172
 30
0.0
  0
VERTEX
  5
45F
100
AcDbEntity
  8
IMPORTED
  6
CONTINUOUS
 62
              30
100
AcDbVertex
100
AcDb2dVertex
 10
1510.999953606108
 20
906.24993353408172
 30
0.0
  0
VERTEX
  5
460
100
AcDbEntity
  8
IMPORTED
  6
CONTINUOUS
 62
              30
100
AcDbVertex
100
AcDb2dVertex
 10
1518.499753606108
 20
902.49983353408174
 30
0.0
  0
VERTEX
  5
461
100
AcDbEntity
  8
IMPORTED
  6
CONTINUOUS
 62
              30
100
AcDbVertex
100
AcDb2dVertex
 10
1525.999853606108
 20
906.24973353408177
 30
0.0
  0
VERTEX
  5
462
100
AcDbEntity
  8
IMPORTED
  6
CONTINUOUS
 62
              30
100
AcDbVertex
100
AcDb2dVertex
 10
1525.999953606108
 20
913.74973353408177
 30
0.0
  0
SEQEND
  5
463
100
AcDbEntity
  8
IMPORTED
  6
CONTINUOUS
 62
              30
  0
CIRCLE
  5
465
100
AcDbEntity
  8
IMPORTED
  6
CONTINUOUS
 62
              30
100
AcDbCircle
 10
1578.499953606108
 20
864.99993353408172
 30
0.0
 40
5.75
  0
POLYLINE
  5
466
100
AcDbEntity
  8
IMPORTED
  6
CONTINUOUS
 62
              30
100
AcDb2dPolyline
 66
               1
 10
0.0
 20
0.0
 30
0.0
 70
               1
 75
               5
  0
VERTEX
  5
467
100
AcDbEntity
  8
IMPORTED
  6
CONTINUOUS
 62
              30
100
AcDbVertex
100
AcDb2dVertex
 10
1578.499953606108
 20
872.49983353408174
 30
0.0
  0
VERTEX
  5
468
100
AcDbEntity
  8
IMPORTED
  6
CONTINUOUS
 62
              30
100
AcDbVertex
100
AcDb2dVertex
 10
1571.0000536061079
 20
868.74993353408172
 30
0.0
  0
VERTEX
  5
469
100
AcDbEntity
  8
IMPORTED
  6
CONTINUOUS
 62
              30
100
AcDbVertex
100
AcDb2dVertex
 10
1570.999953606108
 20
861.24993353408172
 30
0.0
  0
VERTEX
  5
46A
100
AcDbEntity
  8
IMPORTED
  6
CONTINUOUS
 62
              30
100
AcDbVertex
100
AcDb2dVertex
 10
1578.499753606108
 20
857.49983353408174
 30
0.0
  0
VERTEX
  5
46B
100
AcDbEntity
  8
IMPORTED
  6
CONTINUOUS
 62
              30
100
AcDbVertex
100
AcDb2dVertex
 10
1585.999853606108
 20
861.24973353408177
 30
0.0
  0
VERTEX
  5
46C
100
AcDbEntity
  8
IMPORTED
  6
CONTINUOUS
 62
              30
100
AcDbVertex
100
AcDb2dVertex
 10
1585.999953606108
 20
868.74973353408177
 30
0.0
  0
SEQEND
  5
46D
100
AcDbEntity
  8
IMPORTED
  6
CONTINUOUS
 62
              30
  0
POLYLINE
  5
46F
100
AcDbEntity
  8
IMPORTED
  6
CONTINUOUS
 62
              30
100
AcDb2dPolyline
 66
               1
 10
0.0
 20
0.0
 30
0.0
 70
               1
 75
               5
  0
VERTEX
  5
470
100
AcDbEntity
  8
IMPORTED
  6
CONTINUOUS
 62
              30
100
AcDbVertex
100
AcDb2dVertex
 10
-504.999946393892
 20
854.99993353408172
 30
0.0
  0
VERTEX
  5
471
100
AcDbEntity
  8
IMPORTED
  6
CONTINUOUS
 62
              30
100
AcDbVertex
100
AcDb2dVertex
 10
-504.999946393892
 20
929.99993353408172
 30
0.0
  0
VERTEX
  5
472
100
AcDbEntity
  8
IMPORTED
  6
CONTINUOUS
 62
              30
100
AcDbVertex
100
AcDb2dVertex
 10
-504.999946393892
 20
934.99993353408172
 30
0.0
  0
VERTEX
  5
473
100
AcDbEntity
  8
IMPORTED
  6
CONTINUOUS
 62
              30
100
AcDbVertex
100
AcDb2dVertex
 10
-499.99994639389195
 20
934.99993353408172
 30
0.0
  0
VERTEX
  5
474
100
AcDbEntity
  8
IMPORTED
  6
CONTINUOUS
 62
              30
100
AcDbVertex
100
AcDb2dVertex
 10
-399.99994639389195
 20
934.99993353408172
 30
0.0
  0
VERTEX
  5
475
100
AcDbEntity
  8
IMPORTED
  6
CONTINUOUS
 62
              30
100
AcDbVertex
100
AcDb2dVertex
 10
-394.99994639389195
 20
934.99993353408172
 30
0.0
  0
VERTEX
  5
476
100
AcDbEntity
  8
IMPORTED
  6
CONTINUOUS
 62
              30
100
AcDbVertex
100
AcDb2dVertex
 10
-394.99994639389195
 20
929.99993353408172
 30
0.0
  0
VERTEX
  5
477
100
AcDbEntity
  8
IMPORTED
  6
CONTINUOUS
 62
              30
100
AcDbVertex
100
AcDb2dVertex
 10
-394.99994639389195
 20
854.99993353408172
 30
0.0
  0
VERTEX
  5
478
100
AcDbEntity
  8
IMPORTED
  6
CONTINUOUS
 62
              30
100
AcDbVertex
100
AcDb2dVertex
 10
-399.99994639389195
 20
854.99993353408172
 30
0.0
  0
VERTEX
  5
479
100
AcDbEntity
  8
IMPORTED
  6
CONTINUOUS
 62
              30
100
AcDbVertex
100
AcDb2dVertex
 10
-399.99994639389195
 20
929.99993353408172
 30
0.0
  0
VERTEX
  5
47A
100
AcDbEntity
  8
IMPORTED
  6
CONTINUOUS
 62
              30
100
AcDbVertex
100
AcDb2dVertex
 10
-499.99994639389195
 20
929.99993353408172
 30
0.0
  0
VERTEX
  5
47B
100
AcDbEntity
  8
IMPORTED
  6
CONTINUOUS
 62
              30
100
AcDbVertex
100
AcDb2dVertex
 10
-499.99994639389195
 20
854.99993353408172
 30
0.0
  0
SEQEND
  5
47C
100
AcDbEntity
  8
IMPORTED
  6
CONTINUOUS
 62
              30
  0
POLYLINE
  5
47E
100
AcDbEntity
  8
IMPORTED
  6
STYLE_05
 62
              30
100
AcDb2dPolyline
 66
               1
 10
0.0
 20
0.0
 30
0.0
 70
             129
  0
VERTEX
  5
47F
100
AcDbEntity
  8
IMPORTED
  6
STYLE_05
 62
              30
100
AcDbVertex
100
AcDb2dVertex
 10
-509.999946393892
 20
849.99993353408172
 30
0.0
  0
VERTEX
  5
480
100
AcDbEntity
  8
IMPORTED
  6
STYLE_05
 62
              30
100
AcDbVertex
100
AcDb2dVertex
 10
-509.999946393892
 20
870.99993353408172
 30
0.0
  0
VERTEX
  5
481
100
AcDbEntity
  8
IMPORTED
  6
STYLE_05
 62
              30
100
AcDbVertex
100
AcDb2dVertex
 10
-549.99994639389206
 20
870.99993353408172
 30
0.0
  0
VERTEX
  5
482
100
AcDbEntity
  8
IMPORTED
  6
STYLE_05
 62
              30
100
AcDbVertex
100
AcDb2dVertex
 10
-549.99994639389206
 20
849.99993353408172
 30
0.0
  0
VERTEX
  5
483
100
AcDbEntity
  8
IMPORTED
  6
STYLE_05
 62
              30
100
AcDbVertex
100
AcDb2dVertex
 10
-544.99994639389206
 20
844.99993353408172
 30
0.0
  0
VERTEX
  5
484
100
AcDbEntity
  8
IMPORTED
  6
STYLE_05
 62
              30
100
AcDbVertex
100
AcDb2dVertex
 10
-514.99994639389206
 20
844.99993353408172
 30
0.0
  0
SEQEND
  5
485
100
AcDbEntity
  8
IMPORTED
  6
STYLE_05
 62
              30
  0
POLYLINE
  5
486
100
AcDbEntity
  8
IMPORTED
  6
CONTINUOUS
 62
              30
100
AcDb2dPolyline
 66
               1
 10
0.0
 20
0.0
 30
0.0
 70
               1
 75
               5
  0
VERTEX
  5
487
100
AcDbEntity
  8
IMPORTED
  6
CONTINUOUS
 62
              30
100
AcDbVertex
100
AcDb2dVertex
 10
-554.99994639389206
 20
934.99993353408172
 30
0.0
  0
VERTEX
  5
488
100
AcDbEntity
  8
IMPORTED
  6
CONTINUOUS
 62
              30
100
AcDbVertex
100
AcDb2dVertex
 10
-554.99994639389206
 20
844.99993353408172
 30
0.0
  0
VERTEX
  5
489
100
AcDbEntity
  8
IMPORTED
  6
CONTINUOUS
 62
              30
100
AcDbVertex
100
AcDb2dVertex
 10
-549.99994639389206
 20
839.99993353408172
 30
0.0
  0
VERTEX
  5
48A
100
AcDbEntity
  8
IMPORTED
  6
CONTINUOUS
 62
              30
100
AcDbVertex
100
AcDb2dVertex
 10
-509.999946393892
 20
839.99993353408172
 30
0.0
  0
VERTEX
  5
48B
100
AcDbEntity
  8
IMPORTED
  6
CONTINUOUS
 62
              30
100
AcDbVertex
100
AcDb2dVertex
 10
-504.999946393892
 20
844.99993353408172
 30
0.0
  0
VERTEX
  5
48C
100
AcDbEntity
  8
IMPORTED
  6
CONTINUOUS
 62
              30
100
AcDbVertex
100
AcDb2dVertex
 10
-504.999946393892
 20
934.99993353408172
 30
0.0
  0
SEQEND
  5
48D
100
AcDbEntity
  8
IMPORTED
  6
CONTINUOUS
 62
              30
  0
POLYLINE
  5
48F
100
AcDbEntity
  8
IMPORTED
  6
STYLE_05
 62
              30
100
AcDb2dPolyline
 66
               1
 10
0.0
 20
0.0
 30
0.0
 70
             129
  0
VERTEX
  5
490
100
AcDbEntity
  8
IMPORTED
  6
STYLE_05
 62
              30
100
AcDbVertex
100
AcDb2dVertex
 10
-349.99994639389195
 20
849.99993353408172
 30
0.0
  0
VERTEX
  5
491
100
AcDbEntity
  8
IMPORTED
  6
STYLE_05
 62
              30
100
AcDbVertex
100
AcDb2dVertex
 10
-349.99994639389195
 20
870.99993353408172
 30
0.0
  0
VERTEX
  5
492
100
AcDbEntity
  8
IMPORTED
  6
STYLE_05
 62
              30
100
AcDbVertex
100
AcDb2dVertex
 10
-389.99994639389195
 20
870.99993353408172
 30
0.0
  0
VERTEX
  5
493
100
AcDbEntity
  8
IMPORTED
  6
STYLE_05
 62
              30
100
AcDbVertex
100
AcDb2dVertex
 10
-389.99994639389195
 20
849.99993353408172
 30
0.0
  0
VERTEX
  5
494
100
AcDbEntity
  8
IMPORTED
  6
STYLE_05
 62
              30
100
AcDbVertex
100
AcDb2dVertex
 10
-384.99994639389195
 20
844.99993353408172
 30
0.0
  0
VERTEX
  5
495
100
AcDbEntity
  8
IMPORTED
  6
STYLE_05
 62
              30
100
AcDbVertex
100
AcDb2dVertex
 10
-354.99994639389195
 20
844.99993353408172
 30
0.0
  0
SEQEND
  5
496
100
AcDbEntity
  8
IMPORTED
  6
STYLE_05
 62
              30
  0
POLYLINE
  5
497
100
AcDbEntity
  8
IMPORTED
  6
STYLE_05
 62
              30
100
AcDb2dPolyline
 66
               1
 10
0.0
 20
0.0
 30
0.0
 70
             129
  0
VERTEX
  5
498
100
AcDbEntity
  8
IMPORTED
  6
STYLE_05
 62
              30
100
AcDbVertex
100
AcDb2dVertex
 10
-554.99994639389206
 20
913.99993353408172
 30
0.0
  0
VERTEX
  5
499
100
AcDbEntity
  8
IMPORTED
  6
STYLE_05
 62
              30
100
AcDbVertex
100
AcDb2dVertex
 10
-344.99994639389195
 20
913.99993353408172
 30
0.0
  0
VERTEX
  5
49A
100
AcDbEntity
  8
IMPORTED
  6
STYLE_05
 62
              30
100
AcDbVertex
100
AcDb2dVertex
 10
-344.99994639389195
 20
905.99993353408172
 30
0.0
  0
VERTEX
  5
49B
100
AcDbEntity
  8
IMPORTED
  6
STYLE_05
 62
              30
100
AcDbVertex
100
AcDb2dVertex
 10
-554.99994639389206
 20
905.99993353408172
 30
0.0
  0
SEQEND
  5
49C
100
AcDbEntity
  8
IMPORTED
  6
STYLE_05
 62
              30
  0
POLYLINE
  5
49D
100
AcDbEntity
  8
IMPORTED
  6
STYLE_05
 62
              30
100
AcDb2dPolyline
 66
               1
 10
0.0
 20
0.0
 30
0.0
 70
             129
  0
VERTEX
  5
49E
100
AcDbEntity
  8
IMPORTED
  6
STYLE_05
 62
              30
100
AcDbVertex
100
AcDb2dVertex
 10
-509.999946393892
 20
899.99993353408172
 30
0.0
  0
VERTEX
  5
49F
100
AcDbEntity
  8
IMPORTED
  6
STYLE_05
 62
              30
100
AcDbVertex
100
AcDb2dVertex
 10
-509.999946393892
 20
874.99993353408172
 30
0.0
  0
VERTEX
  5
4A0
100
AcDbEntity
  8
IMPORTED
  6
STYLE_05
 62
              30
100
AcDbVertex
100
AcDb2dVertex
 10
-549.99994639389206
 20
874.99993353408172
 30
0.0
  0
VERTEX
  5
4A1
100
AcDbEntity
  8
IMPORTED
  6
STYLE_05
 62
              30
100
AcDbVertex
100
AcDb2dVertex
 10
-549.99994639389206
 20
899.99993353408172
 30
0.0
  0
SEQEND
  5
4A2
100
AcDbEntity
  8
IMPORTED
  6
STYLE_05
 62
              30
  0
POLYLINE
  5
4A3
100
AcDbEntity
  8
IMPORTED
  6
STYLE_05
 62
              30
100
AcDb2dPolyline
 66
               1
 10
0.0
 20
0.0
 30
0.0
 70
             129
  0
VERTEX
  5
4A4
100
AcDbEntity
  8
IMPORTED
  6
STYLE_05
 62
              30
100
AcDbVertex
100
AcDb2dVertex
 10
-509.999946393892
 20
924.99993353408172
 30
0.0
  0
VERTEX
  5
4A5
100
AcDbEntity
  8
IMPORTED
  6
STYLE_05
 62
              30
100
AcDbVertex
100
AcDb2dVertex
 10
-509.999946393892
 20
903.99993353408172
 30
0.0
  0
VERTEX
  5
4A6
100
AcDbEntity
  8
IMPORTED
  6
STYLE_05
 62
              30
100
AcDbVertex
100
AcDb2dVertex
 10
-549.99994639389206
 20
903.99993353408172
 30
0.0
  0
VERTEX
  5
4A7
100
AcDbEntity
  8
IMPORTED
  6
STYLE_05
 62
              30
100
AcDbVertex
100
AcDb2dVertex
 10
-549.99994639389206
 20
924.99993353408172
 30
0.0
  0
VERTEX
  5
4A8
100
AcDbEntity
  8
IMPORTED
  6
STYLE_05
 62
              30
100
AcDbVertex
100
AcDb2dVertex
 10
-544.99994639389206
 20
929.99993353408172
 30
0.0
  0
VERTEX
  5
4A9
100
AcDbEntity
  8
IMPORTED
  6
STYLE_05
 62
              30
100
AcDbVertex
100
AcDb2dVertex
 10
-514.99994639389206
 20
929.99993353408172
 30
0.0
  0
SEQEND
  5
4AA
100
AcDbEntity
  8
IMPORTED
  6
STYLE_05
 62
              30
  0
POLYLINE
  5
4AB
100
AcDbEntity
  8
IMPORTED
  6
STYLE_05
 62
              30
100
AcDb2dPolyline
 66
               1
 10
0.0
 20
0.0
 30
0.0
 70
             129
  0
VERTEX
  5
4AC
100
AcDbEntity
  8
IMPORTED
  6
STYLE_05
 62
              30
100
AcDbVertex
100
AcDb2dVertex
 10
-349.99994639389195
 20
924.99993353408172
 30
0.0
  0
VERTEX
  5
4AD
100
AcDbEntity
  8
IMPORTED
  6
STYLE_05
 62
              30
100
AcDbVertex
100
AcDb2dVertex
 10
-349.99994639389195
 20
903.99993353408172
 30
0.0
  0
VERTEX
  5
4AE
100
AcDbEntity
  8
IMPORTED
  6
STYLE_05
 62
              30
100
AcDbVertex
100
AcDb2dVertex
 10
-389.99994639389195
 20
903.99993353408172
 30
0.0
  0
VERTEX
  5
4AF
100
AcDbEntity
  8
IMPORTED
  6
STYLE_05
 62
              30
100
AcDbVertex
100
AcDb2dVertex
 10
-389.99994639389195
 20
924.99993353408172
 30
0.0
  0
VERTEX
  5
4B0
100
AcDbEntity
  8
IMPORTED
  6
STYLE_05
 62
              30
100
AcDbVertex
100
AcDb2dVertex
 10
-384.99994639389195
 20
929.99993353408172
 30
0.0
  0
VERTEX
  5
4B1
100
AcDbEntity
  8
IMPORTED
  6
STYLE_05
 62
              30
100
AcDbVertex
100
AcDb2dVertex
 10
-354.99994639389195
 20
929.99993353408172
 30
0.0
  0
SEQEND
  5
4B2
100
AcDbEntity
  8
IMPORTED
  6
STYLE_05
 62
              30
  0
POLYLINE
  5
4B3
100
AcDbEntity
  8
IMPORTED
  6
STYLE_05
 62
              30
100
AcDb2dPolyline
 66
               1
 10
0.0
 20
0.0
 30
0.0
 70
             129
  0
VERTEX
  5
4B4
100
AcDbEntity
  8
IMPORTED
  6
STYLE_05
 62
              30
100
AcDbVertex
100
AcDb2dVertex
 10
-349.99994639389195
 20
899.99993353408172
 30
0.0
  0
VERTEX
  5
4B5
100
AcDbEntity
  8
IMPORTED
  6
STYLE_05
 62
              30
100
AcDbVertex
100
AcDb2dVertex
 10
-349.99994639389195
 20
874.99993353408172
 30
0.0
  0
VERTEX
  5
4B6
100
AcDbEntity
  8
IMPORTED
  6
STYLE_05
 62
              30
100
AcDbVertex
100
AcDb2dVertex
 10
-389.99994639389195
 20
874.99993353408172
 30
0.0
  0
VERTEX
  5
4B7
100
AcDbEntity
  8
IMPORTED
  6
STYLE_05
 62
              30
100
AcDbVertex
100
AcDb2dVertex
 10
-389.99994639389195
 20
899.99993353408172
 30
0.0
  0
SEQEND
  5
4B8
100
AcDbEntity
  8
IMPORTED
  6
STYLE_05
 62
              30
  0
POLYLINE
  5
4B9
100
AcDbEntity
  8
IMPORTED
  6
CONTINUOUS
 62
              30
100
AcDb2dPolyline
 66
               1
 10
0.0
 20
0.0
 30
0.0
 70
             129
  0
VERTEX
  5
4BA
100
AcDbEntity
  8
IMPORTED
  6
CONTINUOUS
 62
              30
100
AcDbVertex
100
AcDb2dVertex
 10
-554.99994639389206
 20
917.99993353408172
 30
0.0
  0
VERTEX
  5
4BB
100
AcDbEntity
  8
IMPORTED
  6
CONTINUOUS
 62
              30
100
AcDbVertex
100
AcDb2dVertex
 10
-556.99994639389206
 20
917.99993353408172
 30
0.0
  0
VERTEX
  5
4BC
100
AcDbEntity
  8
IMPORTED
  6
CONTINUOUS
 62
              30
100
AcDbVertex
100
AcDb2dVertex
 10
-556.99994639389206
 20
901.99993353408172
 30
0.0
  0
VERTEX
  5
4BD
100
AcDbEntity
  8
IMPORTED
  6
CONTINUOUS
 62
              30
100
AcDbVertex
100
AcDb2dVertex
 10
-554.99994639389206
 20
901.99993353408172
 30
0.0
  0
SEQEND
  5
4BE
100
AcDbEntity
  8
IMPORTED
  6
CONTINUOUS
 62
              30
  0
LINE
  5
4BF
100
AcDbEntity
  8
IMPORTED
  6
CONTINUOUS
 62
              30
100
AcDbLine
 10
-563.74994639389206
 20
915.74993353408172
 30
0.0
 11
-563.49994639389206
 21
915.74993353408172
 31
0.0
  0
LINE
  5
4C0
100
AcDbEntity
  8
IMPORTED
  6
CONTINUOUS
 62
              30
100
AcDbLine
 10
-563.74994639389206
 20
904.24993353408172
 30
0.0
 11
-563.49994639389206
 21
904.24993353408172
 31
0.0
  0
LINE
  5
4C1
100
AcDbEntity
  8
IMPORTED
  6
CONTINUOUS
 62
              30
100
AcDbLine
 10
-563.49994639389206
 20
915.74993353408172
 30
0.0
 11
-563.49994639389206
 21
904.24993353408172
 31
0.0
  0
ARC
  5
4C2
100
AcDbEntity
  8
IMPORTED
  6
CONTINUOUS
 62
              30
100
AcDbCircle
 10
-563.74994639389206
 20
909.99993353408172
 30
0.0
 40
5.75
100
AcDbArc
 50
90.0
 51
270.0
  0
LINE
  5
4C3
100
AcDbEntity
  8
IMPORTED
  6
CONTINUOUS
 62
              30
100
AcDbLine
 10
-562.48954639389206
 20
917.49993353408172
 30
0.0
 11
-558.01034639389206
 21
917.49993353408172
 31
0.0
  0
LINE
  5
4C4
100
AcDbEntity
  8
IMPORTED
  6
CONTINUOUS
 62
              30
100
AcDbLine
 10
-556.99994639389206
 20
915.74993353408172
 30
0.0
 11
-558.01034639389206
 21
917.49993353408172
 31
0.0
  0
LINE
  5
4C5
100
AcDbEntity
  8
IMPORTED
  6
CONTINUOUS
 62
              30
100
AcDbLine
 10
-562.48954639389206
 20
902.49993353408172
 30
0.0
 11
-558.01034639389206
 21
902.49993353408172
 31
0.0
  0
LINE
  5
4C6
100
AcDbEntity
  8
IMPORTED
  6
CONTINUOUS
 62
              30
100
AcDbLine
 10
-556.99994639389206
 20
904.24993353408172
 30
0.0
 11
-558.01034639389206
 21
902.49993353408172
 31
0.0
  0
LINE
  5
4C7
100
AcDbEntity
  8
IMPORTED
  6
CONTINUOUS
 62
              30
100
AcDbLine
 10
-556.99994639389206
 20
915.74993353408172
 30
0.0
 11
-556.99994639389206
 21
904.24993353408172
 31
0.0
  0
LINE
  5
4C8
100
AcDbEntity
  8
IMPORTED
  6
CONTINUOUS
 62
              30
100
AcDbLine
 10
-563.49994639389206
 20
915.74993353408172
 30
0.0
 11
-562.48954639389206
 21
917.49993353408172
 31
0.0
  0
LINE
  5
4C9
100
AcDbEntity
  8
IMPORTED
  6
CONTINUOUS
 62
              30
100
AcDbLine
 10
-563.49994639389206
 20
913.74153353408178
 30
0.0
 11
-556.99994639389206
 21
913.74153353408178
 31
0.0
  0
LINE
  5
4CA
100
AcDbEntity
  8
IMPORTED
  6
CONTINUOUS
 62
              30
100
AcDbLine
 10
-563.49994639389206
 20
904.24993353408172
 30
0.0
 11
-562.48954639389206
 21
902.49993353408172
 31
0.0
  0
LINE
  5
4CB
100
AcDbEntity
  8
IMPORTED
  6
CONTINUOUS
 62
              30
100
AcDbLine
 10
-563.49994639389206
 20
906.2582335340818
 30
0.0
 11
-556.99994639389206
 21
906.2582335340818
 31
0.0
  0
POLYLINE
  5
4CC
100
AcDbEntity
  8
IMPORTED
  6
CONTINUOUS
 62
              30
100
AcDb2dPolyline
 66
               1
 10
0.0
 20
0.0
 30
0.0
 70
             129
  0
VERTEX
  5
4CD
100
AcDbEntity
  8
IMPORTED
  6
CONTINUOUS
 62
              30
100
AcDbVertex
100
AcDb2dVertex
 10
-344.99994639389195
 20
917.99993353408172
 30
0.0
  0
VERTEX
  5
4CE
100
AcDbEntity
  8
IMPORTED
  6
CONTINUOUS
 62
              30
100
AcDbVertex
100
AcDb2dVertex
 10
-342.99994639389195
 20
917.99993353408172
 30
0.0
  0
VERTEX
  5
4CF
100
AcDbEntity
  8
IMPORTED
  6
CONTINUOUS
 62
              30
100
AcDbVertex
100
AcDb2dVertex
 10
-342.99994639389195
 20
901.99993353408172
 30
0.0
  0
VERTEX
  5
4D0
100
AcDbEntity
  8
IMPORTED
  6
CONTINUOUS
 62
              30
100
AcDbVertex
100
AcDb2dVertex
 10
-344.99994639389195
 20
901.99993353408172
 30
0.0
  0
SEQEND
  5
4D1
100
AcDbEntity
  8
IMPORTED
  6
CONTINUOUS
 62
              30
  0
LINE
  5
4D2
100
AcDbEntity
  8
IMPORTED
  6
CONTINUOUS
 62
              30
100
AcDbLine
 10
-336.24994639389195
 20
915.74993353408172
 30
0.0
 11
-336.49994639389195
 21
915.74993353408172
 31
0.0
  0
LINE
  5
4D3
100
AcDbEntity
  8
IMPORTED
  6
CONTINUOUS
 62
              30
100
AcDbLine
 10
-336.24994639389195
 20
904.24993353408172
 30
0.0
 11
-336.49994639389195
 21
904.24993353408172
 31
0.0
  0
LINE
  5
4D4
100
AcDbEntity
  8
IMPORTED
  6
CONTINUOUS
 62
              30
100
AcDbLine
 10
-336.49994639389195
 20
915.74993353408172
 30
0.0
 11
-336.49994639389195
 21
904.24993353408172
 31
0.0
  0
ARC
  5
4D5
100
AcDbEntity
  8
IMPORTED
  6
CONTINUOUS
 62
              30
100
AcDbCircle
 10
-336.24994639389195
 20
909.99993353408172
 30
0.0
 40
5.75
100
AcDbArc
 50
270.0
 51
90.0
  0
LINE
  5
4D6
100
AcDbEntity
  8
IMPORTED
  6
CONTINUOUS
 62
              30
100
AcDbLine
 10
-337.51034639389195
 20
917.49993353408172
 30
0.0
 11
-341.989546393892
 21
917.49993353408172
 31
0.0
  0
LINE
  5
4D7
100
AcDbEntity
  8
IMPORTED
  6
CONTINUOUS
 62
              30
100
AcDbLine
 10
-342.99994639389195
 20
915.74993353408172
 30
0.0
 11
-341.989546393892
 21
917.49993353408172
 31
0.0
  0
LINE
  5
4D8
100
AcDbEntity
  8
IMPORTED
  6
CONTINUOUS
 62
              30
100
AcDbLine
 10
-337.51034639389195
 20
902.49993353408172
 30
0.0
 11
-341.989546393892
 21
902.49993353408172
 31
0.0
  0
LINE
  5
4D9
100
AcDbEntity
  8
IMPORTED
  6
CONTINUOUS
 62
              30
100
AcDbLine
 10
-342.99994639389195
 20
904.24993353408172
 30
0.0
 11
-341.989546393892
 21
902.49993353408172
 31
0.0
  0
LINE
  5
4DA
100
AcDbEntity
  8
IMPORTED
  6
CONTINUOUS
 62
              30
100
AcDbLine
 10
-342.99994639389195
 20
915.74993353408172
 30
0.0
 11
-342.99994639389195
 21
904.24993353408172
 31
0.0
  0
LINE
  5
4DB
100
AcDbEntity
  8
IMPORTED
  6
CONTINUOUS
 62
              30
100
AcDbLine
 10
-336.49994639389195
 20
915.74993353408172
 30
0.0
 11
-337.51034639389195
 21
917.49993353408172
 31
0.0
  0
LINE
  5
4DC
100
AcDbEntity
  8
IMPORTED
  6
CONTINUOUS
 62
              30
100
AcDbLine
 10
-336.49994639389195
 20
913.74153353408178
 30
0.0
 11
-342.99994639389195
 21
913.74153353408178
 31
0.0
  0
LINE
  5
4DD
100
AcDbEntity
  8
IMPORTED
  6
CONTINUOUS
 62
              30
100
AcDbLine
 10
-336.49994639389195
 20
904.24993353408172
 30
0.0
 11
-337.51034639389195
 21
902.49993353408172
 31
0.0
  0
LINE
  5
4DE
100
AcDbEntity
  8
IMPORTED
  6
CONTINUOUS
 62
              30
100
AcDbLine
 10
-336.49994639389195
 20
906.2582335340818
 30
0.0
 11
-342.99994639389195
 21
906.2582335340818
 31
0.0
  0
SPLINE
  5
4DF
100
AcDbEntity
  8
IMPORTED
  6
STYLE_05
 62
              30
100
AcDbSpline
210
0.0
220
0.0
230
1.0
 70
              13
 71
               2
 72
              20
 73
              17
 74
               0
 42
0.000001
 43
0.000001
 40
0.0
 40
0.0
 40
0.0
 40
1.0
 40
1.0
 40
2.0
 40
2.0
 40
3.0
 40
3.0
 40
4.0
 40
4.0
 40
5.0
 40
5.0
 40
6.0
 40
6.0
 40
7.0
 40
7.0
 40
8.0
 40
8.0
 40
8.0
 10
-499.99994639389195
 20
894.49993353408172
 30
0.0
 41
1.0
 10
-499.86620144881186
 20
894.49993353408172
 30
0.0
 41
1.0
 10
-499.73245650373184
 20
894.49993353408172
 30
0.0
 41
1.0
 10
-497.51124639389195
 20
894.49993353408172
 30
0.0
 41
0.7475595788177931
 10
-497.24983073724388
 20
892.29416015349295
 30
0.0
 41
1.0
 10
-497.17313856556791
 20
891.64704684378728
 30
0.0
 41
1.0
 10
-497.09644639389194
 20
890.99993353408172
 30
0.0
 41
1.0
 10
-496.68164639389192
 20
887.49993353408172
 30
0.0
 41
1.0
 10
-497.09644639389194
 20
883.99993353408172
 30
0.0
 41
1.0
 10
-497.17313856556791
 20
883.35282022437616
 30
0.0
 41
1.0
 10
-497.24983073724388
 20
882.70570691467049
 30
0.0
 41
1.0
 10
-497.51124639389195
 20
880.49993353408172
 30
0.0
 41
0.7475595788177998
 10
-499.73245650373184
 20
880.49993353408172
 30
0.0
 41
1.0
 10
-499.86620144881186
 20
880.49993353408172
 30
0.0
 41
1.0
 10
-499.99994639389195
 20
880.49993353408172
 30
0.0
 41
1.0
 10
-499.99994639389195
 20
887.49993353408172
 30
0.0
 41
1.0
 10
-499.99994639389195
 20
894.49993353408172
 30
0.0
 41
1.0
  0
POLYLINE
  5
4E0
100
AcDbEntity
  8
IMPORTED
  6
STYLE_05
 62
              30
100
AcDb2dPolyline
 66
               1
 10
0.0
 20
0.0
 30
0.0
 70
               1
 75
               5
  0
VERTEX
  5
4E1
100
AcDbEntity
  8
IMPORTED
  6
STYLE_05
 62
              30
100
AcDbVertex
100
AcDb2dVertex
 10
-499.99994639389195
 20
890.06693353408173
 30
0.0
  0
VERTEX
  5
4E2
100
AcDbEntity
  8
IMPORTED
  6
STYLE_05
 62
              30
100
AcDbVertex
100
AcDb2dVertex
 10
-499.99994639389195
 20
884.93293353408171
 30
0.0
  0
VERTEX
  5
4E3
100
AcDbEntity
  8
IMPORTED
  6
STYLE_05
 62
              30
100
AcDbVertex
100
AcDb2dVertex
 10
-514.99994639389206
 20
884.93293353408171
 30
0.0
  0
VERTEX
  5
4E4
100
AcDbEntity
  8
IMPORTED
  6
STYLE_05
 62
              30
100
AcDbVertex
100
AcDb2dVertex
 10
-524.44614639389204
 20
887.49993353408172
 30
0.0
  0
VERTEX
  5
4E5
100
AcDbEntity
  8
IMPORTED
  6
STYLE_05
 62
              30
100
AcDbVertex
100
AcDb2dVertex
 10
-514.99994639389206
 20
890.06693353408173
 30
0.0
  0
SEQEND
  5
4E6
100
AcDbEntity
  8
IMPORTED
  6
STYLE_05
 62
              30
  0
SPLINE
  5
4E8
100
AcDbEntity
  8
IMPORTED
  6
STYLE_05
 62
              30
100
AcDbSpline
210
0.0
220
0.0
230
1.0
 70
              13
 71
               2
 72
              20
 73
              17
 74
               0
 42
0.000001
 43
0.000001
 40
0.0
 40
0.0
 40
0.0
 40
1.0
 40
1.0
 40
2.0
 40
2.0
 40
3.0
 40
3.0
 40
4.0
 40
4.0
 40
5.0
 40
5.0
 40
6.0
 40
6.0
 40
7.0
 40
7.0
 40
8.0
 40
8.0
 40
8.0
 10
-399.99994639389195
 20
894.49993353408172
 30
0.0
 41
1.0
 10
-400.13369133897203
 20
894.49993353408172
 30
0.0
 41
1.0
 10
-400.26743628405205
 20
894.49993353408172
 30
0.0
 41
1.0
 10
-402.48864639389188
 20
894.49993353408172
 30
0.0
 41
0.7475595788177998
 10
-402.75006205054001
 20
892.29416015349295
 30
0.0
 41
1.0
 10
-402.82675422221598
 20
891.64704684378728
 30
0.0
 41
1.0
 10
-402.90344639389195
 20
890.99993353408172
 30
0.0
 41
1.0
 10
-403.31824639389197
 20
887.49993353408172
 30
0.0
 41
1.0
 10
-402.90344639389195
 20
883.99993353408172
 30
0.0
 41
1.0
 10
-402.82675422221598
 20
883.35282022437616
 30
0.0
 41
1.0
 10
-402.75006205054001
 20
882.70570691467049
 30
0.0
 41
1.0
 10
-402.48864639389188
 20
880.49993353408172
 30
0.0
 41
0.7475595788177931
 10
-400.26743628405205
 20
880.49993353408172
 30
0.0
 41
1.0
 10
-400.13369133897203
 20
880.49993353408172
 30
0.0
 41
1.0
 10
-399.99994639389195
 20
880.49993353408172
 30
0.0
 41
1.0
 10
-399.99994639389195
 20
887.49993353408172
 30
0.0
 41
1.0
 10
-399.99994639389195
 20
894.49993353408172
 30
0.0
 41
1.0
  0
POLYLINE
  5
4E9
100
AcDbEntity
  8
IMPORTED
  6
STYLE_05
 62
              30
100
AcDb2dPolyline
 66
               1
 10
0.0
 20
0.0
 30
0.0
 70
               1
 75
               5
  0
VERTEX
  5
4EA
100
AcDbEntity
  8
IMPORTED
  6
STYLE_05
 62
              30
100
AcDbVertex
100
AcDb2dVertex
 10
-399.99994639389195
 20
890.06693353408173
 30
0.0
  0
VERTEX
  5
4EB
100
AcDbEntity
  8
IMPORTED
  6
STYLE_05
 62
              30
100
AcDbVertex
100
AcDb2dVertex
 10
-399.99994639389195
 20
884.93293353408171
 30
0.0
  0
VERTEX
  5
4EC
100
AcDbEntity
  8
IMPORTED
  6
STYLE_05
 62
              30
100
AcDbVertex
100
AcDb2dVertex
 10
-384.99994639389195
 20
884.93293353408171
 30
0.0
  0
VERTEX
  5
4ED
100
AcDbEntity
  8
IMPORTED
  6
STYLE_05
 62
              30
100
AcDbVertex
100
AcDb2dVertex
 10
-375.55374639389197
 20
887.49993353408172
 30
0.0
  0
VERTEX
  5
4EE
100
AcDbEntity
  8
IMPORTED
  6
STYLE_05
 62
              30
100
AcDbVertex
100
AcDb2dVertex
 10
-384.99994639389195
 20
890.06693353408173
 30
0.0
  0
SEQEND
  5
4EF
100
AcDbEntity
  8
IMPORTED
  6
STYLE_05
 62
              30
  0
POLYLINE
  5
4F1
100
AcDbEntity
  8
IMPORTED
  6
CONTINUOUS
 62
              30
100
AcDb2dPolyline
 66
               1
 10
0.0
 20
0.0
 30
0.0
 70
               1
 75
               5
  0
VERTEX
  5
4F2
100
AcDbEntity
  8
IMPORTED
  6
CONTINUOUS
 62
              30
100
AcDbVertex
100
AcDb2dVertex
 10
-344.99994639389195
 20
934.99993353408172
 30
0.0
  0
VERTEX
  5
4F3
100
AcDbEntity
  8
IMPORTED
  6
CONTINUOUS
 62
              30
100
AcDbVertex
100
AcDb2dVertex
 10
-344.99994639389195
 20
844.99993353408172
 30
0.0
  0
VERTEX
  5
4F4
100
AcDbEntity
  8
IMPORTED
  6
CONTINUOUS
 62
              30
100
AcDbVertex
100
AcDb2dVertex
 10
-349.99994639389195
 20
839.99993353408172
 30
0.0
  0
VERTEX
  5
4F5
100
AcDbEntity
  8
IMPORTED
  6
CONTINUOUS
 62
              30
100
AcDbVertex
100
AcDb2dVertex
 10
-389.99994639389195
 20
839.99993353408172
 30
0.0
  0
VERTEX
  5
4F6
100
AcDbEntity
  8
IMPORTED
  6
CONTINUOUS
 62
              30
100
AcDbVertex
100
AcDb2dVertex
 10
-394.99994639389195
 20
844.99993353408172
 30
0.0
  0
VERTEX
  5
4F7
100
AcDbEntity
  8
IMPORTED
  6
CONTINUOUS
 62
              30
100
AcDbVertex
100
AcDb2dVertex
 10
-394.99994639389195
 20
934.99993353408172
 30
0.0
  0
SEQEND
  5
4F8
100
AcDbEntity
  8
IMPORTED
  6
CONTINUOUS
 62
              30
  0
POLYLINE
  5
4FA
100
AcDbEntity
  8
IMPORTED
  6
STYLE_05
 62
              30
100
AcDb2dPolyline
 66
               1
 10
0.0
 20
0.0
 30
0.0
 70
             129
  0
VERTEX
  5
4FB
100
AcDbEntity
  8
IMPORTED
  6
STYLE_05
 62
              30
100
AcDbVertex
100
AcDb2dVertex
 10
-554.99994639389206
 20
860.99993353408172
 30
0.0
  0
VERTEX
  5
4FC
100
AcDbEntity
  8
IMPORTED
  6
STYLE_05
 62
              30
100
AcDbVertex
100
AcDb2dVertex
 10
-344.99994639389195
 20
860.99993353408172
 30
0.0
  0
VERTEX
  5
4FD
100
AcDbEntity
  8
IMPORTED
  6
STYLE_05
 62
              30
100
AcDbVertex
100
AcDb2dVertex
 10
-344.99994639389195
 20
868.99993353408172
 30
0.0
  0
VERTEX
  5
4FE
100
AcDbEntity
  8
IMPORTED
  6
STYLE_05
 62
              30
100
AcDbVertex
100
AcDb2dVertex
 10
-554.99994639389206
 20
868.99993353408172
 30
0.0
  0
SEQEND
  5
4FF
100
AcDbEntity
  8
IMPORTED
  6
STYLE_05
 62
              30
  0
POLYLINE
  5
500
100
AcDbEntity
  8
IMPORTED
  6
CONTINUOUS
 62
              30
100
AcDb2dPolyline
 66
               1
 10
0.0
 20
0.0
 30
0.0
 70
             129
  0
VERTEX
  5
501
100
AcDbEntity
  8
IMPORTED
  6
CONTINUOUS
 62
              30
100
AcDbVertex
100
AcDb2dVertex
 10
-554.99994639389206
 20
856.99993353408172
 30
0.0
  0
VERTEX
  5
502
100
AcDbEntity
  8
IMPORTED
  6
CONTINUOUS
 62
              30
100
AcDbVertex
100
AcDb2dVertex
 10
-556.99994639389206
 20
856.99993353408172
 30
0.0
  0
VERTEX
  5
503
100
AcDbEntity
  8
IMPORTED
  6
CONTINUOUS
 62
              30
100
AcDbVertex
100
AcDb2dVertex
 10
-556.99994639389206
 20
872.99993353408172
 30
0.0
  0
VERTEX
  5
504
100
AcDbEntity
  8
IMPORTED
  6
CONTINUOUS
 62
              30
100
AcDbVertex
100
AcDb2dVertex
 10
-554.99994639389206
 20
872.99993353408172
 30
0.0
  0
SEQEND
  5
505
100
AcDbEntity
  8
IMPORTED
  6
CONTINUOUS
 62
              30
  0
LINE
  5
506
100
AcDbEntity
  8
IMPORTED
  6
CONTINUOUS
 62
              30
100
AcDbLine
 10
-563.74994639389206
 20
859.24993353408172
 30
0.0
 11
-563.49994639389206
 21
859.24993353408172
 31
0.0
  0
LINE
  5
507
100
AcDbEntity
  8
IMPORTED
  6
CONTINUOUS
 62
              30
100
AcDbLine
 10
-563.74994639389206
 20
870.74993353408172
 30
0.0
 11
-563.49994639389206
 21
870.74993353408172
 31
0.0
  0
LINE
  5
508
100
AcDbEntity
  8
IMPORTED
  6
CONTINUOUS
 62
              30
100
AcDbLine
 10
-563.49994639389206
 20
859.24993353408172
 30
0.0
 11
-563.49994639389206
 21
870.74993353408172
 31
0.0
  0
ARC
  5
509
100
AcDbEntity
  8
IMPORTED
  6
CONTINUOUS
 62
              30
100
AcDbCircle
 10
-563.74994639389206
 20
864.99993353408172
 30
0.0
 40
5.75
100
AcDbArc
 50
90.0
 51
270.0
  0
LINE
  5
50A
100
AcDbEntity
  8
IMPORTED
  6
CONTINUOUS
 62
              30
100
AcDbLine
 10
-562.48954639389206
 20
857.49993353408172
 30
0.0
 11
-558.01034639389206
 21
857.49993353408172
 31
0.0
  0
LINE
  5
50B
100
AcDbEntity
  8
IMPORTED
  6
CONTINUOUS
 62
              30
100
AcDbLine
 10
-556.99994639389206
 20
859.24993353408172
 30
0.0
 11
-558.01034639389206
 21
857.49993353408172
 31
0.0
  0
LINE
  5
50C
100
AcDbEntity
  8
IMPORTED
  6
CONTINUOUS
 62
              30
100
AcDbLine
 10
-562.48954639389206
 20
872.49993353408172
 30
0.0
 11
-558.01034639389206
 21
872.49993353408172
 31
0.0
  0
LINE
  5
50D
100
AcDbEntity
  8
IMPORTED
  6
CONTINUOUS
 62
              30
100
AcDbLine
 10
-556.99994639389206
 20
870.74993353408172
 30
0.0
 11
-558.01034639389206
 21
872.49993353408172
 31
0.0
  0
LINE
  5
50E
100
AcDbEntity
  8
IMPORTED
  6
CONTINUOUS
 62
              30
100
AcDbLine
 10
-556.99994639389206
 20
859.24993353408172
 30
0.0
 11
-556.99994639389206
 21
870.74993353408172
 31
0.0
  0
LINE
  5
50F
100
AcDbEntity
  8
IMPORTED
  6
CONTINUOUS
 62
              30
100
AcDbLine
 10
-563.49994639389206
 20
859.24993353408172
 30
0.0
 11
-562.48954639389206
 21
857.49993353408172
 31
0.0
  0
LINE
  5
510
100
AcDbEntity
  8
IMPORTED
  6
CONTINUOUS
 62
              30
100
AcDbLine
 10
-563.49994639389206
 20
861.25833353408177
 30
0.0
 11
-556.99994639389206
 21
861.25833353408177
 31
0.0
  0
LINE
  5
511
100
AcDbEntity
  8
IMPORTED
  6
CONTINUOUS
 62
              30
100
AcDbLine
 10
-563.49994639389206
 20
870.74993353408172
 30
0.0
 11
-562.48954639389206
 21
872.49993353408172
 31
0.0
  0
LINE
  5
512
100
AcDbEntity
  8
IMPORTED
  6
CONTINUOUS
 62
              30
100
AcDbLine
 10
-563.49994639389206
 20
868.74163353408176
 30
0.0
 11
-556.99994639389206
 21
868.74163353408176
 31
0.0
  0
POLYLINE
  5
513
100
AcDbEntity
  8
IMPORTED
  6
CONTINUOUS
 62
              30
100
AcDb2dPolyline
 66
               1
 10
0.0
 20
0.0
 30
0.0
 70
             129
  0
VERTEX
  5
514
100
AcDbEntity
  8
IMPORTED
  6
CONTINUOUS
 62
              30
100
AcDbVertex
100
AcDb2dVertex
 10
-344.99994639389195
 20
856.99993353408172
 30
0.0
  0
VERTEX
  5
515
100
AcDbEntity
  8
IMPORTED
  6
CONTINUOUS
 62
              30
100
AcDbVertex
100
AcDb2dVertex
 10
-342.99994639389195
 20
856.99993353408172
 30
0.0
  0
VERTEX
  5
516
100
AcDbEntity
  8
IMPORTED
  6
CONTINUOUS
 62
              30
100
AcDbVertex
100
AcDb2dVertex
 10
-342.99994639389195
 20
872.99993353408172
 30
0.0
  0
VERTEX
  5
517
100
AcDbEntity
  8
IMPORTED
  6
CONTINUOUS
 62
              30
100
AcDbVertex
100
AcDb2dVertex
 10
-344.99994639389195
 20
872.99993353408172
 30
0.0
  0
SEQEND
  5
518
100
AcDbEntity
  8
IMPORTED
  6
CONTINUOUS
 62
              30
  0
LINE
  5
519
100
AcDbEntity
  8
IMPORTED
  6
CONTINUOUS
 62
              30
100
AcDbLine
 10
-336.24994639389195
 20
859.24993353408172
 30
0.0
 11
-336.49994639389195
 21
859.24993353408172
 31
0.0
  0
LINE
  5
51A
100
AcDbEntity
  8
IMPORTED
  6
CONTINUOUS
 62
              30
100
AcDbLine
 10
-336.24994639389195
 20
870.74993353408172
 30
0.0
 11
-336.49994639389195
 21
870.74993353408172
 31
0.0
  0
LINE
  5
51B
100
AcDbEntity
  8
IMPORTED
  6
CONTINUOUS
 62
              30
100
AcDbLine
 10
-336.49994639389195
 20
859.24993353408172
 30
0.0
 11
-336.49994639389195
 21
870.74993353408172
 31
0.0
  0
ARC
  5
51C
100
AcDbEntity
  8
IMPORTED
  6
CONTINUOUS
 62
              30
100
AcDbCircle
 10
-336.24994639389195
 20
864.99993353408172
 30
0.0
 40
5.75
100
AcDbArc
 50
270.0
 51
90.0
  0
LINE
  5
51D
100
AcDbEntity
  8
IMPORTED
  6
CONTINUOUS
 62
              30
100
AcDbLine
 10
-337.51034639389195
 20
857.49993353408172
 30
0.0
 11
-341.989546393892
 21
857.49993353408172
 31
0.0
  0
LINE
  5
51E
100
AcDbEntity
  8
IMPORTED
  6
CONTINUOUS
 62
              30
100
AcDbLine
 10
-342.99994639389195
 20
859.24993353408172
 30
0.0
 11
-341.989546393892
 21
857.49993353408172
 31
0.0
  0
LINE
  5
51F
100
AcDbEntity
  8
IMPORTED
  6
CONTINUOUS
 62
              30
100
AcDbLine
 10
-337.51034639389195
 20
872.49993353408172
 30
0.0
 11
-341.989546393892
 21
872.49993353408172
 31
0.0
  0
LINE
  5
520
100
AcDbEntity
  8
IMPORTED
  6
CONTINUOUS
 62
              30
100
AcDbLine
 10
-342.99994639389195
 20
870.74993353408172
 30
0.0
 11
-341.989546393892
 21
872.49993353408172
 31
0.0
  0
LINE
  5
521
100
AcDbEntity
  8
IMPORTED
  6
CONTINUOUS
 62
              30
100
AcDbLine
 10
-342.99994639389195
 20
859.24993353408172
 30
0.0
 11
-342.99994639389195
 21
870.74993353408172
 31
0.0
  0
LINE
  5
522
100
AcDbEntity
  8
IMPORTED
  6
CONTINUOUS
 62
              30
100
AcDbLine
 10
-336.49994639389195
 20
859.24993353408172
 30
0.0
 11
-337.51034639389195
 21
857.49993353408172
 31
0.0
  0
LINE
  5
523
100
AcDbEntity
  8
IMPORTED
  6
CONTINUOUS
 62
              30
100
AcDbLine
 10
-336.49994639389195
 20
861.25833353408177
 30
0.0
 11
-342.99994639389195
 21
861.25833353408177
 31
0.0
  0
LINE
  5
524
100
AcDbEntity
  8
IMPORTED
  6
CONTINUOUS
 62
              30
100
AcDbLine
 10
-336.49994639389195
 20
870.74993353408172
 30
0.0
 11
-337.51034639389195
 21
872.49993353408172
 31
0.0
  0
LINE
  5
525
100
AcDbEntity
  8
IMPORTED
  6
CONTINUOUS
 62
              30
100
AcDbLine
 10
-336.49994639389195
 20
868.74163353408176
 30
0.0
 11
-342.99994639389195
 21
868.74163353408176
 31
0.0
  0
POLYLINE
  5
526
100
AcDbEntity
  8
IMPORTED
  6
CONTINUOUS
 62
              30
100
AcDb2dPolyline
 66
               1
 10
0.0
 20
0.0
 30
0.0
 70
               1
 75
               5
  0
VERTEX
  5
527
100
AcDbEntity
  8
IMPORTED
  6
CONTINUOUS
 62
              30
100
AcDbVertex
100
AcDb2dVertex
 10
-1604.9999463938918
 20
854.99993353408172
 30
0.0
  0
VERTEX
  5
528
100
AcDbEntity
  8
IMPORTED
  6
CONTINUOUS
 62
              30
100
AcDbVertex
100
AcDb2dVertex
 10
-1604.9999463938918
 20
929.99993353408172
 30
0.0
  0
VERTEX
  5
529
100
AcDbEntity
  8
IMPORTED
  6
CONTINUOUS
 62
              30
100
AcDbVertex
100
AcDb2dVertex
 10
-1604.9999463938918
 20
934.99993353408172
 30
0.0
  0
VERTEX
  5
52A
100
AcDbEntity
  8
IMPORTED
  6
CONTINUOUS
 62
              30
100
AcDbVertex
100
AcDb2dVertex
 10
-1599.9999463938918
 20
934.99993353408172
 30
0.0
  0
VERTEX
  5
52B
100
AcDbEntity
  8
IMPORTED
  6
CONTINUOUS
 62
              30
100
AcDbVertex
100
AcDb2dVertex
 10
-1499.9999463938918
 20
934.99993353408172
 30
0.0
  0
VERTEX
  5
52C
100
AcDbEntity
  8
IMPORTED
  6
CONTINUOUS
 62
              30
100
AcDbVertex
100
AcDb2dVertex
 10
-1494.9999463938918
 20
934.99993353408172
 30
0.0
  0
VERTEX
  5
52D
100
AcDbEntity
  8
IMPORTED
  6
CONTINUOUS
 62
              30
100
AcDbVertex
100
AcDb2dVertex
 10
-1494.9999463938918
 20
929.99993353408172
 30
0.0
  0
VERTEX
  5
52E
100
AcDbEntity
  8
IMPORTED
  6
CONTINUOUS
 62
              30
100
AcDbVertex
100
AcDb2dVertex
 10
-1494.9999463938918
 20
854.99993353408172
 30
0.0
  0
VERTEX
  5
52F
100
AcDbEntity
  8
IMPORTED
  6
CONTINUOUS
 62
              30
100
AcDbVertex
100
AcDb2dVertex
 10
-1499.9999463938918
 20
854.99993353408172
 30
0.0
  0
VERTEX
  5
530
100
AcDbEntity
  8
IMPORTED
  6
CONTINUOUS
 62
              30
100
AcDbVertex
100
AcDb2dVertex
 10
-1499.9999463938918
 20
929.99993353408172
 30
0.0
  0
VERTEX
  5
531
100
AcDbEntity
  8
IMPORTED
  6
CONTINUOUS
 62
              30
100
AcDbVertex
100
AcDb2dVertex
 10
-1599.9999463938918
 20
929.99993353408172
 30
0.0
  0
VERTEX
  5
532
100
AcDbEntity
  8
IMPORTED
  6
CONTINUOUS
 62
              30
100
AcDbVertex
100
AcDb2dVertex
 10
-1599.9999463938918
 20
854.99993353408172
 30
0.0
  0
SEQEND
  5
533
100
AcDbEntity
  8
IMPORTED
  6
CONTINUOUS
 62
              30
  0
POLYLINE
  5
535
100
AcDbEntity
  8
IMPORTED
  6
STYLE_05
 62
              30
100
AcDb2dPolyline
 66
               1
 10
0.0
 20
0.0
 30
0.0
 70
             129
  0
VERTEX
  5
536
100
AcDbEntity
  8
IMPORTED
  6
STYLE_05
 62
              30
100
AcDbVertex
100
AcDb2dVertex
 10
-1609.9999463938918
 20
849.99993353408172
 30
0.0
  0
VERTEX
  5
537
100
AcDbEntity
  8
IMPORTED
  6
STYLE_05
 62
              30
100
AcDbVertex
100
AcDb2dVertex
 10
-1609.9999463938918
 20
870.99993353408172
 30
0.0
  0
VERTEX
  5
538
100
AcDbEntity
  8
IMPORTED
  6
STYLE_05
 62
              30
100
AcDbVertex
100
AcDb2dVertex
 10
-1649.9999463938918
 20
870.99993353408172
 30
0.0
  0
VERTEX
  5
539
100
AcDbEntity
  8
IMPORTED
  6
STYLE_05
 62
              30
100
AcDbVertex
100
AcDb2dVertex
 10
-1649.9999463938918
 20
849.99993353408172
 30
0.0
  0
VERTEX
  5
53A
100
AcDbEntity
  8
IMPORTED
  6
STYLE_05
 62
              30
100
AcDbVertex
100
AcDb2dVertex
 10
-1644.9999463938918
 20
844.99993353408172
 30
0.0
  0
VERTEX
  5
53B
100
AcDbEntity
  8
IMPORTED
  6
STYLE_05
 62
              30
100
AcDbVertex
100
AcDb2dVertex
 10
-1614.9999463938918
 20
844.99993353408172
 30
0.0
  0
SEQEND
  5
53C
100
AcDbEntity
  8
IMPORTED
  6
STYLE_05
 62
              30
  0
POLYLINE
  5
53D
100
AcDbEntity
  8
IMPORTED
  6
CONTINUOUS
 62
              30
100
AcDb2dPolyline
 66
               1
 10
0.0
 20
0.0
 30
0.0
 70
               1
 75
               5
  0
VERTEX
  5
53E
100
AcDbEntity
  8
IMPORTED
  6
CONTINUOUS
 62
              30
100
AcDbVertex
100
AcDb2dVertex
 10
-1654.9999463938918
 20
934.99993353408172
 30
0.0
  0
VERTEX
  5
53F
100
AcDbEntity
  8
IMPORTED
  6
CONTINUOUS
 62
              30
100
AcDbVertex
100
AcDb2dVertex
 10
-1654.9999463938918
 20
844.99993353408172
 30
0.0
  0
VERTEX
  5
540
100
AcDbEntity
  8
IMPORTED
  6
CONTINUOUS
 62
              30
100
AcDbVertex
100
AcDb2dVertex
 10
-1649.9999463938918
 20
839.99993353408172
 30
0.0
  0
VERTEX
  5
541
100
AcDbEntity
  8
IMPORTED
  6
CONTINUOUS
 62
              30
100
AcDbVertex
100
AcDb2dVertex
 10
-1609.9999463938918
 20
839.99993353408172
 30
0.0
  0
VERTEX
  5
542
100
AcDbEntity
  8
IMPORTED
  6
CONTINUOUS
 62
              30
100
AcDbVertex
100
AcDb2dVertex
 10
-1604.9999463938918
 20
844.99993353408172
 30
0.0
  0
VERTEX
  5
543
100
AcDbEntity
  8
IMPORTED
  6
CONTINUOUS
 62
              30
100
AcDbVertex
100
AcDb2dVertex
 10
-1604.9999463938918
 20
934.99993353408172
 30
0.0
  0
SEQEND
  5
544
100
AcDbEntity
  8
IMPORTED
  6
CONTINUOUS
 62
              30
  0
POLYLINE
  5
546
100
AcDbEntity
  8
IMPORTED
  6
STYLE_05
 62
              30
100
AcDb2dPolyline
 66
               1
 10
0.0
 20
0.0
 30
0.0
 70
             129
  0
VERTEX
  5
547
100
AcDbEntity
  8
IMPORTED
  6
STYLE_05
 62
              30
100
AcDbVertex
100
AcDb2dVertex
 10
-1449.9999463938918
 20
849.99993353408172
 30
0.0
  0
VERTEX
  5
548
100
AcDbEntity
  8
IMPORTED
  6
STYLE_05
 62
              30
100
AcDbVertex
100
AcDb2dVertex
 10
-1449.9999463938918
 20
870.99993353408172
 30
0.0
  0
VERTEX
  5
549
100
AcDbEntity
  8
IMPORTED
  6
STYLE_05
 62
              30
100
AcDbVertex
100
AcDb2dVertex
 10
-1489.9999463938918
 20
870.99993353408172
 30
0.0
  0
VERTEX
  5
54A
100
AcDbEntity
  8
IMPORTED
  6
STYLE_05
 62
              30
100
AcDbVertex
100
AcDb2dVertex
 10
-1489.9999463938918
 20
849.99993353408172
 30
0.0
  0
VERTEX
  5
54B
100
AcDbEntity
  8
IMPORTED
  6
STYLE_05
 62
              30
100
AcDbVertex
100
AcDb2dVertex
 10
-1484.9999463938918
 20
844.99993353408172
 30
0.0
  0
VERTEX
  5
54C
100
AcDbEntity
  8
IMPORTED
  6
STYLE_05
 62
              30
100
AcDbVertex
100
AcDb2dVertex
 10
-1454.9999463938918
 20
844.99993353408172
 30
0.0
  0
SEQEND
  5
54D
100
AcDbEntity
  8
IMPORTED
  6
STYLE_05
 62
              30
  0
POLYLINE
  5
54E
100
AcDbEntity
  8
IMPORTED
  6
STYLE_05
 62
              30
100
AcDb2dPolyline
 66
               1
 10
0.0
 20
0.0
 30
0.0
 70
             129
  0
VERTEX
  5
54F
100
AcDbEntity
  8
IMPORTED
  6
STYLE_05
 62
              30
100
AcDbVertex
100
AcDb2dVertex
 10
-1654.9999463938918
 20
913.99993353408172
 30
0.0
  0
VERTEX
  5
550
100
AcDbEntity
  8
IMPORTED
  6
STYLE_05
 62
              30
100
AcDbVertex
100
AcDb2dVertex
 10
-1444.9999463938918
 20
913.99993353408172
 30
0.0
  0
VERTEX
  5
551
100
AcDbEntity
  8
IMPORTED
  6
STYLE_05
 62
              30
100
AcDbVertex
100
AcDb2dVertex
 10
-1444.9999463938918
 20
905.99993353408172
 30
0.0
  0
VERTEX
  5
552
100
AcDbEntity
  8
IMPORTED
  6
STYLE_05
 62
              30
100
AcDbVertex
100
AcDb2dVertex
 10
-1654.9999463938918
 20
905.99993353408172
 30
0.0
  0
SEQEND
  5
553
100
AcDbEntity
  8
IMPORTED
  6
STYLE_05
 62
              30
  0
POLYLINE
  5
554
100
AcDbEntity
  8
IMPORTED
  6
STYLE_05
 62
              30
100
AcDb2dPolyline
 66
               1
 10
0.0
 20
0.0
 30
0.0
 70
             129
  0
VERTEX
  5
555
100
AcDbEntity
  8
IMPORTED
  6
STYLE_05
 62
              30
100
AcDbVertex
100
AcDb2dVertex
 10
-1609.9999463938918
 20
899.99993353408172
 30
0.0
  0
VERTEX
  5
556
100
AcDbEntity
  8
IMPORTED
  6
STYLE_05
 62
              30
100
AcDbVertex
100
AcDb2dVertex
 10
-1609.9999463938918
 20
874.99993353408172
 30
0.0
  0
VERTEX
  5
557
100
AcDbEntity
  8
IMPORTED
  6
STYLE_05
 62
              30
100
AcDbVertex
100
AcDb2dVertex
 10
-1649.9999463938918
 20
874.99993353408172
 30
0.0
  0
VERTEX
  5
558
100
AcDbEntity
  8
IMPORTED
  6
STYLE_05
 62
              30
100
AcDbVertex
100
AcDb2dVertex
 10
-1649.9999463938918
 20
899.99993353408172
 30
0.0
  0
SEQEND
  5
559
100
AcDbEntity
  8
IMPORTED
  6
STYLE_05
 62
              30
  0
POLYLINE
  5
55A
100
AcDbEntity
  8
IMPORTED
  6
STYLE_05
 62
              30
100
AcDb2dPolyline
 66
               1
 10
0.0
 20
0.0
 30
0.0
 70
             129
  0
VERTEX
  5
55B
100
AcDbEntity
  8
IMPORTED
  6
STYLE_05
 62
              30
100
AcDbVertex
100
AcDb2dVertex
 10
-1609.9999463938918
 20
924.99993353408172
 30
0.0
  0
VERTEX
  5
55C
100
AcDbEntity
  8
IMPORTED
  6
STYLE_05
 62
              30
100
AcDbVertex
100
AcDb2dVertex
 10
-1609.9999463938918
 20
903.99993353408172
 30
0.0
  0
VERTEX
  5
55D
100
AcDbEntity
  8
IMPORTED
  6
STYLE_05
 62
              30
100
AcDbVertex
100
AcDb2dVertex
 10
-1649.9999463938918
 20
903.99993353408172
 30
0.0
  0
VERTEX
  5
55E
100
AcDbEntity
  8
IMPORTED
  6
STYLE_05
 62
              30
100
AcDbVertex
100
AcDb2dVertex
 10
-1649.9999463938918
 20
924.99993353408172
 30
0.0
  0
VERTEX
  5
55F
100
AcDbEntity
  8
IMPORTED
  6
STYLE_05
 62
              30
100
AcDbVertex
100
AcDb2dVertex
 10
-1644.9999463938918
 20
929.99993353408172
 30
0.0
  0
VERTEX
  5
560
100
AcDbEntity
  8
IMPORTED
  6
STYLE_05
 62
              30
100
AcDbVertex
100
AcDb2dVertex
 10
-1614.9999463938918
 20
929.99993353408172
 30
0.0
  0
SEQEND
  5
561
100
AcDbEntity
  8
IMPORTED
  6
STYLE_05
 62
              30
  0
POLYLINE
  5
562
100
AcDbEntity
  8
IMPORTED
  6
STYLE_05
 62
              30
100
AcDb2dPolyline
 66
               1
 10
0.0
 20
0.0
 30
0.0
 70
             129
  0
VERTEX
  5
563
100
AcDbEntity
  8
IMPORTED
  6
STYLE_05
 62
              30
100
AcDbVertex
100
AcDb2dVertex
 10
-1449.9999463938918
 20
924.99993353408172
 30
0.0
  0
VERTEX
  5
564
100
AcDbEntity
  8
IMPORTED
  6
STYLE_05
 62
              30
100
AcDbVertex
100
AcDb2dVertex
 10
-1449.9999463938918
 20
903.99993353408172
 30
0.0
  0
VERTEX
  5
565
100
AcDbEntity
  8
IMPORTED
  6
STYLE_05
 62
              30
100
AcDbVertex
100
AcDb2dVertex
 10
-1489.9999463938918
 20
903.99993353408172
 30
0.0
  0
VERTEX
  5
566
100
AcDbEntity
  8
IMPORTED
  6
STYLE_05
 62
              30
100
AcDbVertex
100
AcDb2dVertex
 10
-1489.9999463938918
 20
924.99993353408172
 30
0.0
  0
VERTEX
  5
567
100
AcDbEntity
  8
IMPORTED
  6
STYLE_05
 62
              30
100
AcDbVertex
100
AcDb2dVertex
 10
-1484.9999463938918
 20
929.99993353408172
 30
0.0
  0
VERTEX
  5
568
100
AcDbEntity
  8
IMPORTED
  6
STYLE_05
 62
              30
100
AcDbVertex
100
AcDb2dVertex
 10
-1454.9999463938918
 20
929.99993353408172
 30
0.0
  0
SEQEND
  5
569
100
AcDbEntity
  8
IMPORTED
  6
STYLE_05
 62
              30
  0
POLYLINE
  5
56A
100
AcDbEntity
  8
IMPORTED
  6
STYLE_05
 62
              30
100
AcDb2dPolyline
 66
               1
 10
0.0
 20
0.0
 30
0.0
 70
             129
  0
VERTEX
  5
56B
100
AcDbEntity
  8
IMPORTED
  6
STYLE_05
 62
              30
100
AcDbVertex
100
AcDb2dVertex
 10
-1449.9999463938918
 20
899.99993353408172
 30
0.0
  0
VERTEX
  5
56C
100
AcDbEntity
  8
IMPORTED
  6
STYLE_05
 62
              30
100
AcDbVertex
100
AcDb2dVertex
 10
-1449.9999463938918
 20
874.99993353408172
 30
0.0
  0
VERTEX
  5
56D
100
AcDbEntity
  8
IMPORTED
  6
STYLE_05
 62
              30
100
AcDbVertex
100
AcDb2dVertex
 10
-1489.9999463938918
 20
874.99993353408172
 30
0.0
  0
VERTEX
  5
56E
100
AcDbEntity
  8
IMPORTED
  6
STYLE_05
 62
              30
100
AcDbVertex
100
AcDb2dVertex
 10
-1489.9999463938918
 20
899.99993353408172
 30
0.0
  0
SEQEND
  5
56F
100
AcDbEntity
  8
IMPORTED
  6
STYLE_05
 62
              30
  0
POLYLINE
  5
570
100
AcDbEntity
  8
IMPORTED
  6
CONTINUOUS
 62
              30
100
AcDb2dPolyline
 66
               1
 10
0.0
 20
0.0
 30
0.0
 70
             129
  0
VERTEX
  5
571
100
AcDbEntity
  8
IMPORTED
  6
CONTINUOUS
 62
              30
100
AcDbVertex
100
AcDb2dVertex
 10
-1654.9999463938918
 20
917.99993353408172
 30
0.0
  0
VERTEX
  5
572
100
AcDbEntity
  8
IMPORTED
  6
CONTINUOUS
 62
              30
100
AcDbVertex
100
AcDb2dVertex
 10
-1656.9999463938918
 20
917.99993353408172
 30
0.0
  0
VERTEX
  5
573
100
AcDbEntity
  8
IMPORTED
  6
CONTINUOUS
 62
              30
100
AcDbVertex
100
AcDb2dVertex
 10
-1656.9999463938918
 20
901.99993353408172
 30
0.0
  0
VERTEX
  5
574
100
AcDbEntity
  8
IMPORTED
  6
CONTINUOUS
 62
              30
100
AcDbVertex
100
AcDb2dVertex
 10
-1654.9999463938918
 20
901.99993353408172
 30
0.0
  0
SEQEND
  5
575
100
AcDbEntity
  8
IMPORTED
  6
CONTINUOUS
 62
              30
  0
LINE
  5
576
100
AcDbEntity
  8
IMPORTED
  6
CONTINUOUS
 62
              30
100
AcDbLine
 10
-1663.7499463938918
 20
915.74993353408172
 30
0.0
 11
-1663.4999463938918
 21
915.74993353408172
 31
0.0
  0
LINE
  5
577
100
AcDbEntity
  8
IMPORTED
  6
CONTINUOUS
 62
              30
100
AcDbLine
 10
-1663.7499463938918
 20
904.24993353408172
 30
0.0
 11
-1663.4999463938918
 21
904.24993353408172
 31
0.0
  0
LINE
  5
578
100
AcDbEntity
  8
IMPORTED
  6
CONTINUOUS
 62
              30
100
AcDbLine
 10
-1663.4999463938918
 20
915.74993353408172
 30
0.0
 11
-1663.4999463938918
 21
904.24993353408172
 31
0.0
  0
ARC
  5
579
100
AcDbEntity
  8
IMPORTED
  6
CONTINUOUS
 62
              30
100
AcDbCircle
 10
-1663.7499463938918
 20
909.99993353408172
 30
0.0
 40
5.75
100
AcDbArc
 50
90.0
 51
270.0
  0
LINE
  5
57A
100
AcDbEntity
  8
IMPORTED
  6
CONTINUOUS
 62
              30
100
AcDbLine
 10
-1662.4895463938917
 20
917.49993353408172
 30
0.0
 11
-1658.0103463938917
 21
917.49993353408172
 31
0.0
  0
LINE
  5
57B
100
AcDbEntity
  8
IMPORTED
  6
CONTINUOUS
 62
              30
100
AcDbLine
 10
-1656.9999463938918
 20
915.74993353408172
 30
0.0
 11
-1658.0103463938917
 21
917.49993353408172
 31
0.0
  0
LINE
  5
57C
100
AcDbEntity
  8
IMPORTED
  6
CONTINUOUS
 62
              30
100
AcDbLine
 10
-1662.4895463938917
 20
902.49993353408172
 30
0.0
 11
-1658.0103463938917
 21
902.49993353408172
 31
0.0
  0
LINE
  5
57D
100
AcDbEntity
  8
IMPORTED
  6
CONTINUOUS
 62
              30
100
AcDbLine
 10
-1656.9999463938918
 20
904.24993353408172
 30
0.0
 11
-1658.0103463938917
 21
902.49993353408172
 31
0.0
  0
LINE
  5
57E
100
AcDbEntity
  8
IMPORTED
  6
CONTINUOUS
 62
              30
100
AcDbLine
 10
-1656.9999463938918
 20
915.74993353408172
 30
0.0
 11
-1656.9999463938918
 21
904.24993353408172
 31
0.0
  0
LINE
  5
57F
100
AcDbEntity
  8
IMPORTED
  6
CONTINUOUS
 62
              30
100
AcDbLine
 10
-1663.4999463938918
 20
915.74993353408172
 30
0.0
 11
-1662.4895463938917
 21
917.49993353408172
 31
0.0
  0
LINE
  5
580
100
AcDbEntity
  8
IMPORTED
  6
CONTINUOUS
 62
              30
100
AcDbLine
 10
-1663.4999463938918
 20
913.74153353408178
 30
0.0
 11
-1656.9999463938918
 21
913.74153353408178
 31
0.0
  0
LINE
  5
581
100
AcDbEntity
  8
IMPORTED
  6
CONTINUOUS
 62
              30
100
AcDbLine
 10
-1663.4999463938918
 20
904.24993353408172
 30
0.0
 11
-1662.4895463938917
 21
902.49993353408172
 31
0.0
  0
LINE
  5
582
100
AcDbEntity
  8
IMPORTED
  6
CONTINUOUS
 62
              30
100
AcDbLine
 10
-1663.4999463938918
 20
906.2582335340818
 30
0.0
 11
-1656.9999463938918
 21
906.2582335340818
 31
0.0
  0
POLYLINE
  5
583
100
AcDbEntity
  8
IMPORTED
  6
CONTINUOUS
 62
              30
100
AcDb2dPolyline
 66
               1
 10
0.0
 20
0.0
 30
0.0
 70
             129
  0
VERTEX
  5
584
100
AcDbEntity
  8
IMPORTED
  6
CONTINUOUS
 62
              30
100
AcDbVertex
100
AcDb2dVertex
 10
-1444.9999463938918
 20
917.99993353408172
 30
0.0
  0
VERTEX
  5
585
100
AcDbEntity
  8
IMPORTED
  6
CONTINUOUS
 62
              30
100
AcDbVertex
100
AcDb2dVertex
 10
-1442.9999463938918
 20
917.99993353408172
 30
0.0
  0
VERTEX
  5
586
100
AcDbEntity
  8
IMPORTED
  6
CONTINUOUS
 62
              30
100
AcDbVertex
100
AcDb2dVertex
 10
-1442.9999463938918
 20
901.99993353408172
 30
0.0
  0
VERTEX
  5
587
100
AcDbEntity
  8
IMPORTED
  6
CONTINUOUS
 62
              30
100
AcDbVertex
100
AcDb2dVertex
 10
-1444.9999463938918
 20
901.99993353408172
 30
0.0
  0
SEQEND
  5
588
100
AcDbEntity
  8
IMPORTED
  6
CONTINUOUS
 62
              30
  0
LINE
  5
589
100
AcDbEntity
  8
IMPORTED
  6
CONTINUOUS
 62
              30
100
AcDbLine
 10
-1436.2499463938918
 20
915.74993353408172
 30
0.0
 11
-1436.4999463938918
 21
915.74993353408172
 31
0.0
  0
LINE
  5
58A
100
AcDbEntity
  8
IMPORTED
  6
CONTINUOUS
 62
              30
100
AcDbLine
 10
-1436.2499463938918
 20
904.24993353408172
 30
0.0
 11
-1436.4999463938918
 21
904.24993353408172
 31
0.0
  0
LINE
  5
58B
100
AcDbEntity
  8
IMPORTED
  6
CONTINUOUS
 62
              30
100
AcDbLine
 10
-1436.4999463938918
 20
915.74993353408172
 30
0.0
 11
-1436.4999463938918
 21
904.24993353408172
 31
0.0
  0
ARC
  5
58C
100
AcDbEntity
  8
IMPORTED
  6
CONTINUOUS
 62
              30
100
AcDbCircle
 10
-1436.2499463938918
 20
909.99993353408172
 30
0.0
 40
5.75
100
AcDbArc
 50
270.0
 51
90.0
  0
LINE
  5
58D
100
AcDbEntity
  8
IMPORTED
  6
CONTINUOUS
 62
              30
100
AcDbLine
 10
-1437.5103463938917
 20
917.49993353408172
 30
0.0
 11
-1441.9895463938917
 21
917.49993353408172
 31
0.0
  0
LINE
  5
58E
100
AcDbEntity
  8
IMPORTED
  6
CONTINUOUS
 62
              30
100
AcDbLine
 10
-1442.9999463938918
 20
915.74993353408172
 30
0.0
 11
-1441.9895463938917
 21
917.49993353408172
 31
0.0
  0
LINE
  5
58F
100
AcDbEntity
  8
IMPORTED
  6
CONTINUOUS
 62
              30
100
AcDbLine
 10
-1437.5103463938917
 20
902.49993353408172
 30
0.0
 11
-1441.9895463938917
 21
902.49993353408172
 31
0.0
  0
LINE
  5
590
100
AcDbEntity
  8
IMPORTED
  6
CONTINUOUS
 62
              30
100
AcDbLine
 10
-1442.9999463938918
 20
904.24993353408172
 30
0.0
 11
-1441.9895463938917
 21
902.49993353408172
 31
0.0
  0
LINE
  5
591
100
AcDbEntity
  8
IMPORTED
  6
CONTINUOUS
 62
              30
100
AcDbLine
 10
-1442.9999463938918
 20
915.74993353408172
 30
0.0
 11
-1442.9999463938918
 21
904.24993353408172
 31
0.0
  0
LINE
  5
592
100
AcDbEntity
  8
IMPORTED
  6
CONTINUOUS
 62
              30
100
AcDbLine
 10
-1436.4999463938918
 20
915.74993353408172
 30
0.0
 11
-1437.5103463938917
 21
917.49993353408172
 31
0.0
  0
LINE
  5
593
100
AcDbEntity
  8
IMPORTED
  6
CONTINUOUS
 62
              30
100
AcDbLine
 10
-1436.4999463938918
 20
913.74153353408178
 30
0.0
 11
-1442.9999463938918
 21
913.74153353408178
 31
0.0
  0
LINE
  5
594
100
AcDbEntity
  8
IMPORTED
  6
CONTINUOUS
 62
              30
100
AcDbLine
 10
-1436.4999463938918
 20
904.24993353408172
 30
0.0
 11
-1437.5103463938917
 21
902.49993353408172
 31
0.0
  0
LINE
  5
595
100
AcDbEntity
  8
IMPORTED
  6
CONTINUOUS
 62
              30
100
AcDbLine
 10
-1436.4999463938918
 20
906.2582335340818
 30
0.0
 11
-1442.9999463938918
 21
906.2582335340818
 31
0.0
  0
SPLINE
  5
596
100
AcDbEntity
  8
IMPORTED
  6
STYLE_05
 62
              30
100
AcDbSpline
210
0.0
220
0.0
230
1.0
 70
              13
 71
               2
 72
              20
 73
              17
 74
               0
 42
0.000001
 43
0.000001
 40
0.0
 40
0.0
 40
0.0
 40
1.0
 40
1.0
 40
2.0
 40
2.0
 40
3.0
 40
3.0
 40
4.0
 40
4.0
 40
5.0
 40
5.0
 40
6.0
 40
6.0
 40
7.0
 40
7.0
 40
8.0
 40
8.0
 40
8.0
 10
-1599.9999463938918
 20
894.49993353408172
 30
0.0
 41
1.0
 10
-1599.8662014488118
 20
894.49993353408172
 30
0.0
 41
1.0
 10
-1599.7324565037316
 20
894.49993353408172
 30
0.0
 41
1.0
 10
-1597.5112463938917
 20
894.49993353408195
 30
0.0
 41
0.7475595788177591
 10
-1597.2498307372437
 20
892.29416015349295
 30
0.0
 41
1.0
 10
-1597.1731385655676
 20
891.64704684378728
 30
0.0
 41
1.0
 10
-1597.0964463938917
 20
890.99993353408172
 30
0.0
 41
1.0
 10
-1596.6816463938917
 20
887.49993353408172
 30
0.0
 41
1.0
 10
-1597.0964463938917
 20
883.99993353408172
 30
0.0
 41
1.0
 10
-1597.1731385655676
 20
883.35282022437616
 30
0.0
 41
1.0
 10
-1597.2498307372437
 20
882.70570691467049
 30
0.0
 41
1.0
 10
-1597.511246393892
 20
880.49993353408172
 30
0.0
 41
0.7475595788178308
 10
-1599.7324565037316
 20
880.49993353408172
 30
0.0
 41
1.0
 10
-1599.8662014488118
 20
880.49993353408172
 30
0.0
 41
1.0
 10
-1599.9999463938918
 20
880.49993353408172
 30
0.0
 41
1.0
 10
-1599.9999463938918
 20
887.49993353408172
 30
0.0
 41
1.0
 10
-1599.9999463938918
 20
894.49993353408172
 30
0.0
 41
1.0
  0
POLYLINE
  5
597
100
AcDbEntity
  8
IMPORTED
  6
STYLE_05
 62
              30
100
AcDb2dPolyline
 66
               1
 10
0.0
 20
0.0
 30
0.0
 70
               1
 75
               5
  0
VERTEX
  5
598
100
AcDbEntity
  8
IMPORTED
  6
STYLE_05
 62
              30
100
AcDbVertex
100
AcDb2dVertex
 10
-1599.9999463938918
 20
890.06693353408173
 30
0.0
  0
VERTEX
  5
599
100
AcDbEntity
  8
IMPORTED
  6
STYLE_05
 62
              30
100
AcDbVertex
100
AcDb2dVertex
 10
-1599.9999463938918
 20
884.93293353408171
 30
0.0
  0
VERTEX
  5
59A
100
AcDbEntity
  8
IMPORTED
  6
STYLE_05
 62
              30
100
AcDbVertex
100
AcDb2dVertex
 10
-1614.9999463938918
 20
884.93293353408171
 30
0.0
  0
VERTEX
  5
59B
100
AcDbEntity
  8
IMPORTED
  6
STYLE_05
 62
              30
100
AcDbVertex
100
AcDb2dVertex
 10
-1624.4461463938917
 20
887.49993353408172
 30
0.0
  0
VERTEX
  5
59C
100
AcDbEntity
  8
IMPORTED
  6
STYLE_05
 62
              30
100
AcDbVertex
100
AcDb2dVertex
 10
-1614.9999463938918
 20
890.06693353408173
 30
0.0
  0
SEQEND
  5
59D
100
AcDbEntity
  8
IMPORTED
  6
STYLE_05
 62
              30
  0
SPLINE
  5
59F
100
AcDbEntity
  8
IMPORTED
  6
STYLE_05
 62
              30
100
AcDbSpline
210
0.0
220
0.0
230
1.0
 70
              13
 71
               2
 72
              20
 73
              17
 74
               0
 42
0.000001
 43
0.000001
 40
0.0
 40
0.0
 40
0.0
 40
1.0
 40
1.0
 40
2.0
 40
2.0
 40
3.0
 40
3.0
 40
4.0
 40
4.0
 40
5.0
 40
5.0
 40
6.0
 40
6.0
 40
7.0
 40
7.0
 40
8.0
 40
8.0
 40
8.0
 10
-1499.9999463938918
 20
894.49993353408172
 30
0.0
 41
1.0
 10
-1500.1336913389719
 20
894.49993353408172
 30
0.0
 41
1.0
 10
-1500.2674362840519
 20
894.49993353408172
 30
0.0
 41
1.0
 10
-1502.4886463938915
 20
894.49993353408172
 30
0.0
 41
0.7475595788178008
 10
-1502.7500620505398
 20
892.29416015349295
 30
0.0
 41
1.0
 10
-1502.8267542222156
 20
891.64704684378728
 30
0.0
 41
1.0
 10
-1502.9034463938917
 20
890.99993353408172
 30
0.0
 41
1.0
 10
-1503.3182463938917
 20
887.49993353408172
 30
0.0
 41
1.0
 10
-1502.9034463938917
 20
883.99993353408172
 30
0.0
 41
1.0
 10
-1502.8267542222156
 20
883.35282022437616
 30
0.0
 41
1.0
 10
-1502.7500620505398
 20
882.70570691467049
 30
0.0
 41
1.0
 10
-1502.4886463938915
 20
880.49993353408172
 30
0.0
 41
0.7475595788178008
 10
-1500.2674362840519
 20
880.49993353408172
 30
0.0
 41
1.0
 10
-1500.1336913389719
 20
880.49993353408172
 30
0.0
 41
1.0
 10
-1499.9999463938918
 20
880.49993353408172
 30
0.0
 41
1.0
 10
-1499.9999463938918
 20
887.49993353408172
 30
0.0
 41
1.0
 10
-1499.9999463938918
 20
894.49993353408172
 30
0.0
 41
1.0
  0
POLYLINE
  5
5A0
100
AcDbEntity
  8
IMPORTED
  6
STYLE_05
 62
              30
100
AcDb2dPolyline
 66
               1
 10
0.0
 20
0.0
 30
0.0
 70
               1
 75
               5
  0
VERTEX
  5
5A1
100
AcDbEntity
  8
IMPORTED
  6
STYLE_05
 62
              30
100
AcDbVertex
100
AcDb2dVertex
 10
-1499.9999463938918
 20
890.06693353408173
 30
0.0
  0
VERTEX
  5
5A2
100
AcDbEntity
  8
IMPORTED
  6
STYLE_05
 62
              30
100
AcDbVertex
100
AcDb2dVertex
 10
-1499.9999463938918
 20
884.93293353408171
 30
0.0
  0
VERTEX
  5
5A3
100
AcDbEntity
  8
IMPORTED
  6
STYLE_05
 62
              30
100
AcDbVertex
100
AcDb2dVertex
 10
-1484.9999463938918
 20
884.93293353408171
 30
0.0
  0
VERTEX
  5
5A4
100
AcDbEntity
  8
IMPORTED
  6
STYLE_05
 62
              30
100
AcDbVertex
100
AcDb2dVertex
 10
-1475.5537463938917
 20
887.49993353408172
 30
0.0
  0
VERTEX
  5
5A5
100
AcDbEntity
  8
IMPORTED
  6
STYLE_05
 62
              30
100
AcDbVertex
100
AcDb2dVertex
 10
-1484.9999463938918
 20
890.06693353408173
 30
0.0
  0
SEQEND
  5
5A6
100
AcDbEntity
  8
IMPORTED
  6
STYLE_05
 62
              30
  0
POLYLINE
  5
5A8
100
AcDbEntity
  8
IMPORTED
  6
CONTINUOUS
 62
              30
100
AcDb2dPolyline
 66
               1
 10
0.0
 20
0.0
 30
0.0
 70
               1
 75
               5
  0
VERTEX
  5
5A9
100
AcDbEntity
  8
IMPORTED
  6
CONTINUOUS
 62
              30
100
AcDbVertex
100
AcDb2dVertex
 10
-1444.9999463938918
 20
934.99993353408172
 30
0.0
  0
VERTEX
  5
5AA
100
AcDbEntity
  8
IMPORTED
  6
CONTINUOUS
 62
              30
100
AcDbVertex
100
AcDb2dVertex
 10
-1444.9999463938918
 20
844.99993353408172
 30
0.0
  0
VERTEX
  5
5AB
100
AcDbEntity
  8
IMPORTED
  6
CONTINUOUS
 62
              30
100
AcDbVertex
100
AcDb2dVertex
 10
-1449.9999463938918
 20
839.99993353408172
 30
0.0
  0
VERTEX
  5
5AC
100
AcDbEntity
  8
IMPORTED
  6
CONTINUOUS
 62
              30
100
AcDbVertex
100
AcDb2dVertex
 10
-1489.9999463938918
 20
839.99993353408172
 30
0.0
  0
VERTEX
  5
5AD
100
AcDbEntity
  8
IMPORTED
  6
CONTINUOUS
 62
              30
100
AcDbVertex
100
AcDb2dVertex
 10
-1494.9999463938918
 20
844.99993353408172
 30
0.0
  0
VERTEX
  5
5AE
100
AcDbEntity
  8
IMPORTED
  6
CONTINUOUS
 62
              30
100
AcDbVertex
100
AcDb2dVertex
 10
-1494.9999463938918
 20
934.99993353408172
 30
0.0
  0
SEQEND
  5
5AF
100
AcDbEntity
  8
IMPORTED
  6
CONTINUOUS
 62
              30
  0
POLYLINE
  5
5B1
100
AcDbEntity
  8
IMPORTED
  6
STYLE_05
 62
              30
100
AcDb2dPolyline
 66
               1
 10
0.0
 20
0.0
 30
0.0
 70
             129
  0
VERTEX
  5
5B2
100
AcDbEntity
  8
IMPORTED
  6
STYLE_05
 62
              30
100
AcDbVertex
100
AcDb2dVertex
 10
-1654.9999463938918
 20
860.99993353408172
 30
0.0
  0
VERTEX
  5
5B3
100
AcDbEntity
  8
IMPORTED
  6
STYLE_05
 62
              30
100
AcDbVertex
100
AcDb2dVertex
 10
-1444.9999463938918
 20
860.99993353408172
 30
0.0
  0
VERTEX
  5
5B4
100
AcDbEntity
  8
IMPORTED
  6
STYLE_05
 62
              30
100
AcDbVertex
100
AcDb2dVertex
 10
-1444.9999463938918
 20
868.99993353408172
 30
0.0
  0
VERTEX
  5
5B5
100
AcDbEntity
  8
IMPORTED
  6
STYLE_05
 62
              30
100
AcDbVertex
100
AcDb2dVertex
 10
-1654.9999463938918
 20
868.99993353408172
 30
0.0
  0
SEQEND
  5
5B6
100
AcDbEntity
  8
IMPORTED
  6
STYLE_05
 62
              30
  0
POLYLINE
  5
5B7
100
AcDbEntity
  8
IMPORTED
  6
CONTINUOUS
 62
              30
100
AcDb2dPolyline
 66
               1
 10
0.0
 20
0.0
 30
0.0
 70
             129
  0
VERTEX
  5
5B8
100
AcDbEntity
  8
IMPORTED
  6
CONTINUOUS
 62
              30
100
AcDbVertex
100
AcDb2dVertex
 10
-1654.9999463938918
 20
856.99993353408172
 30
0.0
  0
VERTEX
  5
5B9
100
AcDbEntity
  8
IMPORTED
  6
CONTINUOUS
 62
              30
100
AcDbVertex
100
AcDb2dVertex
 10
-1656.9999463938918
 20
856.99993353408172
 30
0.0
  0
VERTEX
  5
5BA
100
AcDbEntity
  8
IMPORTED
  6
CONTINUOUS
 62
              30
100
AcDbVertex
100
AcDb2dVertex
 10
-1656.9999463938918
 20
872.99993353408172
 30
0.0
  0
VERTEX
  5
5BB
100
AcDbEntity
  8
IMPORTED
  6
CONTINUOUS
 62
              30
100
AcDbVertex
100
AcDb2dVertex
 10
-1654.9999463938918
 20
872.99993353408172
 30
0.0
  0
SEQEND
  5
5BC
100
AcDbEntity
  8
IMPORTED
  6
CONTINUOUS
 62
              30
  0
LINE
  5
5BD
100
AcDbEntity
  8
IMPORTED
  6
CONTINUOUS
 62
              30
100
AcDbLine
 10
-1663.7499463938918
 20
859.24993353408172
 30
0.0
 11
-1663.4999463938918
 21
859.24993353408172
 31
0.0
  0
LINE
  5
5BE
100
AcDbEntity
  8
IMPORTED
  6
CONTINUOUS
 62
              30
100
AcDbLine
 10
-1663.7499463938918
 20
870.74993353408172
 30
0.0
 11
-1663.4999463938918
 21
870.74993353408172
 31
0.0
  0
LINE
  5
5BF
100
AcDbEntity
  8
IMPORTED
  6
CONTINUOUS
 62
              30
100
AcDbLine
 10
-1663.4999463938918
 20
859.24993353408172
 30
0.0
 11
-1663.4999463938918
 21
870.74993353408172
 31
0.0
  0
ARC
  5
5C0
100
AcDbEntity
  8
IMPORTED
  6
CONTINUOUS
 62
              30
100
AcDbCircle
 10
-1663.7499463938918
 20
864.99993353408172
 30
0.0
 40
5.75
100
AcDbArc
 50
90.0
 51
270.0
  0
LINE
  5
5C1
100
AcDbEntity
  8
IMPORTED
  6
CONTINUOUS
 62
              30
100
AcDbLine
 10
-1662.4895463938917
 20
857.49993353408172
 30
0.0
 11
-1658.0103463938917
 21
857.49993353408172
 31
0.0
  0
LINE
  5
5C2
100
AcDbEntity
  8
IMPORTED
  6
CONTINUOUS
 62
              30
100
AcDbLine
 10
-1656.9999463938918
 20
859.24993353408172
 30
0.0
 11
-1658.0103463938917
 21
857.49993353408172
 31
0.0
  0
LINE
  5
5C3
100
AcDbEntity
  8
IMPORTED
  6
CONTINUOUS
 62
              30
100
AcDbLine
 10
-1662.4895463938917
 20
872.49993353408172
 30
0.0
 11
-1658.0103463938917
 21
872.49993353408172
 31
0.0
  0
LINE
  5
5C4
100
AcDbEntity
  8
IMPORTED
  6
CONTINUOUS
 62
              30
100
AcDbLine
 10
-1656.9999463938918
 20
870.74993353408172
 30
0.0
 11
-1658.0103463938917
 21
872.49993353408172
 31
0.0
  0
LINE
  5
5C5
100
AcDbEntity
  8
IMPORTED
  6
CONTINUOUS
 62
              30
100
AcDbLine
 10
-1656.9999463938918
 20
859.24993353408172
 30
0.0
 11
-1656.9999463938918
 21
870.74993353408172
 31
0.0
  0
LINE
  5
5C6
100
AcDbEntity
  8
IMPORTED
  6
CONTINUOUS
 62
              30
100
AcDbLine
 10
-1663.4999463938918
 20
859.24993353408172
 30
0.0
 11
-1662.4895463938917
 21
857.49993353408172
 31
0.0
  0
LINE
  5
5C7
100
AcDbEntity
  8
IMPORTED
  6
CONTINUOUS
 62
              30
100
AcDbLine
 10
-1663.4999463938918
 20
861.25833353408177
 30
0.0
 11
-1656.9999463938918
 21
861.25833353408177
 31
0.0
  0
LINE
  5
5C8
100
AcDbEntity
  8
IMPORTED
  6
CONTINUOUS
 62
              30
100
AcDbLine
 10
-1663.4999463938918
 20
870.74993353408172
 30
0.0
 11
-1662.4895463938917
 21
872.49993353408172
 31
0.0
  0
LINE
  5
5C9
100
AcDbEntity
  8
IMPORTED
  6
CONTINUOUS
 62
              30
100
AcDbLine
 10
-1663.4999463938918
 20
868.74163353408176
 30
0.0
 11
-1656.9999463938918
 21
868.74163353408176
 31
0.0
  0
POLYLINE
  5
5CA
100
AcDbEntity
  8
IMPORTED
  6
CONTINUOUS
 62
              30
100
AcDb2dPolyline
 66
               1
 10
0.0
 20
0.0
 30
0.0
 70
             129
  0
VERTEX
  5
5CB
100
AcDbEntity
  8
IMPORTED
  6
CONTINUOUS
 62
              30
100
AcDbVertex
100
AcDb2dVertex
 10
-1444.9999463938918
 20
856.99993353408172
 30
0.0
  0
VERTEX
  5
5CC
100
AcDbEntity
  8
IMPORTED
  6
CONTINUOUS
 62
              30
100
AcDbVertex
100
AcDb2dVertex
 10
-1442.9999463938918
 20
856.99993353408172
 30
0.0
  0
VERTEX
  5
5CD
100
AcDbEntity
  8
IMPORTED
  6
CONTINUOUS
 62
              30
100
AcDbVertex
100
AcDb2dVertex
 10
-1442.9999463938918
 20
872.99993353408172
 30
0.0
  0
VERTEX
  5
5CE
100
AcDbEntity
  8
IMPORTED
  6
CONTINUOUS
 62
              30
100
AcDbVertex
100
AcDb2dVertex
 10
-1444.9999463938918
 20
872.99993353408172
 30
0.0
  0
SEQEND
  5
5CF
100
AcDbEntity
  8
IMPORTED
  6
CONTINUOUS
 62
              30
  0
LINE
  5
5D0
100
AcDbEntity
  8
IMPORTED
  6
CONTINUOUS
 62
              30
100
AcDbLine
 10
-1436.2499463938918
 20
859.24993353408172
 30
0.0
 11
-1436.4999463938918
 21
859.24993353408172
 31
0.0
  0
LINE
  5
5D1
100
AcDbEntity
  8
IMPORTED
  6
CONTINUOUS
 62
              30
100
AcDbLine
 10
-1436.2499463938918
 20
870.74993353408172
 30
0.0
 11
-1436.4999463938918
 21
870.74993353408172
 31
0.0
  0
LINE
  5
5D2
100
AcDbEntity
  8
IMPORTED
  6
CONTINUOUS
 62
              30
100
AcDbLine
 10
-1436.4999463938918
 20
859.24993353408172
 30
0.0
 11
-1436.4999463938918
 21
870.74993353408172
 31
0.0
  0
ARC
  5
5D3
100
AcDbEntity
  8
IMPORTED
  6
CONTINUOUS
 62
              30
100
AcDbCircle
 10
-1436.2499463938918
 20
864.99993353408172
 30
0.0
 40
5.75
100
AcDbArc
 50
270.0
 51
90.0
  0
LINE
  5
5D4
100
AcDbEntity
  8
IMPORTED
  6
CONTINUOUS
 62
              30
100
AcDbLine
 10
-1437.5103463938917
 20
857.49993353408172
 30
0.0
 11
-1441.9895463938917
 21
857.49993353408172
 31
0.0
  0
LINE
  5
5D5
100
AcDbEntity
  8
IMPORTED
  6
CONTINUOUS
 62
              30
100
AcDbLine
 10
-1442.9999463938918
 20
859.24993353408172
 30
0.0
 11
-1441.9895463938917
 21
857.49993353408172
 31
0.0
  0
LINE
  5
5D6
100
AcDbEntity
  8
IMPORTED
  6
CONTINUOUS
 62
              30
100
AcDbLine
 10
-1437.5103463938917
 20
872.49993353408172
 30
0.0
 11
-1441.9895463938917
 21
872.49993353408172
 31
0.0
  0
LINE
  5
5D7
100
AcDbEntity
  8
IMPORTED
  6
CONTINUOUS
 62
              30
100
AcDbLine
 10
-1442.9999463938918
 20
870.74993353408172
 30
0.0
 11
-1441.9895463938917
 21
872.49993353408172
 31
0.0
  0
LINE
  5
5D8
100
AcDbEntity
  8
IMPORTED
  6
CONTINUOUS
 62
              30
100
AcDbLine
 10
-1442.9999463938918
 20
859.24993353408172
 30
0.0
 11
-1442.9999463938918
 21
870.74993353408172
 31
0.0
  0
LINE
  5
5D9
100
AcDbEntity
  8
IMPORTED
  6
CONTINUOUS
 62
              30
100
AcDbLine
 10
-1436.4999463938918
 20
859.24993353408172
 30
0.0
 11
-1437.5103463938917
 21
857.49993353408172
 31
0.0
  0
LINE
  5
5DA
100
AcDbEntity
  8
IMPORTED
  6
CONTINUOUS
 62
              30
100
AcDbLine
 10
-1436.4999463938918
 20
861.25833353408177
 30
0.0
 11
-1442.9999463938918
 21
861.25833353408177
 31
0.0
  0
LINE
  5
5DB
100
AcDbEntity
  8
IMPORTED
  6
CONTINUOUS
 62
              30
100
AcDbLine
 10
-1436.4999463938918
 20
870.74993353408172
 30
0.0
 11
-1437.5103463938917
 21
872.49993353408172
 31
0.0
  0
LINE
  5
5DC
100
AcDbEntity
  8
IMPORTED
  6
CONTINUOUS
 62
              30
100
AcDbLine
 10
-1436.4999463938918
 20
868.74163353408176
 30
0.0
 11
-1442.9999463938918
 21
868.74163353408176
 31
0.0
  0
POLYLINE
  5
5DD
100
AcDbEntity
  8
IMPORTED
  6
STYLE_01
 62
              30
100
AcDb2dPolyline
 66
               1
 10
0.0
 20
0.0
 30
0.0
 70
             129
  0
VERTEX
  5
5DE
100
AcDbEntity
  8
IMPORTED
  6
STYLE_01
 62
              30
100
AcDbVertex
100
AcDb2dVertex
 10
-649.99994639389195
 20
-559.99996646591808
 30
0.0
  0
VERTEX
  5
5DF
100
AcDbEntity
  8
IMPORTED
  6
STYLE_01
 62
              30
100
AcDbVertex
100
AcDb2dVertex
 10
-249.99994639389203
 20
-559.99996646591808
 30
0.0
  0
VERTEX
  5
5E0
100
AcDbEntity
  8
IMPORTED
  6
STYLE_01
 62
              30
100
AcDbVertex
100
AcDb2dVertex
 10
-249.99994639389203
 20
-1239.9999664659179
 30
0.0
  0
VERTEX
  5
5E1
100
AcDbEntity
  8
IMPORTED
  6
STYLE_01
 62
              30
100
AcDbVertex
100
AcDb2dVertex
 10
-649.99994639389195
 20
-1239.9999664659179
 30
0.0
  0
VERTEX
  5
5E2
100
AcDbEntity
  8
IMPORTED
  6
STYLE_01
 62
              30
100
AcDbVertex
100
AcDb2dVertex
 10
-649.99994639389195
 20
-559.99996646591808
 30
0.0
  0
SEQEND
  5
5E3
100
AcDbEntity
  8
IMPORTED
  6
STYLE_01
 62
              30
  0
POLYLINE
  5
5E4
100
AcDbEntity
  8
IMPORTED
  6
STYLE_01
 62
              30
100
AcDb2dPolyline
 66
               1
 10
0.0
 20
0.0
 30
0.0
 70
             129
  0
VERTEX
  5
5E5
100
AcDbEntity
  8
IMPORTED
  6
STYLE_01
 62
              30
100
AcDbVertex
100
AcDb2dVertex
 10
-599.99994639389206
 20
-609.99996646591808
 30
0.0
  0
VERTEX
  5
5E6
100
AcDbEntity
  8
IMPORTED
  6
STYLE_01
 62
              30
100
AcDbVertex
100
AcDb2dVertex
 10
-299.999946393892
 20
-609.99996646591808
 30
0.0
  0
VERTEX
  5
5E7
100
AcDbEntity
  8
IMPORTED
  6
STYLE_01
 62
              30
100
AcDbVertex
100
AcDb2dVertex
 10
-299.999946393892
 20
-1189.9999664659179
 30
0.0
  0
VERTEX
  5
5E8
100
AcDbEntity
  8
IMPORTED
  6
STYLE_01
 62
              30
100
AcDbVertex
100
AcDb2dVertex
 10
-599.99994639389206
 20
-1189.9999664659179
 30
0.0
  0
VERTEX
  5
5E9
100
AcDbEntity
  8
IMPORTED
  6
STYLE_01
 62
              30
100
AcDbVertex
100
AcDb2dVertex
 10
-599.99994639389206
 20
-609.99996646591808
 30
0.0
  0
SEQEND
  5
5EA
100
AcDbEntity
  8
IMPORTED
  6
STYLE_01
 62
              30
  0
POLYLINE
  5
5EB
100
AcDbEntity
  8
IMPORTED
  6
STYLE_05
 62
              30
100
AcDb2dPolyline
 66
               1
 10
0.0
 20
0.0
 30
0.0
 70
             129
  0
VERTEX
  5
5EC
100
AcDbEntity
  8
IMPORTED
  6
STYLE_05
 62
              30
100
AcDbVertex
100
AcDb2dVertex
 10
-494.99994639389195
 20
-989.99996646591808
 30
0.0
  0
VERTEX
  5
5ED
100
AcDbEntity
  8
IMPORTED
  6
STYLE_05
 62
              30
100
AcDbVertex
100
AcDb2dVertex
 10
-404.99994639389195
 20
-989.99996646591808
 30
0.0
  0
VERTEX
  5
5EE
100
AcDbEntity
  8
IMPORTED
  6
STYLE_05
 62
              30
100
AcDbVertex
100
AcDb2dVertex
 10
-399.99994639389195
 20
-994.99996646591808
 30
0.0
  0
VERTEX
  5
5EF
100
AcDbEntity
  8
IMPORTED
  6
STYLE_05
 62
              30
100
AcDbVertex
100
AcDb2dVertex
 10
-399.99994639389195
 20
-1084.9999664659181
 30
0.0
  0
VERTEX
  5
5F0
100
AcDbEntity
  8
IMPORTED
  6
STYLE_05
 62
              30
100
AcDbVertex
100
AcDb2dVertex
 10
-404.99994639389195
 20
-1089.9999664659179
 30
0.0
  0
VERTEX
  5
5F1
100
AcDbEntity
  8
IMPORTED
  6
STYLE_05
 62
              30
100
AcDbVertex
100
AcDb2dVertex
 10
-494.99994639389195
 20
-1089.9999664659179
 30
0.0
  0
VERTEX
  5
5F2
100
AcDbEntity
  8
IMPORTED
  6
STYLE_05
 62
              30
100
AcDbVertex
100
AcDb2dVertex
 10
-499.99994639389195
 20
-1084.9999664659181
 30
0.0
  0
VERTEX
  5
5F3
100
AcDbEntity
  8
IMPORTED
  6
STYLE_05
 62
              30
100
AcDbVertex
100
AcDb2dVertex
 10
-499.99994639389195
 20
-994.99996646591808
 30
0.0
  0
SEQEND
  5
5F4
100
AcDbEntity
  8
IMPORTED
  6
STYLE_05
 62
              30
  0
POLYLINE
  5
5F5
100
AcDbEntity
  8
IMPORTED
  6
STYLE_05
 62
              30
100
AcDb2dPolyline
 66
               1
 10
0.0
 20
0.0
 30
0.0
 70
             129
  0
VERTEX
  5
5F6
100
AcDbEntity
  8
IMPORTED
  6
STYLE_05
 62
              30
100
AcDbVertex
100
AcDb2dVertex
 10
-389.99994639389195
 20
-709.99996646591808
 30
0.0
  0
VERTEX
  5
5F7
100
AcDbEntity
  8
IMPORTED
  6
STYLE_05
 62
              30
100
AcDbVertex
100
AcDb2dVertex
 10
-349.99994639389195
 20
-709.99996646591808
 30
0.0
  0
VERTEX
  5
5F8
100
AcDbEntity
  8
IMPORTED
  6
STYLE_05
 62
              30
100
AcDbVertex
100
AcDb2dVertex
 10
-344.99994639389195
 20
-714.99996646591808
 30
0.0
  0
VERTEX
  5
5F9
100
AcDbEntity
  8
IMPORTED
  6
STYLE_05
 62
              30
100
AcDbVertex
100
AcDb2dVertex
 10
-344.99994639389195
 20
-1084.9999664659181
 30
0.0
  0
VERTEX
  5
5FA
100
AcDbEntity
  8
IMPORTED
  6
STYLE_05
 62
              30
100
AcDbVertex
100
AcDb2dVertex
 10
-349.99994639389195
 20
-1089.9999664659179
 30
0.0
  0
VERTEX
  5
5FB
100
AcDbEntity
  8
IMPORTED
  6
STYLE_05
 62
              30
100
AcDbVertex
100
AcDb2dVertex
 10
-389.99994639389195
 20
-1089.9999664659179
 30
0.0
  0
VERTEX
  5
5FC
100
AcDbEntity
  8
IMPORTED
  6
STYLE_05
 62
              30
100
AcDbVertex
100
AcDb2dVertex
 10
-394.99994639389195
 20
-1084.9999664659181
 30
0.0
  0
VERTEX
  5
5FD
100
AcDbEntity
  8
IMPORTED
  6
STYLE_05
 62
              30
100
AcDbVertex
100
AcDb2dVertex
 10
-394.99994639389195
 20
-714.99996646591808
 30
0.0
  0
SEQEND
  5
5FE
100
AcDbEntity
  8
IMPORTED
  6
STYLE_05
 62
              30
  0
LINE
  5
5FF
100
AcDbEntity
  8
IMPORTED
  6
STYLE_05
 62
              30
100
AcDbLine
 10
-554.99994639389206
 20
-1084.9999664659181
 30
0.0
 11
-504.999946393892
 21
-1084.9999664659181
 31
0.0
  0
LINE
  5
600
100
AcDbEntity
  8
IMPORTED
  6
STYLE_05
 62
              30
100
AcDbLine
 10
-394.99994639389195
 20
-1084.9999664659181
 30
0.0
 11
-344.99994639389195
 21
-1084.9999664659181
 31
0.0
  0
POLYLINE
  5
601
100
AcDbEntity
  8
IMPORTED
  6
STYLE_05
 62
              30
100
AcDb2dPolyline
 66
               1
 10
0.0
 20
0.0
 30
0.0
 70
             129
  0
VERTEX
  5
602
100
AcDbEntity
  8
IMPORTED
  6
STYLE_05
 62
              30
100
AcDbVertex
100
AcDb2dVertex
 10
-405.99994639389195
 20
-1001.9999664659181
 30
0.0
  0
VERTEX
  5
603
100
AcDbEntity
  8
IMPORTED
  6
STYLE_05
 62
              30
100
AcDbVertex
100
AcDb2dVertex
 10
-405.99994639389195
 20
-1021.299966465918
 30
0.0
  0
VERTEX
  5
604
100
AcDbEntity
  8
IMPORTED
  6
STYLE_05
 62
              30
100
AcDbVertex
100
AcDb2dVertex
 10
-493.99994639389195
 20
-1021.299966465918
 30
0.0
  0
VERTEX
  5
605
100
AcDbEntity
  8
IMPORTED
  6
STYLE_05
 62
              30
100
AcDbVertex
100
AcDb2dVertex
 10
-493.99994639389195
 20
-1001.9999664659181
 30
0.0
  0
VERTEX
  5
606
100
AcDbEntity
  8
IMPORTED
  6
STYLE_05
 62
              30
100
AcDbVertex
100
AcDb2dVertex
 10
-487.99994639389195
 20
-995.99996646591808
 30
0.0
  0
VERTEX
  5
607
100
AcDbEntity
  8
IMPORTED
  6
STYLE_05
 62
              30
100
AcDbVertex
100
AcDb2dVertex
 10
-411.99994639389195
 20
-995.99996646591808
 30
0.0
  0
SEQEND
  5
608
100
AcDbEntity
  8
IMPORTED
  6
STYLE_05
 62
              30
  0
POLYLINE
  5
609
100
AcDbEntity
  8
IMPORTED
  6
STYLE_05
 62
              30
100
AcDb2dPolyline
 66
               1
 10
0.0
 20
0.0
 30
0.0
 70
             129
  0
VERTEX
  5
60A
100
AcDbEntity
  8
IMPORTED
  6
STYLE_05
 62
              30
100
AcDbVertex
100
AcDb2dVertex
 10
-405.99994639389195
 20
-1077.9999664659181
 30
0.0
  0
VERTEX
  5
60B
100
AcDbEntity
  8
IMPORTED
  6
STYLE_05
 62
              30
100
AcDbVertex
100
AcDb2dVertex
 10
-405.99994639389195
 20
-1058.6999664659179
 30
0.0
  0
VERTEX
  5
60C
100
AcDbEntity
  8
IMPORTED
  6
STYLE_05
 62
              30
100
AcDbVertex
100
AcDb2dVertex
 10
-493.99994639389195
 20
-1058.6999664659179
 30
0.0
  0
VERTEX
  5
60D
100
AcDbEntity
  8
IMPORTED
  6
STYLE_05
 62
              30
100
AcDbVertex
100
AcDb2dVertex
 10
-493.99994639389195
 20
-1077.9999664659181
 30
0.0
  0
VERTEX
  5
60E
100
AcDbEntity
  8
IMPORTED
  6
STYLE_05
 62
              30
100
AcDbVertex
100
AcDb2dVertex
 10
-487.99994639389195
 20
-1083.9999664659181
 30
0.0
  0
VERTEX
  5
60F
100
AcDbEntity
  8
IMPORTED
  6
STYLE_05
 62
              30
100
AcDbVertex
100
AcDb2dVertex
 10
-411.99994639389195
 20
-1083.9999664659181
 30
0.0
  0
SEQEND
  5
610
100
AcDbEntity
  8
IMPORTED
  6
STYLE_05
 62
              30
  0
POLYLINE
  5
611
100
AcDbEntity
  8
IMPORTED
  6
STYLE_05
 62
              30
100
AcDb2dPolyline
 66
               1
 10
0.0
 20
0.0
 30
0.0
 70
             129
  0
VERTEX
  5
612
100
AcDbEntity
  8
IMPORTED
  6
STYLE_05
 62
              30
100
AcDbVertex
100
AcDb2dVertex
 10
-405.99994639389195
 20
-1027.299966465918
 30
0.0
  0
VERTEX
  5
613
100
AcDbEntity
  8
IMPORTED
  6
STYLE_05
 62
              30
100
AcDbVertex
100
AcDb2dVertex
 10
-405.99994639389195
 20
-1052.6999664659179
 30
0.0
  0
VERTEX
  5
614
100
AcDbEntity
  8
IMPORTED
  6
STYLE_05
 62
              30
100
AcDbVertex
100
AcDb2dVertex
 10
-493.99994639389195
 20
-1052.6999664659179
 30
0.0
  0
VERTEX
  5
615
100
AcDbEntity
  8
IMPORTED
  6
STYLE_05
 62
              30
100
AcDbVertex
100
AcDb2dVertex
 10
-493.99994639389195
 20
-1027.299966465918
 30
0.0
  0
SEQEND
  5
616
100
AcDbEntity
  8
IMPORTED
  6
STYLE_05
 62
              30
  0
CIRCLE
  5
617
100
AcDbEntity
  8
IMPORTED
  6
STYLE_05
 62
              30
100
AcDbCircle
 10
-424.99994639389195
 20
-949.99996646591808
 30
0.0
 40
4.0
  0
POLYLINE
  5
618
100
AcDbEntity
  8
IMPORTED
  6
STYLE_05
 62
              30
100
AcDb2dPolyline
 66
               1
 10
0.0
 20
0.0
 30
0.0
 70
             129
  0
VERTEX
  5
619
100
AcDbEntity
  8
IMPORTED
  6
STYLE_05
 62
              30
100
AcDbVertex
100
AcDb2dVertex
 10
-405.99994639389195
 20
-721.99996646591808
 30
0.0
  0
VERTEX
  5
61A
100
AcDbEntity
  8
IMPORTED
  6
STYLE_05
 62
              30
100
AcDbVertex
100
AcDb2dVertex
 10
-405.99994639389195
 20
-741.29996646591815
 30
0.0
  0
VERTEX
  5
61B
100
AcDbEntity
  8
IMPORTED
  6
STYLE_05
 62
              30
100
AcDbVertex
100
AcDb2dVertex
 10
-493.99994639389195
 20
-741.29996646591815
 30
0.0
  0
VERTEX
  5
61C
100
AcDbEntity
  8
IMPORTED
  6
STYLE_05
 62
              30
100
AcDbVertex
100
AcDb2dVertex
 10
-493.99994639389195
 20
-721.99996646591808
 30
0.0
  0
VERTEX
  5
61D
100
AcDbEntity
  8
IMPORTED
  6
STYLE_05
 62
              30
100
AcDbVertex
100
AcDb2dVertex
 10
-487.99994639389195
 20
-715.99996646591808
 30
0.0
  0
VERTEX
  5
61E
100
AcDbEntity
  8
IMPORTED
  6
STYLE_05
 62
              30
100
AcDbVertex
100
AcDb2dVertex
 10
-411.99994639389195
 20
-715.99996646591808
 30
0.0
  0
SEQEND
  5
61F
100
AcDbEntity
  8
IMPORTED
  6
STYLE_05
 62
              30
  0
POLYLINE
  5
620
100
AcDbEntity
  8
IMPORTED
  6
STYLE_05
 62
              30
100
AcDb2dPolyline
 66
               1
 10
0.0
 20
0.0
 30
0.0
 70
             129
  0
VERTEX
  5
621
100
AcDbEntity
  8
IMPORTED
  6
STYLE_05
 62
              30
100
AcDbVertex
100
AcDb2dVertex
 10
-405.99994639389195
 20
-747.29996646591815
 30
0.0
  0
VERTEX
  5
622
100
AcDbEntity
  8
IMPORTED
  6
STYLE_05
 62
              30
100
AcDbVertex
100
AcDb2dVertex
 10
-405.99994639389195
 20
-772.69996646591812
 30
0.0
  0
VERTEX
  5
623
100
AcDbEntity
  8
IMPORTED
  6
STYLE_05
 62
              30
100
AcDbVertex
100
AcDb2dVertex
 10
-493.99994639389195
 20
-772.69996646591812
 30
0.0
  0
VERTEX
  5
624
100
AcDbEntity
  8
IMPORTED
  6
STYLE_05
 62
              30
100
AcDbVertex
100
AcDb2dVertex
 10
-493.99994639389195
 20
-747.29996646591815
 30
0.0
  0
SEQEND
  5
625
100
AcDbEntity
  8
IMPORTED
  6
STYLE_05
 62
              30
  0
POLYLINE
  5
626
100
AcDbEntity
  8
IMPORTED
  6
STYLE_05
 62
              30
100
AcDb2dPolyline
 66
               1
 10
0.0
 20
0.0
 30
0.0
 70
             129
  0
VERTEX
  5
627
100
AcDbEntity
  8
IMPORTED
  6
STYLE_05
 62
              30
100
AcDbVertex
100
AcDb2dVertex
 10
-494.99994639389195
 20
-709.99996646591808
 30
0.0
  0
VERTEX
  5
628
100
AcDbEntity
  8
IMPORTED
  6
STYLE_05
 62
              30
100
AcDbVertex
100
AcDb2dVertex
 10
-404.99994639389195
 20
-709.99996646591808
 30
0.0
  0
VERTEX
  5
629
100
AcDbEntity
  8
IMPORTED
  6
STYLE_05
 62
              30
100
AcDbVertex
100
AcDb2dVertex
 10
-399.99994639389195
 20
-714.99996646591808
 30
0.0
  0
VERTEX
  5
62A
100
AcDbEntity
  8
IMPORTED
  6
STYLE_05
 62
              30
100
AcDbVertex
100
AcDb2dVertex
 10
-399.99994639389195
 20
-804.99996646591808
 30
0.0
  0
VERTEX
  5
62B
100
AcDbEntity
  8
IMPORTED
  6
STYLE_05
 62
              30
100
AcDbVertex
100
AcDb2dVertex
 10
-404.99994639389195
 20
-809.99996646591808
 30
0.0
  0
VERTEX
  5
62C
100
AcDbEntity
  8
IMPORTED
  6
STYLE_05
 62
              30
100
AcDbVertex
100
AcDb2dVertex
 10
-494.99994639389195
 20
-809.99996646591808
 30
0.0
  0
VERTEX
  5
62D
100
AcDbEntity
  8
IMPORTED
  6
STYLE_05
 62
              30
100
AcDbVertex
100
AcDb2dVertex
 10
-499.99994639389195
 20
-804.99996646591808
 30
0.0
  0
VERTEX
  5
62E
100
AcDbEntity
  8
IMPORTED
  6
STYLE_05
 62
              30
100
AcDbVertex
100
AcDb2dVertex
 10
-499.99994639389195
 20
-714.99996646591808
 30
0.0
  0
SEQEND
  5
62F
100
AcDbEntity
  8
IMPORTED
  6
STYLE_05
 62
              30
  0
POLYLINE
  5
630
100
AcDbEntity
  8
IMPORTED
  6
STYLE_05
 62
              30
100
AcDb2dPolyline
 66
               1
 10
0.0
 20
0.0
 30
0.0
 70
             129
  0
VERTEX
  5
631
100
AcDbEntity
  8
IMPORTED
  6
STYLE_05
 62
              30
100
AcDbVertex
100
AcDb2dVertex
 10
-405.99994639389195
 20
-797.99996646591808
 30
0.0
  0
VERTEX
  5
632
100
AcDbEntity
  8
IMPORTED
  6
STYLE_05
 62
              30
100
AcDbVertex
100
AcDb2dVertex
 10
-405.99994639389195
 20
-778.69996646591812
 30
0.0
  0
VERTEX
  5
633
100
AcDbEntity
  8
IMPORTED
  6
STYLE_05
 62
              30
100
AcDbVertex
100
AcDb2dVertex
 10
-493.99994639389195
 20
-778.69996646591812
 30
0.0
  0
VERTEX
  5
634
100
AcDbEntity
  8
IMPORTED
  6
STYLE_05
 62
              30
100
AcDbVertex
100
AcDb2dVertex
 10
-493.99994639389195
 20
-797.99996646591808
 30
0.0
  0
VERTEX
  5
635
100
AcDbEntity
  8
IMPORTED
  6
STYLE_05
 62
              30
100
AcDbVertex
100
AcDb2dVertex
 10
-487.99994639389195
 20
-803.99996646591808
 30
0.0
  0
VERTEX
  5
636
100
AcDbEntity
  8
IMPORTED
  6
STYLE_05
 62
              30
100
AcDbVertex
100
AcDb2dVertex
 10
-411.99994639389195
 20
-803.99996646591808
 30
0.0
  0
SEQEND
  5
637
100
AcDbEntity
  8
IMPORTED
  6
STYLE_05
 62
              30
  0
CIRCLE
  5
638
100
AcDbEntity
  8
IMPORTED
  6
STYLE_05
 62
              30
100
AcDbCircle
 10
-474.99994639389195
 20
-849.99996646591808
 30
0.0
 40
4.0
  0
CIRCLE
  5
639
100
AcDbEntity
  8
IMPORTED
  6
STYLE_05
 62
              30
100
AcDbCircle
 10
-424.99994639389195
 20
-794.99996646591808
 30
0.0
 40
4.0
  0
CIRCLE
  5
63A
100
AcDbEntity
  8
IMPORTED
  6
STYLE_05
 62
              30
100
AcDbCircle
 10
-474.99994639389195
 20
-731.99996646591808
 30
0.0
 40
4.0
  0
LINE
  5
63B
100
AcDbEntity
  8
IMPORTED
  6
STYLE_05
 62
              30
100
AcDbLine
 10
-554.99994639389206
 20
-714.99996646591808
 30
0.0
 11
-504.999946393892
 21
-714.99996646591808
 31
0.0
  0
LINE
  5
63C
100
AcDbEntity
  8
IMPORTED
  6
STYLE_05
 62
              30
100
AcDbLine
 10
-394.99994639389195
 20
-714.99996646591808
 30
0.0
 11
-344.99994639389195
 21
-714.99996646591808
 31
0.0
  0
POLYLINE
  5
63D
100
AcDbEntity
  8
IMPORTED
  6
STYLE_05
 62
              30
100
AcDb2dPolyline
 66
               1
 10
0.0
 20
0.0
 30
0.0
 70
             129
  0
VERTEX
  5
63E
100
AcDbEntity
  8
IMPORTED
  6
STYLE_05
 62
              30
100
AcDbVertex
100
AcDb2dVertex
 10
-549.99994639389206
 20
-709.99996646591808
 30
0.0
  0
VERTEX
  5
63F
100
AcDbEntity
  8
IMPORTED
  6
STYLE_05
 62
              30
100
AcDbVertex
100
AcDb2dVertex
 10
-509.999946393892
 20
-709.99996646591808
 30
0.0
  0
VERTEX
  5
640
100
AcDbEntity
  8
IMPORTED
  6
STYLE_05
 62
              30
100
AcDbVertex
100
AcDb2dVertex
 10
-504.999946393892
 20
-714.99996646591808
 30
0.0
  0
VERTEX
  5
641
100
AcDbEntity
  8
IMPORTED
  6
STYLE_05
 62
              30
100
AcDbVertex
100
AcDb2dVertex
 10
-504.999946393892
 20
-1084.9999664659181
 30
0.0
  0
VERTEX
  5
642
100
AcDbEntity
  8
IMPORTED
  6
STYLE_05
 62
              30
100
AcDbVertex
100
AcDb2dVertex
 10
-509.999946393892
 20
-1089.9999664659179
 30
0.0
  0
VERTEX
  5
643
100
AcDbEntity
  8
IMPORTED
  6
STYLE_05
 62
              30
100
AcDbVertex
100
AcDb2dVertex
 10
-549.99994639389206
 20
-1089.9999664659179
 30
0.0
  0
VERTEX
  5
644
100
AcDbEntity
  8
IMPORTED
  6
STYLE_05
 62
              30
100
AcDbVertex
100
AcDb2dVertex
 10
-554.99994639389206
 20
-1084.9999664659181
 30
0.0
  0
VERTEX
  5
645
100
AcDbEntity
  8
IMPORTED
  6
STYLE_05
 62
              30
100
AcDbVertex
100
AcDb2dVertex
 10
-554.99994639389206
 20
-714.99996646591808
 30
0.0
  0
SEQEND
  5
646
100
AcDbEntity
  8
IMPORTED
  6
STYLE_05
 62
              30
  0
CIRCLE
  5
647
100
AcDbEntity
  8
IMPORTED
  6
STYLE_05
 62
              30
100
AcDbCircle
 10
-424.99994639389195
 20
-1067.9999664659181
 30
0.0
 40
4.0
  0
CIRCLE
  5
648
100
AcDbEntity
  8
IMPORTED
  6
STYLE_05
 62
              30
100
AcDbCircle
 10
-474.99994639389195
 20
-1004.9999664659181
 30
0.0
 40
4.0
  0
POLYLINE
  5
649
100
AcDbEntity
  8
IMPORTED
  6
STYLE_05
 62
              30
100
AcDb2dPolyline
 66
               1
 10
0.0
 20
0.0
 30
0.0
 70
               1
 75
               5
  0
VERTEX
  5
64A
100
AcDbEntity
  8
IMPORTED
  6
STYLE_05
 62
              30
100
AcDbVertex
100
AcDb2dVertex
 10
-504.999946393892
 20
-719.99996646591808
 30
0.0
  0
VERTEX
  5
64B
100
AcDbEntity
  8
IMPORTED
  6
STYLE_05
 62
              30
100
AcDbVertex
100
AcDb2dVertex
 10
-394.99994639389195
 20
-719.99996646591808
 30
0.0
  0
VERTEX
  5
64C
100
AcDbEntity
  8
IMPORTED
  6
STYLE_05
 62
              30
100
AcDbVertex
100
AcDb2dVertex
 10
-394.99994639389195
 20
-1079.9999664659181
 30
0.0
  0
VERTEX
  5
64D
100
AcDbEntity
  8
IMPORTED
  6
STYLE_05
 62
              30
100
AcDbVertex
100
AcDb2dVertex
 10
-504.999946393892
 20
-1079.9999664659181
 30
0.0
  0
SEQEND
  5
64E
100
AcDbEntity
  8
IMPORTED
  6
STYLE_05
 62
              30
  0
LINE
  5
650
100
AcDbEntity
  8
IMPORTED
  6
STYLE_05
 62
              30
100
AcDbLine
 10
-499.99994639389195
 20
-719.99996646591808
 30
0.0
 11
-499.99994639389195
 21
-1079.9999664659181
 31
0.0
  0
LINE
  5
651
100
AcDbEntity
  8
IMPORTED
  6
STYLE_05
 62
              30
100
AcDbLine
 10
-399.99994639389195
 20
-1079.9999664659181
 30
0.0
 11
-399.99994639389195
 21
-719.99996646591808
 31
0.0
  0
POLYLINE
  5
652
100
AcDbEntity
  8
IMPORTED
  6
STYLE_05
 62
              30
100
AcDb2dPolyline
 66
               1
 10
0.0
 20
0.0
 30
0.0
 70
             129
  0
VERTEX
  5
653
100
AcDbEntity
  8
IMPORTED
  6
STYLE_05
 62
              30
100
AcDbVertex
100
AcDb2dVertex
 10
-554.99994639389206
 20
-798.99996646591808
 30
0.0
  0
VERTEX
  5
654
100
AcDbEntity
  8
IMPORTED
  6
STYLE_05
 62
              30
100
AcDbVertex
100
AcDb2dVertex
 10
-344.99994639389195
 20
-798.99996646591808
 30
0.0
  0
VERTEX
  5
655
100
AcDbEntity
  8
IMPORTED
  6
STYLE_05
 62
              30
100
AcDbVertex
100
AcDb2dVertex
 10
-344.99994639389195
 20
-790.99996646591808
 30
0.0
  0
VERTEX
  5
656
100
AcDbEntity
  8
IMPORTED
  6
STYLE_05
 62
              30
100
AcDbVertex
100
AcDb2dVertex
 10
-554.99994639389206
 20
-790.99996646591808
 30
0.0
  0
SEQEND
  5
657
100
AcDbEntity
  8
IMPORTED
  6
STYLE_05
 62
              30
  0
POLYLINE
  5
658
100
AcDbEntity
  8
IMPORTED
  6
STYLE_05
 62
              30
100
AcDb2dPolyline
 66
               1
 10
0.0
 20
0.0
 30
0.0
 70
             129
  0
VERTEX
  5
659
100
AcDbEntity
  8
IMPORTED
  6
STYLE_05
 62
              30
100
AcDbVertex
100
AcDb2dVertex
 10
-344.99994639389195
 20
-802.99996646591808
 30
0.0
  0
VERTEX
  5
65A
100
AcDbEntity
  8
IMPORTED
  6
STYLE_05
 62
              30
100
AcDbVertex
100
AcDb2dVertex
 10
-342.99994639389195
 20
-802.99996646591808
 30
0.0
  0
VERTEX
  5
65B
100
AcDbEntity
  8
IMPORTED
  6
STYLE_05
 62
              30
100
AcDbVertex
100
AcDb2dVertex
 10
-342.99994639389195
 20
-786.99996646591808
 30
0.0
  0
VERTEX
  5
65C
100
AcDbEntity
  8
IMPORTED
  6
STYLE_05
 62
              30
100
AcDbVertex
100
AcDb2dVertex
 10
-344.99994639389195
 20
-786.99996646591808
 30
0.0
  0
SEQEND
  5
65D
100
AcDbEntity
  8
IMPORTED
  6
STYLE_05
 62
              30
  0
LINE
  5
65E
100
AcDbEntity
  8
IMPORTED
  6
STYLE_05
 62
              30
100
AcDbLine
 10
-336.24994639389195
 20
-800.74996646591808
 30
0.0
 11
-336.49994639389195
 21
-800.74996646591808
 31
0.0
  0
LINE
  5
65F
100
AcDbEntity
  8
IMPORTED
  6
STYLE_05
 62
              30
100
AcDbLine
 10
-336.24994639389195
 20
-789.24996646591808
 30
0.0
 11
-336.49994639389195
 21
-789.24996646591808
 31
0.0
  0
LINE
  5
660
100
AcDbEntity
  8
IMPORTED
  6
STYLE_05
 62
              30
100
AcDbLine
 10
-336.49994639389195
 20
-800.74996646591808
 30
0.0
 11
-336.49994639389195
 21
-789.24996646591808
 31
0.0
  0
ARC
  5
661
100
AcDbEntity
  8
IMPORTED
  6
STYLE_05
 62
              30
100
AcDbCircle
 10
-336.24994639389195
 20
-794.99996646591808
 30
0.0
 40
5.75
100
AcDbArc
 50
270.0
 51
90.0
  0
LINE
  5
662
100
AcDbEntity
  8
IMPORTED
  6
STYLE_05
 62
              30
100
AcDbLine
 10
-337.51034639389195
 20
-802.49996646591808
 30
0.0
 11
-341.989546393892
 21
-802.49996646591808
 31
0.0
  0
LINE
  5
663
100
AcDbEntity
  8
IMPORTED
  6
STYLE_05
 62
              30
100
AcDbLine
 10
-342.99994639389195
 20
-800.74996646591808
 30
0.0
 11
-341.989546393892
 21
-802.49996646591808
 31
0.0
  0
LINE
  5
664
100
AcDbEntity
  8
IMPORTED
  6
STYLE_05
 62
              30
100
AcDbLine
 10
-337.51034639389195
 20
-787.49996646591808
 30
0.0
 11
-341.989546393892
 21
-787.49996646591808
 31
0.0
  0
LINE
  5
665
100
AcDbEntity
  8
IMPORTED
  6
STYLE_05
 62
              30
100
AcDbLine
 10
-342.99994639389195
 20
-789.24996646591808
 30
0.0
 11
-341.989546393892
 21
-787.49996646591808
 31
0.0
  0
LINE
  5
666
100
AcDbEntity
  8
IMPORTED
  6
STYLE_05
 62
              30
100
AcDbLine
 10
-342.99994639389195
 20
-800.74996646591808
 30
0.0
 11
-342.99994639389195
 21
-789.24996646591808
 31
0.0
  0
LINE
  5
667
100
AcDbEntity
  8
IMPORTED
  6
STYLE_05
 62
              30
100
AcDbLine
 10
-336.49994639389195
 20
-800.74996646591808
 30
0.0
 11
-337.51034639389195
 21
-802.49996646591808
 31
0.0
  0
LINE
  5
668
100
AcDbEntity
  8
IMPORTED
  6
STYLE_05
 62
              30
100
AcDbLine
 10
-336.49994639389195
 20
-798.74156646591814
 30
0.0
 11
-342.99994639389195
 21
-798.74156646591814
 31
0.0
  0
LINE
  5
669
100
AcDbEntity
  8
IMPORTED
  6
STYLE_05
 62
              30
100
AcDbLine
 10
-336.49994639389195
 20
-789.24996646591808
 30
0.0
 11
-337.51034639389195
 21
-787.49996646591808
 31
0.0
  0
LINE
  5
66A
100
AcDbEntity
  8
IMPORTED
  6
STYLE_05
 62
              30
100
AcDbLine
 10
-336.49994639389195
 20
-791.25826646591815
 30
0.0
 11
-342.99994639389195
 21
-791.25826646591815
 31
0.0
  0
POLYLINE
  5
66B
100
AcDbEntity
  8
IMPORTED
  6
STYLE_05
 62
              30
100
AcDb2dPolyline
 66
               1
 10
0.0
 20
0.0
 30
0.0
 70
             129
  0
VERTEX
  5
66C
100
AcDbEntity
  8
IMPORTED
  6
STYLE_05
 62
              30
100
AcDbVertex
100
AcDb2dVertex
 10
-554.99994639389206
 20
-802.99996646591808
 30
0.0
  0
VERTEX
  5
66D
100
AcDbEntity
  8
IMPORTED
  6
STYLE_05
 62
              30
100
AcDbVertex
100
AcDb2dVertex
 10
-556.99994639389206
 20
-802.99996646591808
 30
0.0
  0
VERTEX
  5
66E
100
AcDbEntity
  8
IMPORTED
  6
STYLE_05
 62
              30
100
AcDbVertex
100
AcDb2dVertex
 10
-556.99994639389206
 20
-786.99996646591808
 30
0.0
  0
VERTEX
  5
66F
100
AcDbEntity
  8
IMPORTED
  6
STYLE_05
 62
              30
100
AcDbVertex
100
AcDb2dVertex
 10
-554.99994639389206
 20
-786.99996646591808
 30
0.0
  0
SEQEND
  5
670
100
AcDbEntity
  8
IMPORTED
  6
STYLE_05
 62
              30
  0
LINE
  5
671
100
AcDbEntity
  8
IMPORTED
  6
STYLE_05
 62
              30
100
AcDbLine
 10
-563.74994639389206
 20
-800.74996646591808
 30
0.0
 11
-563.49994639389206
 21
-800.74996646591808
 31
0.0
  0
LINE
  5
672
100
AcDbEntity
  8
IMPORTED
  6
STYLE_05
 62
              30
100
AcDbLine
 10
-563.74994639389206
 20
-789.24996646591808
 30
0.0
 11
-563.49994639389206
 21
-789.24996646591808
 31
0.0
  0
LINE
  5
673
100
AcDbEntity
  8
IMPORTED
  6
STYLE_05
 62
              30
100
AcDbLine
 10
-563.49994639389206
 20
-800.74996646591808
 30
0.0
 11
-563.49994639389206
 21
-789.24996646591808
 31
0.0
  0
ARC
  5
674
100
AcDbEntity
  8
IMPORTED
  6
STYLE_05
 62
              30
100
AcDbCircle
 10
-563.74994639389206
 20
-794.99996646591808
 30
0.0
 40
5.75
100
AcDbArc
 50
90.0
 51
270.0
  0
LINE
  5
675
100
AcDbEntity
  8
IMPORTED
  6
STYLE_05
 62
              30
100
AcDbLine
 10
-562.48954639389206
 20
-802.49996646591808
 30
0.0
 11
-558.01034639389206
 21
-802.49996646591808
 31
0.0
  0
LINE
  5
676
100
AcDbEntity
  8
IMPORTED
  6
STYLE_05
 62
              30
100
AcDbLine
 10
-556.99994639389206
 20
-800.74996646591808
 30
0.0
 11
-558.01034639389206
 21
-802.49996646591808
 31
0.0
  0
LINE
  5
677
100
AcDbEntity
  8
IMPORTED
  6
STYLE_05
 62
              30
100
AcDbLine
 10
-562.48954639389206
 20
-787.49996646591808
 30
0.0
 11
-558.01034639389206
 21
-787.49996646591808
 31
0.0
  0
LINE
  5
678
100
AcDbEntity
  8
IMPORTED
  6
STYLE_05
 62
              30
100
AcDbLine
 10
-556.99994639389206
 20
-789.24996646591808
 30
0.0
 11
-558.01034639389206
 21
-787.49996646591808
 31
0.0
  0
LINE
  5
679
100
AcDbEntity
  8
IMPORTED
  6
STYLE_05
 62
              30
100
AcDbLine
 10
-556.99994639389206
 20
-800.74996646591808
 30
0.0
 11
-556.99994639389206
 21
-789.24996646591808
 31
0.0
  0
LINE
  5
67A
100
AcDbEntity
  8
IMPORTED
  6
STYLE_05
 62
              30
100
AcDbLine
 10
-563.49994639389206
 20
-800.74996646591808
 30
0.0
 11
-562.48954639389206
 21
-802.49996646591808
 31
0.0
  0
LINE
  5
67B
100
AcDbEntity
  8
IMPORTED
  6
STYLE_05
 62
              30
100
AcDbLine
 10
-563.49994639389206
 20
-798.74156646591814
 30
0.0
 11
-556.99994639389206
 21
-798.74156646591814
 31
0.0
  0
LINE
  5
67C
100
AcDbEntity
  8
IMPORTED
  6
STYLE_05
 62
              30
100
AcDbLine
 10
-563.49994639389206
 20
-789.24996646591808
 30
0.0
 11
-562.48954639389206
 21
-787.49996646591808
 31
0.0
  0
LINE
  5
67D
100
AcDbEntity
  8
IMPORTED
  6
STYLE_05
 62
              30
100
AcDbLine
 10
-563.49994639389206
 20
-791.25826646591815
 30
0.0
 11
-556.99994639389206
 21
-791.25826646591815
 31
0.0
  0
POLYLINE
  5
67E
100
AcDbEntity
  8
IMPORTED
  6
STYLE_05
 62
              30
100
AcDb2dPolyline
 66
               1
 10
0.0
 20
0.0
 30
0.0
 70
             129
  0
VERTEX
  5
67F
100
AcDbEntity
  8
IMPORTED
  6
STYLE_05
 62
              30
100
AcDbVertex
100
AcDb2dVertex
 10
-554.99994639389206
 20
-730.99996646591808
 30
0.0
  0
VERTEX
  5
680
100
AcDbEntity
  8
IMPORTED
  6
STYLE_05
 62
              30
100
AcDbVertex
100
AcDb2dVertex
 10
-344.99994639389195
 20
-730.99996646591808
 30
0.0
  0
VERTEX
  5
681
100
AcDbEntity
  8
IMPORTED
  6
STYLE_05
 62
              30
100
AcDbVertex
100
AcDb2dVertex
 10
-344.99994639389195
 20
-738.99996646591808
 30
0.0
  0
VERTEX
  5
682
100
AcDbEntity
  8
IMPORTED
  6
STYLE_05
 62
              30
100
AcDbVertex
100
AcDb2dVertex
 10
-554.99994639389206
 20
-738.99996646591808
 30
0.0
  0
SEQEND
  5
683
100
AcDbEntity
  8
IMPORTED
  6
STYLE_05
 62
              30
  0
POLYLINE
  5
684
100
AcDbEntity
  8
IMPORTED
  6
STYLE_05
 62
              30
100
AcDb2dPolyline
 66
               1
 10
0.0
 20
0.0
 30
0.0
 70
             129
  0
VERTEX
  5
685
100
AcDbEntity
  8
IMPORTED
  6
STYLE_05
 62
              30
100
AcDbVertex
100
AcDb2dVertex
 10
-344.99994639389195
 20
-726.99996646591808
 30
0.0
  0
VERTEX
  5
686
100
AcDbEntity
  8
IMPORTED
  6
STYLE_05
 62
              30
100
AcDbVertex
100
AcDb2dVertex
 10
-342.99994639389195
 20
-726.99996646591808
 30
0.0
  0
VERTEX
  5
687
100
AcDbEntity
  8
IMPORTED
  6
STYLE_05
 62
              30
100
AcDbVertex
100
AcDb2dVertex
 10
-342.99994639389195
 20
-742.99996646591808
 30
0.0
  0
VERTEX
  5
688
100
AcDbEntity
  8
IMPORTED
  6
STYLE_05
 62
              30
100
AcDbVertex
100
AcDb2dVertex
 10
-344.99994639389195
 20
-742.99996646591808
 30
0.0
  0
SEQEND
  5
689
100
AcDbEntity
  8
IMPORTED
  6
STYLE_05
 62
              30
  0
LINE
  5
68A
100
AcDbEntity
  8
IMPORTED
  6
STYLE_05
 62
              30
100
AcDbLine
 10
-336.24994639389195
 20
-729.24996646591808
 30
0.0
 11
-336.49994639389195
 21
-729.24996646591808
 31
0.0
  0
LINE
  5
68B
100
AcDbEntity
  8
IMPORTED
  6
STYLE_05
 62
              30
100
AcDbLine
 10
-336.24994639389195
 20
-740.74996646591808
 30
0.0
 11
-336.49994639389195
 21
-740.74996646591808
 31
0.0
  0
LINE
  5
68C
100
AcDbEntity
  8
IMPORTED
  6
STYLE_05
 62
              30
100
AcDbLine
 10
-336.49994639389195
 20
-729.24996646591808
 30
0.0
 11
-336.49994639389195
 21
-740.74996646591808
 31
0.0
  0
ARC
  5
68D
100
AcDbEntity
  8
IMPORTED
  6
STYLE_05
 62
              30
100
AcDbCircle
 10
-336.24994639389195
 20
-734.99996646591808
 30
0.0
 40
5.75
100
AcDbArc
 50
270.0
 51
90.0
  0
LINE
  5
68E
100
AcDbEntity
  8
IMPORTED
  6
STYLE_05
 62
              30
100
AcDbLine
 10
-337.51034639389195
 20
-727.49996646591808
 30
0.0
 11
-341.989546393892
 21
-727.49996646591808
 31
0.0
  0
LINE
  5
68F
100
AcDbEntity
  8
IMPORTED
  6
STYLE_05
 62
              30
100
AcDbLine
 10
-342.99994639389195
 20
-729.24996646591808
 30
0.0
 11
-341.989546393892
 21
-727.49996646591808
 31
0.0
  0
LINE
  5
690
100
AcDbEntity
  8
IMPORTED
  6
STYLE_05
 62
              30
100
AcDbLine
 10
-337.51034639389195
 20
-742.49996646591808
 30
0.0
 11
-341.989546393892
 21
-742.49996646591808
 31
0.0
  0
LINE
  5
691
100
AcDbEntity
  8
IMPORTED
  6
STYLE_05
 62
              30
100
AcDbLine
 10
-342.99994639389195
 20
-740.74996646591808
 30
0.0
 11
-341.989546393892
 21
-742.49996646591808
 31
0.0
  0
LINE
  5
692
100
AcDbEntity
  8
IMPORTED
  6
STYLE_05
 62
              30
100
AcDbLine
 10
-342.99994639389195
 20
-729.24996646591808
 30
0.0
 11
-342.99994639389195
 21
-740.74996646591808
 31
0.0
  0
LINE
  5
693
100
AcDbEntity
  8
IMPORTED
  6
STYLE_05
 62
              30
100
AcDbLine
 10
-336.49994639389195
 20
-729.24996646591808
 30
0.0
 11
-337.51034639389195
 21
-727.49996646591808
 31
0.0
  0
LINE
  5
694
100
AcDbEntity
  8
IMPORTED
  6
STYLE_05
 62
              30
100
AcDbLine
 10
-336.49994639389195
 20
-731.25836646591813
 30
0.0
 11
-342.99994639389195
 21
-731.25836646591813
 31
0.0
  0
LINE
  5
695
100
AcDbEntity
  8
IMPORTED
  6
STYLE_05
 62
              30
100
AcDbLine
 10
-336.49994639389195
 20
-740.74996646591808
 30
0.0
 11
-337.51034639389195
 21
-742.49996646591808
 31
0.0
  0
LINE
  5
696
100
AcDbEntity
  8
IMPORTED
  6
STYLE_05
 62
              30
100
AcDbLine
 10
-336.49994639389195
 20
-738.74166646591812
 30
0.0
 11
-342.99994639389195
 21
-738.74166646591812
 31
0.0
  0
POLYLINE
  5
697
100
AcDbEntity
  8
IMPORTED
  6
STYLE_05
 62
              30
100
AcDb2dPolyline
 66
               1
 10
0.0
 20
0.0
 30
0.0
 70
             129
  0
VERTEX
  5
698
100
AcDbEntity
  8
IMPORTED
  6
STYLE_05
 62
              30
100
AcDbVertex
100
AcDb2dVertex
 10
-554.99994639389206
 20
-726.99996646591808
 30
0.0
  0
VERTEX
  5
699
100
AcDbEntity
  8
IMPORTED
  6
STYLE_05
 62
              30
100
AcDbVertex
100
AcDb2dVertex
 10
-556.99994639389206
 20
-726.99996646591808
 30
0.0
  0
VERTEX
  5
69A
100
AcDbEntity
  8
IMPORTED
  6
STYLE_05
 62
              30
100
AcDbVertex
100
AcDb2dVertex
 10
-556.99994639389206
 20
-742.99996646591808
 30
0.0
  0
VERTEX
  5
69B
100
AcDbEntity
  8
IMPORTED
  6
STYLE_05
 62
              30
100
AcDbVertex
100
AcDb2dVertex
 10
-554.99994639389206
 20
-742.99996646591808
 30
0.0
  0
SEQEND
  5
69C
100
AcDbEntity
  8
IMPORTED
  6
STYLE_05
 62
              30
  0
LINE
  5
69D
100
AcDbEntity
  8
IMPORTED
  6
STYLE_05
 62
              30
100
AcDbLine
 10
-563.74994639389206
 20
-729.24996646591808
 30
0.0
 11
-563.49994639389206
 21
-729.24996646591808
 31
0.0
  0
LINE
  5
69E
100
AcDbEntity
  8
IMPORTED
  6
STYLE_05
 62
              30
100
AcDbLine
 10
-563.74994639389206
 20
-740.74996646591808
 30
0.0
 11
-563.49994639389206
 21
-740.74996646591808
 31
0.0
  0
LINE
  5
69F
100
AcDbEntity
  8
IMPORTED
  6
STYLE_05
 62
              30
100
AcDbLine
 10
-563.49994639389206
 20
-729.24996646591808
 30
0.0
 11
-563.49994639389206
 21
-740.74996646591808
 31
0.0
  0
ARC
  5
6A0
100
AcDbEntity
  8
IMPORTED
  6
STYLE_05
 62
              30
100
AcDbCircle
 10
-563.74994639389206
 20
-734.99996646591808
 30
0.0
 40
5.75
100
AcDbArc
 50
90.0
 51
270.0
  0
LINE
  5
6A1
100
AcDbEntity
  8
IMPORTED
  6
STYLE_05
 62
              30
100
AcDbLine
 10
-562.48954639389206
 20
-727.49996646591808
 30
0.0
 11
-558.01034639389206
 21
-727.49996646591808
 31
0.0
  0
LINE
  5
6A2
100
AcDbEntity
  8
IMPORTED
  6
STYLE_05
 62
              30
100
AcDbLine
 10
-556.99994639389206
 20
-729.24996646591808
 30
0.0
 11
-558.01034639389206
 21
-727.49996646591808
 31
0.0
  0
LINE
  5
6A3
100
AcDbEntity
  8
IMPORTED
  6
STYLE_05
 62
              30
100
AcDbLine
 10
-562.48954639389206
 20
-742.49996646591808
 30
0.0
 11
-558.01034639389206
 21
-742.49996646591808
 31
0.0
  0
LINE
  5
6A4
100
AcDbEntity
  8
IMPORTED
  6
STYLE_05
 62
              30
100
AcDbLine
 10
-556.99994639389206
 20
-740.74996646591808
 30
0.0
 11
-558.01034639389206
 21
-742.49996646591808
 31
0.0
  0
LINE
  5
6A5
100
AcDbEntity
  8
IMPORTED
  6
STYLE_05
 62
              30
100
AcDbLine
 10
-556.99994639389206
 20
-729.24996646591808
 30
0.0
 11
-556.99994639389206
 21
-740.74996646591808
 31
0.0
  0
LINE
  5
6A6
100
AcDbEntity
  8
IMPORTED
  6
STYLE_05
 62
              30
100
AcDbLine
 10
-563.49994639389206
 20
-729.24996646591808
 30
0.0
 11
-562.48954639389206
 21
-727.49996646591808
 31
0.0
  0
LINE
  5
6A7
100
AcDbEntity
  8
IMPORTED
  6
STYLE_05
 62
              30
100
AcDbLine
 10
-563.49994639389206
 20
-731.25836646591813
 30
0.0
 11
-556.99994639389206
 21
-731.25836646591813
 31
0.0
  0
LINE
  5
6A8
100
AcDbEntity
  8
IMPORTED
  6
STYLE_05
 62
              30
100
AcDbLine
 10
-563.49994639389206
 20
-740.74996646591808
 30
0.0
 11
-562.48954639389206
 21
-742.49996646591808
 31
0.0
  0
LINE
  5
6A9
100
AcDbEntity
  8
IMPORTED
  6
STYLE_05
 62
              30
100
AcDbLine
 10
-563.49994639389206
 20
-738.74166646591812
 30
0.0
 11
-556.99994639389206
 21
-738.74166646591812
 31
0.0
  0
POLYLINE
  5
6AA
100
AcDbEntity
  8
IMPORTED
  6
STYLE_05
 62
              30
100
AcDb2dPolyline
 66
               1
 10
0.0
 20
0.0
 30
0.0
 70
             129
  0
VERTEX
  5
6AB
100
AcDbEntity
  8
IMPORTED
  6
STYLE_05
 62
              30
100
AcDbVertex
100
AcDb2dVertex
 10
-554.99994639389206
 20
-1000.9999664659181
 30
0.0
  0
VERTEX
  5
6AC
100
AcDbEntity
  8
IMPORTED
  6
STYLE_05
 62
              30
100
AcDbVertex
100
AcDb2dVertex
 10
-344.99994639389195
 20
-1000.9999664659181
 30
0.0
  0
VERTEX
  5
6AD
100
AcDbEntity
  8
IMPORTED
  6
STYLE_05
 62
              30
100
AcDbVertex
100
AcDb2dVertex
 10
-344.99994639389195
 20
-1008.9999664659181
 30
0.0
  0
VERTEX
  5
6AE
100
AcDbEntity
  8
IMPORTED
  6
STYLE_05
 62
              30
100
AcDbVertex
100
AcDb2dVertex
 10
-554.99994639389206
 20
-1008.9999664659181
 30
0.0
  0
SEQEND
  5
6AF
100
AcDbEntity
  8
IMPORTED
  6
STYLE_05
 62
              30
  0
POLYLINE
  5
6B0
100
AcDbEntity
  8
IMPORTED
  6
STYLE_05
 62
              30
100
AcDb2dPolyline
 66
               1
 10
0.0
 20
0.0
 30
0.0
 70
             129
  0
VERTEX
  5
6B1
100
AcDbEntity
  8
IMPORTED
  6
STYLE_05
 62
              30
100
AcDbVertex
100
AcDb2dVertex
 10
-344.99994639389195
 20
-996.99996646591808
 30
0.0
  0
VERTEX
  5
6B2
100
AcDbEntity
  8
IMPORTED
  6
STYLE_05
 62
              30
100
AcDbVertex
100
AcDb2dVertex
 10
-342.99994639389195
 20
-996.99996646591808
 30
0.0
  0
VERTEX
  5
6B3
100
AcDbEntity
  8
IMPORTED
  6
STYLE_05
 62
              30
100
AcDbVertex
100
AcDb2dVertex
 10
-342.99994639389195
 20
-1012.9999664659181
 30
0.0
  0
VERTEX
  5
6B4
100
AcDbEntity
  8
IMPORTED
  6
STYLE_05
 62
              30
100
AcDbVertex
100
AcDb2dVertex
 10
-344.99994639389195
 20
-1012.9999664659181
 30
0.0
  0
SEQEND
  5
6B5
100
AcDbEntity
  8
IMPORTED
  6
STYLE_05
 62
              30
  0
LINE
  5
6B6
100
AcDbEntity
  8
IMPORTED
  6
STYLE_05
 62
              30
100
AcDbLine
 10
-336.24994639389195
 20
-999.24996646591808
 30
0.0
 11
-336.49994639389195
 21
-999.24996646591808
 31
0.0
  0
LINE
  5
6B7
100
AcDbEntity
  8
IMPORTED
  6
STYLE_05
 62
              30
100
AcDbLine
 10
-336.24994639389195
 20
-1010.7499664659181
 30
0.0
 11
-336.49994639389195
 21
-1010.7499664659181
 31
0.0
  0
LINE
  5
6B8
100
AcDbEntity
  8
IMPORTED
  6
STYLE_05
 62
              30
100
AcDbLine
 10
-336.49994639389195
 20
-999.24996646591808
 30
0.0
 11
-336.49994639389195
 21
-1010.7499664659181
 31
0.0
  0
ARC
  5
6B9
100
AcDbEntity
  8
IMPORTED
  6
STYLE_05
 62
              30
100
AcDbCircle
 10
-336.24994639389195
 20
-1004.9999664659181
 30
0.0
 40
5.75
100
AcDbArc
 50
270.0
 51
90.0
  0
LINE
  5
6BA
100
AcDbEntity
  8
IMPORTED
  6
STYLE_05
 62
              30
100
AcDbLine
 10
-337.51034639389195
 20
-997.49996646591808
 30
0.0
 11
-341.989546393892
 21
-997.49996646591808
 31
0.0
  0
LINE
  5
6BB
100
AcDbEntity
  8
IMPORTED
  6
STYLE_05
 62
              30
100
AcDbLine
 10
-342.99994639389195
 20
-999.24996646591808
 30
0.0
 11
-341.989546393892
 21
-997.49996646591808
 31
0.0
  0
LINE
  5
6BC
100
AcDbEntity
  8
IMPORTED
  6
STYLE_05
 62
              30
100
AcDbLine
 10
-337.51034639389195
 20
-1012.4999664659181
 30
0.0
 11
-341.989546393892
 21
-1012.4999664659181
 31
0.0
  0
LINE
  5
6BD
100
AcDbEntity
  8
IMPORTED
  6
STYLE_05
 62
              30
100
AcDbLine
 10
-342.99994639389195
 20
-1010.7499664659181
 30
0.0
 11
-341.989546393892
 21
-1012.4999664659181
 31
0.0
  0
LINE
  5
6BE
100
AcDbEntity
  8
IMPORTED
  6
STYLE_05
 62
              30
100
AcDbLine
 10
-342.99994639389195
 20
-999.24996646591808
 30
0.0
 11
-342.99994639389195
 21
-1010.7499664659181
 31
0.0
  0
LINE
  5
6BF
100
AcDbEntity
  8
IMPORTED
  6
STYLE_05
 62
              30
100
AcDbLine
 10
-336.49994639389195
 20
-999.24996646591808
 30
0.0
 11
-337.51034639389195
 21
-997.49996646591808
 31
0.0
  0
LINE
  5
6C0
100
AcDbEntity
  8
IMPORTED
  6
STYLE_05
 62
              30
100
AcDbLine
 10
-336.49994639389195
 20
-1001.2583664659181
 30
0.0
 11
-342.99994639389195
 21
-1001.2583664659181
 31
0.0
  0
LINE
  5
6C1
100
AcDbEntity
  8
IMPORTED
  6
STYLE_05
 62
              30
100
AcDbLine
 10
-336.49994639389195
 20
-1010.7499664659181
 30
0.0
 11
-337.51034639389195
 21
-1012.4999664659181
 31
0.0
  0
LINE
  5
6C2
100
AcDbEntity
  8
IMPORTED
  6
STYLE_05
 62
              30
100
AcDbLine
 10
-336.49994639389195
 20
-1008.7416664659181
 30
0.0
 11
-342.99994639389195
 21
-1008.7416664659181
 31
0.0
  0
POLYLINE
  5
6C3
100
AcDbEntity
  8
IMPORTED
  6
STYLE_05
 62
              30
100
AcDb2dPolyline
 66
               1
 10
0.0
 20
0.0
 30
0.0
 70
             129
  0
VERTEX
  5
6C4
100
AcDbEntity
  8
IMPORTED
  6
STYLE_05
 62
              30
100
AcDbVertex
100
AcDb2dVertex
 10
-554.99994639389206
 20
-996.99996646591808
 30
0.0
  0
VERTEX
  5
6C5
100
AcDbEntity
  8
IMPORTED
  6
STYLE_05
 62
              30
100
AcDbVertex
100
AcDb2dVertex
 10
-556.99994639389206
 20
-996.99996646591808
 30
0.0
  0
VERTEX
  5
6C6
100
AcDbEntity
  8
IMPORTED
  6
STYLE_05
 62
              30
100
AcDbVertex
100
AcDb2dVertex
 10
-556.99994639389206
 20
-1012.9999664659181
 30
0.0
  0
VERTEX
  5
6C7
100
AcDbEntity
  8
IMPORTED
  6
STYLE_05
 62
              30
100
AcDbVertex
100
AcDb2dVertex
 10
-554.99994639389206
 20
-1012.9999664659181
 30
0.0
  0
SEQEND
  5
6C8
100
AcDbEntity
  8
IMPORTED
  6
STYLE_05
 62
              30
  0
LINE
  5
6C9
100
AcDbEntity
  8
IMPORTED
  6
STYLE_05
 62
              30
100
AcDbLine
 10
-563.74994639389206
 20
-999.24996646591808
 30
0.0
 11
-563.49994639389206
 21
-999.24996646591808
 31
0.0
  0
LINE
  5
6CA
100
AcDbEntity
  8
IMPORTED
  6
STYLE_05
 62
              30
100
AcDbLine
 10
-563.74994639389206
 20
-1010.7499664659181
 30
0.0
 11
-563.49994639389206
 21
-1010.7499664659181
 31
0.0
  0
LINE
  5
6CB
100
AcDbEntity
  8
IMPORTED
  6
STYLE_05
 62
              30
100
AcDbLine
 10
-563.49994639389206
 20
-999.24996646591808
 30
0.0
 11
-563.49994639389206
 21
-1010.7499664659181
 31
0.0
  0
ARC
  5
6CC
100
AcDbEntity
  8
IMPORTED
  6
STYLE_05
 62
              30
100
AcDbCircle
 10
-563.74994639389206
 20
-1004.9999664659181
 30
0.0
 40
5.75
100
AcDbArc
 50
90.0
 51
270.0
  0
LINE
  5
6CD
100
AcDbEntity
  8
IMPORTED
  6
STYLE_05
 62
              30
100
AcDbLine
 10
-562.48954639389206
 20
-997.49996646591808
 30
0.0
 11
-558.01034639389206
 21
-997.49996646591808
 31
0.0
  0
LINE
  5
6CE
100
AcDbEntity
  8
IMPORTED
  6
STYLE_05
 62
              30
100
AcDbLine
 10
-556.99994639389206
 20
-999.24996646591808
 30
0.0
 11
-558.01034639389206
 21
-997.49996646591808
 31
0.0
  0
LINE
  5
6CF
100
AcDbEntity
  8
IMPORTED
  6
STYLE_05
 62
              30
100
AcDbLine
 10
-562.48954639389206
 20
-1012.4999664659181
 30
0.0
 11
-558.01034639389206
 21
-1012.4999664659181
 31
0.0
  0
LINE
  5
6D0
100
AcDbEntity
  8
IMPORTED
  6
STYLE_05
 62
              30
100
AcDbLine
 10
-556.99994639389206
 20
-1010.7499664659181
 30
0.0
 11
-558.01034639389206
 21
-1012.4999664659181
 31
0.0
  0
LINE
  5
6D1
100
AcDbEntity
  8
IMPORTED
  6
STYLE_05
 62
              30
100
AcDbLine
 10
-556.99994639389206
 20
-999.24996646591808
 30
0.0
 11
-556.99994639389206
 21
-1010.7499664659181
 31
0.0
  0
LINE
  5
6D2
100
AcDbEntity
  8
IMPORTED
  6
STYLE_05
 62
              30
100
AcDbLine
 10
-563.49994639389206
 20
-999.24996646591808
 30
0.0
 11
-562.48954639389206
 21
-997.49996646591808
 31
0.0
  0
LINE
  5
6D3
100
AcDbEntity
  8
IMPORTED
  6
STYLE_05
 62
              30
100
AcDbLine
 10
-563.49994639389206
 20
-1001.2583664659181
 30
0.0
 11
-556.99994639389206
 21
-1001.2583664659181
 31
0.0
  0
LINE
  5
6D4
100
AcDbEntity
  8
IMPORTED
  6
STYLE_05
 62
              30
100
AcDbLine
 10
-563.49994639389206
 20
-1010.7499664659181
 30
0.0
 11
-562.48954639389206
 21
-1012.4999664659181
 31
0.0
  0
LINE
  5
6D5
100
AcDbEntity
  8
IMPORTED
  6
STYLE_05
 62
              30
100
AcDbLine
 10
-563.49994639389206
 20
-1008.7416664659181
 30
0.0
 11
-556.99994639389206
 21
-1008.7416664659181
 31
0.0
  0
POLYLINE
  5
6D6
100
AcDbEntity
  8
IMPORTED
  6
STYLE_05
 62
              30
100
AcDb2dPolyline
 66
               1
 10
0.0
 20
0.0
 30
0.0
 70
             129
  0
VERTEX
  5
6D7
100
AcDbEntity
  8
IMPORTED
  6
STYLE_05
 62
              30
100
AcDbVertex
100
AcDb2dVertex
 10
-554.99994639389206
 20
-1068.9999664659181
 30
0.0
  0
VERTEX
  5
6D8
100
AcDbEntity
  8
IMPORTED
  6
STYLE_05
 62
              30
100
AcDbVertex
100
AcDb2dVertex
 10
-344.99994639389195
 20
-1068.9999664659181
 30
0.0
  0
VERTEX
  5
6D9
100
AcDbEntity
  8
IMPORTED
  6
STYLE_05
 62
              30
100
AcDbVertex
100
AcDb2dVertex
 10
-344.99994639389195
 20
-1060.9999664659181
 30
0.0
  0
VERTEX
  5
6DA
100
AcDbEntity
  8
IMPORTED
  6
STYLE_05
 62
              30
100
AcDbVertex
100
AcDb2dVertex
 10
-554.99994639389206
 20
-1060.9999664659181
 30
0.0
  0
SEQEND
  5
6DB
100
AcDbEntity
  8
IMPORTED
  6
STYLE_05
 62
              30
  0
POLYLINE
  5
6DC
100
AcDbEntity
  8
IMPORTED
  6
STYLE_05
 62
              30
100
AcDb2dPolyline
 66
               1
 10
0.0
 20
0.0
 30
0.0
 70
             129
  0
VERTEX
  5
6DD
100
AcDbEntity
  8
IMPORTED
  6
STYLE_05
 62
              30
100
AcDbVertex
100
AcDb2dVertex
 10
-344.99994639389195
 20
-1072.9999664659181
 30
0.0
  0
VERTEX
  5
6DE
100
AcDbEntity
  8
IMPORTED
  6
STYLE_05
 62
              30
100
AcDbVertex
100
AcDb2dVertex
 10
-342.99994639389195
 20
-1072.9999664659181
 30
0.0
  0
VERTEX
  5
6DF
100
AcDbEntity
  8
IMPORTED
  6
STYLE_05
 62
              30
100
AcDbVertex
100
AcDb2dVertex
 10
-342.99994639389195
 20
-1056.9999664659181
 30
0.0
  0
VERTEX
  5
6E0
100
AcDbEntity
  8
IMPORTED
  6
STYLE_05
 62
              30
100
AcDbVertex
100
AcDb2dVertex
 10
-344.99994639389195
 20
-1056.9999664659181
 30
0.0
  0
SEQEND
  5
6E1
100
AcDbEntity
  8
IMPORTED
  6
STYLE_05
 62
              30
  0
LINE
  5
6E2
100
AcDbEntity
  8
IMPORTED
  6
STYLE_05
 62
              30
100
AcDbLine
 10
-336.24994639389195
 20
-1070.7499664659181
 30
0.0
 11
-336.49994639389195
 21
-1070.7499664659181
 31
0.0
  0
LINE
  5
6E3
100
AcDbEntity
  8
IMPORTED
  6
STYLE_05
 62
              30
100
AcDbLine
 10
-336.24994639389195
 20
-1059.2499664659181
 30
0.0
 11
-336.49994639389195
 21
-1059.2499664659181
 31
0.0
  0
LINE
  5
6E4
100
AcDbEntity
  8
IMPORTED
  6
STYLE_05
 62
              30
100
AcDbLine
 10
-336.49994639389195
 20
-1070.7499664659181
 30
0.0
 11
-336.49994639389195
 21
-1059.2499664659181
 31
0.0
  0
ARC
  5
6E5
100
AcDbEntity
  8
IMPORTED
  6
STYLE_05
 62
              30
100
AcDbCircle
 10
-336.24994639389195
 20
-1064.9999664659181
 30
0.0
 40
5.75
100
AcDbArc
 50
270.0
 51
90.0
  0
LINE
  5
6E6
100
AcDbEntity
  8
IMPORTED
  6
STYLE_05
 62
              30
100
AcDbLine
 10
-337.51034639389195
 20
-1072.4999664659181
 30
0.0
 11
-341.989546393892
 21
-1072.4999664659181
 31
0.0
  0
LINE
  5
6E7
100
AcDbEntity
  8
IMPORTED
  6
STYLE_05
 62
              30
100
AcDbLine
 10
-342.99994639389195
 20
-1070.7499664659181
 30
0.0
 11
-341.989546393892
 21
-1072.4999664659181
 31
0.0
  0
LINE
  5
6E8
100
AcDbEntity
  8
IMPORTED
  6
STYLE_05
 62
              30
100
AcDbLine
 10
-337.51034639389195
 20
-1057.4999664659181
 30
0.0
 11
-341.989546393892
 21
-1057.4999664659181
 31
0.0
  0
LINE
  5
6E9
100
AcDbEntity
  8
IMPORTED
  6
STYLE_05
 62
              30
100
AcDbLine
 10
-342.99994639389195
 20
-1059.2499664659181
 30
0.0
 11
-341.989546393892
 21
-1057.4999664659181
 31
0.0
  0
LINE
  5
6EA
100
AcDbEntity
  8
IMPORTED
  6
STYLE_05
 62
              30
100
AcDbLine
 10
-342.99994639389195
 20
-1070.7499664659181
 30
0.0
 11
-342.99994639389195
 21
-1059.2499664659181
 31
0.0
  0
LINE
  5
6EB
100
AcDbEntity
  8
IMPORTED
  6
STYLE_05
 62
              30
100
AcDbLine
 10
-336.49994639389195
 20
-1070.7499664659181
 30
0.0
 11
-337.51034639389195
 21
-1072.4999664659181
 31
0.0
  0
LINE
  5
6EC
100
AcDbEntity
  8
IMPORTED
  6
STYLE_05
 62
              30
100
AcDbLine
 10
-336.49994639389195
 20
-1068.7415664659179
 30
0.0
 11
-342.99994639389195
 21
-1068.7415664659179
 31
0.0
  0
LINE
  5
6ED
100
AcDbEntity
  8
IMPORTED
  6
STYLE_05
 62
              30
100
AcDbLine
 10
-336.49994639389195
 20
-1059.2499664659181
 30
0.0
 11
-337.51034639389195
 21
-1057.4999664659181
 31
0.0
  0
LINE
  5
6EE
100
AcDbEntity
  8
IMPORTED
  6
STYLE_05
 62
              30
100
AcDbLine
 10
-336.49994639389195
 20
-1061.258266465918
 30
0.0
 11
-342.99994639389195
 21
-1061.258266465918
 31
0.0
  0
POLYLINE
  5
6EF
100
AcDbEntity
  8
IMPORTED
  6
STYLE_05
 62
              30
100
AcDb2dPolyline
 66
               1
 10
0.0
 20
0.0
 30
0.0
 70
             129
  0
VERTEX
  5
6F0
100
AcDbEntity
  8
IMPORTED
  6
STYLE_05
 62
              30
100
AcDbVertex
100
AcDb2dVertex
 10
-554.99994639389206
 20
-1072.9999664659181
 30
0.0
  0
VERTEX
  5
6F1
100
AcDbEntity
  8
IMPORTED
  6
STYLE_05
 62
              30
100
AcDbVertex
100
AcDb2dVertex
 10
-556.99994639389206
 20
-1072.9999664659181
 30
0.0
  0
VERTEX
  5
6F2
100
AcDbEntity
  8
IMPORTED
  6
STYLE_05
 62
              30
100
AcDbVertex
100
AcDb2dVertex
 10
-556.99994639389206
 20
-1056.9999664659181
 30
0.0
  0
VERTEX
  5
6F3
100
AcDbEntity
  8
IMPORTED
  6
STYLE_05
 62
              30
100
AcDbVertex
100
AcDb2dVertex
 10
-554.99994639389206
 20
-1056.9999664659181
 30
0.0
  0
SEQEND
  5
6F4
100
AcDbEntity
  8
IMPORTED
  6
STYLE_05
 62
              30
  0
LINE
  5
6F5
100
AcDbEntity
  8
IMPORTED
  6
STYLE_05
 62
              30
100
AcDbLine
 10
-563.74994639389206
 20
-1070.7499664659181
 30
0.0
 11
-563.49994639389206
 21
-1070.7499664659181
 31
0.0
  0
LINE
  5
6F6
100
AcDbEntity
  8
IMPORTED
  6
STYLE_05
 62
              30
100
AcDbLine
 10
-563.74994639389206
 20
-1059.2499664659181
 30
0.0
 11
-563.49994639389206
 21
-1059.2499664659181
 31
0.0
  0
LINE
  5
6F7
100
AcDbEntity
  8
IMPORTED
  6
STYLE_05
 62
              30
100
AcDbLine
 10
-563.49994639389206
 20
-1070.7499664659181
 30
0.0
 11
-563.49994639389206
 21
-1059.2499664659181
 31
0.0
  0
ARC
  5
6F8
100
AcDbEntity
  8
IMPORTED
  6
STYLE_05
 62
              30
100
AcDbCircle
 10
-563.74994639389206
 20
-1064.9999664659181
 30
0.0
 40
5.75
100
AcDbArc
 50
90.0
 51
270.0
  0
LINE
  5
6F9
100
AcDbEntity
  8
IMPORTED
  6
STYLE_05
 62
              30
100
AcDbLine
 10
-562.48954639389206
 20
-1072.4999664659181
 30
0.0
 11
-558.01034639389206
 21
-1072.4999664659181
 31
0.0
  0
LINE
  5
6FA
100
AcDbEntity
  8
IMPORTED
  6
STYLE_05
 62
              30
100
AcDbLine
 10
-556.99994639389206
 20
-1070.7499664659181
 30
0.0
 11
-558.01034639389206
 21
-1072.4999664659181
 31
0.0
  0
LINE
  5
6FB
100
AcDbEntity
  8
IMPORTED
  6
STYLE_05
 62
              30
100
AcDbLine
 10
-562.48954639389206
 20
-1057.4999664659181
 30
0.0
 11
-558.01034639389206
 21
-1057.4999664659181
 31
0.0
  0
LINE
  5
6FC
100
AcDbEntity
  8
IMPORTED
  6
STYLE_05
 62
              30
100
AcDbLine
 10
-556.99994639389206
 20
-1059.2499664659181
 30
0.0
 11
-558.01034639389206
 21
-1057.4999664659181
 31
0.0
  0
LINE
  5
6FD
100
AcDbEntity
  8
IMPORTED
  6
STYLE_05
 62
              30
100
AcDbLine
 10
-556.99994639389206
 20
-1070.7499664659181
 30
0.0
 11
-556.99994639389206
 21
-1059.2499664659181
 31
0.0
  0
LINE
  5
6FE
100
AcDbEntity
  8
IMPORTED
  6
STYLE_05
 62
              30
100
AcDbLine
 10
-563.49994639389206
 20
-1070.7499664659181
 30
0.0
 11
-562.48954639389206
 21
-1072.4999664659181
 31
0.0
  0
LINE
  5
6FF
100
AcDbEntity
  8
IMPORTED
  6
STYLE_05
 62
              30
100
AcDbLine
 10
-563.49994639389206
 20
-1068.7415664659179
 30
0.0
 11
-556.99994639389206
 21
-1068.7415664659179
 31
0.0
  0
LINE
  5
700
100
AcDbEntity
  8
IMPORTED
  6
STYLE_05
 62
              30
100
AcDbLine
 10
-563.49994639389206
 20
-1059.2499664659181
 30
0.0
 11
-562.48954639389206
 21
-1057.4999664659181
 31
0.0
  0
LINE
  5
701
100
AcDbEntity
  8
IMPORTED
  6
STYLE_05
 62
              30
100
AcDbLine
 10
-563.49994639389206
 20
-1061.258266465918
 30
0.0
 11
-556.99994639389206
 21
-1061.258266465918
 31
0.0
  0
LINE
  5
702
100
AcDbEntity
  8
IMPORTED
  6
CONTINUOUS
 62
              30
100
AcDbLine
 10
-1899.9999463938918
 20
939.99993353408172
 30
0.0
 11
-99.999946393892017
 21
939.99993353408172
 31
0.0
  0
POLYLINE
  5
703
100
AcDbEntity
  8
IMPORTED
  6
STYLE_05
 62
              30
100
AcDb2dPolyline
 66
               1
 10
0.0
 20
0.0
 30
0.0
 70
               1
 75
               5
  0
VERTEX
  5
704
100
AcDbEntity
  8
IMPORTED
  6
STYLE_05
 62
              30
100
AcDbVertex
100
AcDb2dVertex
 10
-1014.9999463938919
 20
-719.99996646591808
 30
0.0
  0
VERTEX
  5
705
100
AcDbEntity
  8
IMPORTED
  6
STYLE_05
 62
              30
100
AcDbVertex
100
AcDb2dVertex
 10
-984.99994639389195
 20
-719.99996646591808
 30
0.0
  0
VERTEX
  5
706
100
AcDbEntity
  8
IMPORTED
  6
STYLE_05
 62
              30
100
AcDbVertex
100
AcDb2dVertex
 10
-984.99994639389195
 20
-1079.9999664659181
 30
0.0
  0
VERTEX
  5
707
100
AcDbEntity
  8
IMPORTED
  6
STYLE_05
 62
              30
100
AcDbVertex
100
AcDb2dVertex
 10
-1014.9999463938919
 20
-1079.9999664659181
 30
0.0
  0
SEQEND
  5
708
100
AcDbEntity
  8
IMPORTED
  6
STYLE_05
 62
              30
  0
CIRCLE
  5
70A
100
AcDbEntity
  8
IMPORTED
  6
STYLE_05
 62
              30
100
AcDbCircle
 10
-999.99994639389195
 20
-1004.9999664659181
 30
0.0
 40
4.0
  0
CIRCLE
  5
70B
100
AcDbEntity
  8
IMPORTED
  6
STYLE_05
 62
              30
100
AcDbCircle
 10
-999.99994639389195
 20
-731.99996646591808
 30
0.0
 40
4.0
  0
CIRCLE
  5
70C
100
AcDbEntity
  8
IMPORTED
  6
STYLE_05
 62
              30
100
AcDbCircle
 10
-999.99994639389195
 20
-849.99996646591808
 30
0.0
 40
4.0
  0
CIRCLE
  5
70D
100
AcDbEntity
  8
IMPORTED
  6
STYLE_05
 62
              30
100
AcDbCircle
 10
-999.99994639389195
 20
-1067.9999664659181
 30
0.0
 40
4.0
  0
CIRCLE
  5
70E
100
AcDbEntity
  8
IMPORTED
  6
STYLE_05
 62
              30
100
AcDbCircle
 10
-999.99994639389195
 20
-794.99996646591808
 30
0.0
 40
4.0
  0
CIRCLE
  5
70F
100
AcDbEntity
  8
IMPORTED
  6
STYLE_05
 62
              30
100
AcDbCircle
 10
-999.99994639389195
 20
-949.99996646591808
 30
0.0
 40
4.0
  0
POLYLINE
  5
710
100
AcDbEntity
  8
IMPORTED
  6
CONTINUOUS
 62
              30
100
AcDb2dPolyline
 66
               1
 10
0.0
 20
0.0
 30
0.0
 70
               1
 75
               5
  0
VERTEX
  5
711
100
AcDbEntity
  8
IMPORTED
  6
CONTINUOUS
 62
              30
100
AcDbVertex
100
AcDb2dVertex
 10
-1014.9999463938919
 20
934.99993353408172
 30
0.0
  0
VERTEX
  5
712
100
AcDbEntity
  8
IMPORTED
  6
CONTINUOUS
 62
              30
100
AcDbVertex
100
AcDb2dVertex
 10
-984.99994639389195
 20
934.99993353408172
 30
0.0
  0
VERTEX
  5
713
100
AcDbEntity
  8
IMPORTED
  6
CONTINUOUS
 62
              30
100
AcDbVertex
100
AcDb2dVertex
 10
-984.99994639389195
 20
931.99993353408172
 30
0.0
  0
VERTEX
  5
714
100
AcDbEntity
  8
IMPORTED
  6
CONTINUOUS
 62
              30
100
AcDbVertex
100
AcDb2dVertex
 10
-1014.9999463938919
 20
931.99993353408172
 30
0.0
  0
SEQEND
  5
715
100
AcDbEntity
  8
IMPORTED
  6
CONTINUOUS
 62
              30
  0
SPLINE
  5
717
100
AcDbEntity
  8
IMPORTED
  6
CONTINUOUS
 62
              30
100
AcDbSpline
210
0.0
220
0.0
230
1.0
 70
              13
 71
               2
 72
              20
 73
              17
 74
               0
 42
0.000001
 43
0.000001
 40
0.0
 40
0.0
 40
0.0
 40
1.0
 40
1.0
 40
2.0
 40
2.0
 40
3.0
 40
3.0
 40
4.0
 40
4.0
 40
5.0
 40
5.0
 40
6.0
 40
6.0
 40
7.0
 40
7.0
 40
8.0
 40
8.0
 40
8.0
 10
-1006.9999463938919
 20
931.99993353408172
 30
0.0
 41
1.0
 10
-1006.9999463938919
 20
931.86618858900158
 30
0.0
 41
1.0
 10
-1006.9999463938919
 20
931.73244364392156
 30
0.0
 41
1.0
 10
-1006.9999463938919
 20
929.51123353408161
 30
0.0
 41
0.7475595788177858
 10
-1004.7941730133032
 20
929.24981787743366
 30
0.0
 41
1.0
 10
-1004.1470597035976
 20
929.17312570575768
 30
0.0
 41
1.0
 10
-1003.4999463938919
 20
929.09643353408171
 30
0.0
 41
1.0
 10
-999.99994639389195
 20
928.6816335340817
 30
0.0
 41
1.0
 10
-996.49994639389195
 20
929.09643353408171
 30
0.0
 41
1.0
 10
-995.85283308418627
 20
929.17312570575768
 30
0.0
 41
1.0
 10
-995.20571977448071
 20
929.24981787743366
 30
0.0
 41
1.0
 10
-992.99994639389206
 20
929.51123353408173
 30
0.0
 41
0.7475595788178141
 10
-992.99994639389195
 20
931.73244364392156
 30
0.0
 41
1.0
 10
-992.99994639389195
 20
931.86618858900158
 30
0.0
 41
1.0
 10
-992.99994639389195
 20
931.99993353408172
 30
0.0
 41
1.0
 10
-999.99994639389195
 20
931.99993353408172
 30
0.0
 41
1.0
 10
-1006.9999463938919
 20
931.99993353408172
 30
0.0
 41
1.0
  0
POLYLINE
  5
718
100
AcDbEntity
  8
IMPORTED
  6
STYLE_05
 62
              30
100
AcDb2dPolyline
 66
               1
 10
0.0
 20
0.0
 30
0.0
 70
               1
 75
               5
  0
VERTEX
  5
719
100
AcDbEntity
  8
IMPORTED
  6
STYLE_05
 62
              30
100
AcDbVertex
100
AcDb2dVertex
 10
-1002.566946393892
 20
931.99993353408172
 30
0.0
  0
VERTEX
  5
71A
100
AcDbEntity
  8
IMPORTED
  6
STYLE_05
 62
              30
100
AcDbVertex
100
AcDb2dVertex
 10
-997.43294639389194
 20
931.99993353408172
 30
0.0
  0
VERTEX
  5
71B
100
AcDbEntity
  8
IMPORTED
  6
STYLE_05
 62
              30
100
AcDbVertex
100
AcDb2dVertex
 10
-997.43294639389194
 20
946.99993353408172
 30
0.0
  0
VERTEX
  5
71C
100
AcDbEntity
  8
IMPORTED
  6
STYLE_05
 62
              30
100
AcDbVertex
100
AcDb2dVertex
 10
-999.99994639389195
 20
956.4461335340817
 30
0.0
  0
VERTEX
  5
71D
100
AcDbEntity
  8
IMPORTED
  6
STYLE_05
 62
              30
100
AcDbVertex
100
AcDb2dVertex
 10
-1002.566946393892
 20
946.99993353408172
 30
0.0
  0
SEQEND
  5
71E
100
AcDbEntity
  8
IMPORTED
  6
STYLE_05
 62
              30
  0
MTEXT
  5
720
100
AcDbEntity
  8
IMPORTED
 62
               1
100
AcDbMText
 10
655.84697480710463
 20
-1394.9536910473603
 30
0.0
 40
36.64892578125
 41
0.0
 71
               1
 72
               1
  1
※特記事項\P・ESWは、木粉50％以上、ポリプロピレン40％以上の配合で、\P  表面をサンディング加工した再生木材「EINスーパーウッド」の略称。\P・ESW塗装は、ESWの表面をアクリルシリコン系水性塗料で仕上げた製品。\P
  7
_______
  0
ENDSEC
  0
SECTION
  2
OBJECTS
  0
DICTIONARY
  5
19
100
AcDbDictionary
  3
ACAD_GROUP
350
1A
  3
ACAD_MLINESTYLE
350
1B
  0
DICTIONARY
  5
1A
102
{ACAD_REACTORS
330
19
102
}
100
AcDbDictionary
  0
DICTIONARY
  5
1B
102
{ACAD_REACTORS
330
19
102
}
100
AcDbDictionary
  3
STANDARD
350
1C
  0
MLINESTYLE
  5
1C
102
{ACAD_REACTORS
330
1B
102
}
100
AcDbMlineStyle
  2
STANDARD
 70
               0
  3

 62
               0
 51
90.0
 52
90.0
 71
               2
 49
0.5
 62
             256
  6
BYLAYER
 49
-0.5
 62
             256
  6
BYLAYER
  0
ENDSEC
  0
EOF
