  0
SECTION
  2
HEADER
  9
$ACADVER
  1
AC1012
  9
$DWGCODEPAGE
  3
dos932
  9
$INSBASE
 10
0.0
 20
0.0
 30
0.0
  9
$EXTMIN
 10
-844.34130000000027
 20
-1518.8896
 30
0.0
  9
$EXTMAX
 10
3055.6587
 20
1231.1104
 30
0.0
  9
$LIMMIN
 10
0.0
 20
0.0
  9
$LIMMAX
 10
0.0
 20
0.0
  9
$ORTHOMODE
 70
               0
  9
$REGENMODE
 70
               1
  9
$FILLMODE
 70
               1
  9
$QTEXTMODE
 70
               0
  9
$MIRRTEXT
 70
               1
  9
$DRAGMODE
 70
               2
  9
$LTSCALE
 40
50.799999999999997
  9
$OSMODE
 70
               0
  9
$ATTMODE
 70
               1
  9
$TEXTSIZE
 40
0.2
  9
$TRACEWID
 40
1.0
  9
$TEXTSTYLE
  7
STANDARD
  9
$CLAYER
  8
IMPORTED
  9
$CELTYPE
  6
CONTINUOUS
  9
$CECOLOR
 62
             256
  9
$CELTSCALE
 40
1.0
  9
$DELOBJ
 70
               1
  9
$DISPSILH
 70
               0
  9
$DIMSCALE
 40
1.0
  9
$DIMASZ
 40
0.18
  9
$DIMEXO
 40
0.0625
  9
$DIMDLI
 40
0.38
  9
$DIMRND
 40
0.0
  9
$DIMDLE
 40
0.0
  9
$DIMEXE
 40
0.18
  9
$DIMTP
 40
0.0
  9
$DIMTM
 40
0.0
  9
$DIMTXT
 40
0.18
  9
$DIMCEN
 40
0.09
  9
$DIMTSZ
 40
0.0
  9
$DIMTOL
 70
               0
  9
$DIMLIM
 70
               0
  9
$DIMTIH
 70
               1
  9
$DIMTOH
 70
               1
  9
$DIMSE1
 70
               0
  9
$DIMSE2
 70
               0
  9
$DIMTAD
 70
               0
  9
$DIMZIN
 70
               0
  9
$DIMBLK
  1

  9
$DIMASO
 70
               1
  9
$DIMSHO
 70
               1
  9
$DIMPOST
  1

  9
$DIMAPOST
  1

  9
$DIMALT
 70
               0
  9
$DIMALTD
 70
               2
  9
$DIMALTF
 40
25.399999999999999
  9
$DIMLFAC
 40
1.0
  9
$DIMTOFL
 70
               0
  9
$DIMTVP
 40
0.0
  9
$DIMTIX
 70
               0
  9
$DIMSOXD
 70
               0
  9
$DIMSAH
 70
               0
  9
$DIMBLK1
  1

  9
$DIMBLK2
  1

  9
$DIMSTYLE
  2
STANDARD
  9
$DIMCLRD
 70
               0
  9
$DIMCLRE
 70
               0
  9
$DIMCLRT
 70
               0
  9
$DIMTFAC
 40
1.0
  9
$DIMGAP
 40
0.09
  9
$DIMJUST
 70
               0
  9
$DIMSD1
 70
               0
  9
$DIMSD2
 70
               0
  9
$DIMTOLJ
 70
               1
  9
$DIMTZIN
 70
               0
  9
$DIMALTZ
 70
               0
  9
$DIMALTTZ
 70
               0
  9
$DIMFIT
 70
               3
  9
$DIMUPT
 70
               0
  9
$DIMUNIT
 70
               2
  9
$DIMDEC
 70
               4
  9
$DIMTDEC
 70
               4
  9
$DIMALTU
 70
               2
  9
$DIMALTTD
 70
               2
  9
$DIMTXSTY
  7
STANDARD
  9
$DIMAUNIT
 70
               0
  9
$LUNITS
 70
               2
  9
$LUPREC
 70
               4
  9
$SKETCHINC
 40
0.1
  9
$FILLETRAD
 40
0.0
  9
$AUNITS
 70
               0
  9
$AUPREC
 70
               0
  9
$MENU
  1
acad
  9
$ELEVATION
 40
0.0
  9
$PELEVATION
 40
0.0
  9
$THICKNESS
 40
0.0
  9
$LIMCHECK
 70
               0
  9
$BLIPMODE
 70
               0
  9
$CHAMFERA
 40
0.0
  9
$CHAMFERB
 40
0.0
  9
$CHAMFERC
 40
0.0
  9
$CHAMFERD
 40
0.0
  9
$SKPOLY
 70
               0
  9
$TDCREATE
 40
2459227.594166667
  9
$TDUPDATE
 40
2459227.594166667
  9
$TDINDWG
 40
0.0000000000
  9
$TDUSRTIMER
 40
0.0000000000
  9
$USRTIMER
 70
               1
  9
$ANGBASE
 50
0.0
  9
$ANGDIR
 70
               0
  9
$PDMODE
 70
               1
  9
$PDSIZE
 40
-2.0
  9
$PLINEWID
 40
0.0
  9
$COORDS
 70
               0
  9
$SPLFRAME
 70
               0
  9
$SPLINETYPE
 70
               6
  9
$SPLINESEGS
 70
               8
  9
$ATTDIA
 70
               0
  9
$ATTREQ
 70
               1
  9
$HANDLING
 70
               1
  9
$HANDSEED
  5
6DC
  9
$SURFTAB1
 70
               6
  9
$SURFTAB2
 70
               6
  9
$SURFTYPE
 70
               6
  9
$SURFU
 70
               6
  9
$SURFV
 70
               6
  9
$UCSNAME
  2

  9
$UCSORG
 10
0.0
 20
0.0
 30
0.0
  9
$UCSXDIR
 10
1.0
 20
0.0
 30
0.0
  9
$UCSYDIR
 10
0.0
 20
1.0
 30
0.0
  9
$PUCSNAME
  2

  9
$PUCSORG
 10
0.0
 20
0.0
 30
0.0
  9
$PUCSXDIR
 10
1.0
 20
0.0
 30
0.0
  9
$PUCSYDIR
 10
0.0
 20
1.0
 30
0.0
  9
$USERI1
 70
               0
  9
$USERI2
 70
               0
  9
$USERI3
 70
               0
  9
$USERI4
 70
               0
  9
$USERI5
 70
               0
  9
$USERR1
 40
0.0
  9
$USERR2
 40
0.0
  9
$USERR3
 40
0.0
  9
$USERR4
 40
0.0
  9
$USERR5
 40
0.0
  9
$WORLDVIEW
 70
               1
  9
$SHADEDGE
 70
               3
  9
$SHADEDIF
 70
              70
  9
$TILEMODE
 70
               1
  9
$MAXACTVP
 70
              64
  9
$PINSBASE
 10
0.0
 20
0.0
 30
0.0
  9
$PLIMCHECK
 70
               0
  9
$PEXTMIN
 10
1.0000000000000000E+20
 20
1.0000000000000000E+20
 30
1.0000000000000000E+20
  9
$PEXTMAX
 10
-1.0000000000000000E+20
 20
-1.0000000000000000E+20
 30
-1.0000000000000000E+20
  9
$PLIMMIN
 10
0.0
 20
0.0
  9
$PLIMMAX
 10
12.0
 20
9.0
  9
$UNITMODE
 70
               0
  9
$VISRETAIN
 70
               0
  9
$PLINEGEN
 70
               1
  9
$PSLTSCALE
 70
               0
  9
$TREEDEPTH
 70
            3020
  9
$PICKSTYLE
 70
               1
  9
$CMLSTYLE
  2
STANDARD
  9
$CMLJUST
 70
               0
  9
$CMLSCALE
 40
1.0
  9
$SAVEIMAGES
 70
               0
  0
ENDSEC
  0
SECTION
  2
CLASSES
  0
CLASS
  1
LWPOLYLINE
  2
AcDbPolyline
  3
"AutoCAD"
 90
    32768
280
               0
281
               1
  0
CLASS
  1
IMAGE
  2
AcDbRasterImage
  3
ISM
 90
    32895
280
               0
281
               1
  0
CLASS
  1
OLE2FRAME
  2
AcDbOle2Frame
  3
""
 90
    32768
280
               0
281
               1
  0
CLASS
  1
HATCH
  2
AcDbHatch
  3
"ACAD_SEDONA"
 90
    32768
280
               0
281
               1
  0
CLASS
  1
DICTIONARYVAR
  2
AcDbDictionaryVar
  3
"AutoCAD"
 90
    32768
280
               0
281
               0
  0
CLASS
  1
RASTERVARIABLES
  2
AcDbRasterVariables
  3
ISM
 90
    32768
280
               0
281
               0
  0
CLASS
  1
IMAGEDEF
  2
AcDbRasterImageDef
  3
ISM
 90
    32768
280
               0
281
               0
  0
CLASS
  1
IMAGEDEF_REACTOR
  2
AcDbRasterImageDefReactor
  3
ISM
 90
    32769
280
               0
281
               0
  0
CLASS
  1
IDBUFFER
  2
AcDbIdBuffer
  3
"Acad"
 90
    32768
280
               0
281
               0
  0
CLASS
  1
SPATIAL_FILTER
  2
AcDbSpatialFilter
  3
"Acad"
 90
    32768
280
               0
281
               0
  0
CLASS
  1
XRECORD
  2
AcDbXrecord
  3
"<Built In>"
 90
    32768
280
               0
281
               0
  0
CLASS
  1
SORTENTSTABLE
  2
AcDbSortentsTable
  3
"AutoCAD"
 90
    32768
280
               0
281
               0
  0
CLASS
  1
LAYER_INDEX
  2
AcDbLayerIndex
  3
"Acad"
 90
    32768
280
               0
281
               0
  0
CLASS
  1
SPATIAL_INDEX
  2
AcDbSpatialIndex
  3
"Acad"
 90
    32768
280
               0
281
               0
  0
CLASS
  1
OBJECT_PTR
  2
CAseDLPNTableRecord
  3
"ASE-LPNTableRecord"
 90
    32769
280
               0
281
               0
  0
CLASS
  1
LAYOUT
  2
AcDbLayout
  3
"AutoCAD 2000"
 90
    32768
280
               0
281
               0
  0
CLASS
  1
PLOTSETTINGS
  2
AcDbPlotSettings
  3
"AutoCAD 2000"
 90
    32768
280
               0
281
               0
  0
CLASS
  1
ACDBDICTIONARYWDFLT
  2
AcDbDictionaryWithDefault
  3
"AutoCAD 2000"
 90
    32768
280
               0
281
               0
  0
CLASS
  1
ACDBPLACEHOLDER
  2
AcDbPlaceHolder
  3
"AutoCAD 2000"
 90
    32768
280
               0
281
               0
  0
ENDSEC
  0
SECTION
  2
TABLES
  0
TABLE
  2
VPORT
  5
7
100
AcDbSymbolTable
 70
               1
  0
VPORT
  5
15
100
AcDbSymbolTableRecord
100
AcDbViewportTableRecord
  2
*ACTIVE
 70
               0
 10
0.0
 20
0.0
 11
1.0
 21
1.0
 12
1105.6586999999997
 22
-143.88959999999997
 13
0.0
 23
0.0
 14
1.0
 24
1.0
 15
0.0
 25
0.0
 16
0.0
 26
0.0
 36
1.0
 17
0.0
 27
0.0
 37
0.0
 40
2750.0
 41
0.688564
 42
50.0
 43
0.0
 44
0.0
 50
0.0
 51
0.0
 71
               0
 72
            2000
 73
               1
 74
               1
 75
               0
 76
               0
 77
               0
 78
               0
  0
ENDTAB
  0
TABLE
  2
LTYPE
  5
4
100
AcDbSymbolTable
 70
              16
  0
LTYPE
  5
11
100
AcDbSymbolTableRecord
100
AcDbLinetypeTableRecord
  2
BYBLOCK
 70
              64
  3

 72
              65
 73
               0
 40
0.0
  0
LTYPE
  5
12
100
AcDbSymbolTableRecord
100
AcDbLinetypeTableRecord
  2
BYLAYER
 70
              64
  3

 72
              65
 73
               0
 40
0.0
  0
LTYPE
  5
13
100
AcDbSymbolTableRecord
100
AcDbLinetypeTableRecord
  2
CONTINUOUS
 70
              64
  3
Solid line
 72
              65
 73
               0
 40
0.0
  0
LTYPE
  5
1E
100
AcDbSymbolTableRecord
100
AcDbLinetypeTableRecord
  2
STYLE_01
 70
               0
  3

 72
              65
 73
               2
 40
0.4166412353515625
 49
0.208282470703125
 74
               0
 49
-0.2083587646484375
 74
               0
  0
LTYPE
  5
1F
100
AcDbSymbolTableRecord
100
AcDbLinetypeTableRecord
  2
STYLE_02
 70
               0
  3

 72
              65
 73
               2
 40
0.694427490234375
 49
0.4860687255859375
 74
               0
 49
-0.2083587646484375
 74
               0
  0
LTYPE
  5
20
100
AcDbSymbolTableRecord
100
AcDbLinetypeTableRecord
  2
STYLE_03
 70
               0
  3

 72
              65
 73
               2
 40
1.25
 49
1.0416412353515625
 74
               0
 49
-0.2083587646484375
 74
               0
  0
LTYPE
  5
21
100
AcDbSymbolTableRecord
100
AcDbLinetypeTableRecord
  2
STYLE_04
 70
               0
  3

 72
              65
 73
               2
 40
1.5277099609375
 49
1.319427490234375
 74
               0
 49
-0.208282470703125
 74
               0
  0
LTYPE
  5
22
100
AcDbSymbolTableRecord
100
AcDbLinetypeTableRecord
  2
STYLE_05
 70
               0
  3

 72
              65
 73
               2
 40
0.208282470703125
 49
0.069427490234375
 74
               0
 49
-0.13885498046875
 74
               0
  0
LTYPE
  5
23
100
AcDbSymbolTableRecord
100
AcDbLinetypeTableRecord
  2
STYLE_06
 70
               0
  3

 72
              65
 73
               4
 40
1.0416412353515625
 49
0.625
 74
               0
 49
-0.208282470703125
 74
               0
 49
0.069427490234375
 74
               0
 49
-0.1389312744140625
 74
               0
  0
LTYPE
  5
24
100
AcDbSymbolTableRecord
100
AcDbLinetypeTableRecord
  2
STYLE_07
 70
               0
  3

 72
              65
 73
               6
 40
1.875
 49
0.625
 74
               0
 49
-0.208282470703125
 74
               0
 49
0.625
 74
               0
 49
-0.2083587646484375
 74
               0
 49
0.069427490234375
 74
               0
 49
-0.1389312744140625
 74
               0
  0
LTYPE
  5
25
100
AcDbSymbolTableRecord
100
AcDbLinetypeTableRecord
  2
STYLE_08
 70
               0
  3

 72
              65
 73
               6
 40
1.25
 49
0.625
 74
               0
 49
-0.208282470703125
 74
               0
 49
0.069427490234375
 74
               0
 49
-0.1389312744140625
 74
               0
 49
0.069427490234375
 74
               0
 49
-0.1389312744140625
 74
               0
  0
LTYPE
  5
26
100
AcDbSymbolTableRecord
100
AcDbLinetypeTableRecord
  2
STYLE_09
 70
               0
  3

 72
              65
 73
               2
 40
0.4798126220703125
 49
0.3199005126953125
 74
               0
 49
-0.159912109375
 74
               0
  0
LTYPE
  5
27
100
AcDbSymbolTableRecord
100
AcDbLinetypeTableRecord
  2
STYLE_10
 70
               0
  3

 72
              65
 73
               2
 40
0.1476287841796875
 49
0.098419189453125
 74
               0
 49
-0.0492095947265625
 74
               0
  0
LTYPE
  5
28
100
AcDbSymbolTableRecord
100
AcDbLinetypeTableRecord
  2
STYLE_11
 70
               0
  3

 72
              65
 73
               4
 40
0.3936767578125
 49
0.2460479736328125
 74
               0
 49
-0.0492095947265625
 74
               0
 49
0.0492095947265625
 74
               0
 49
-0.0492095947265625
 74
               0
  0
LTYPE
  5
29
100
AcDbSymbolTableRecord
100
AcDbLinetypeTableRecord
  2
STYLE_12
 70
               0
  3

 72
              65
 73
               2
 40
0.694427490234375
 49
0.4860687255859375
 74
               0
 49
-0.2083587646484375
 74
               0
  0
LTYPE
  5
2A
100
AcDbSymbolTableRecord
100
AcDbLinetypeTableRecord
  2
STYLE_13
 70
               0
  3

 72
              65
 73
               2
 40
0.208282470703125
 49
0.069427490234375
 74
               0
 49
-0.13885498046875
 74
               0
  0
ENDTAB
  0
TABLE
  2
LAYER
  5
2
100
AcDbSymbolTable
 70
               2
  0
LAYER
  5
14
100
AcDbSymbolTableRecord
100
AcDbLayerTableRecord
  2
0
 70
               0
 62
               7
  6
CONTINUOUS
  0
LAYER
  5
2B
100
AcDbSymbolTableRecord
100
AcDbLayerTableRecord
  2
IMPORTED
 70
               0
 62
               7
  6
CONTINUOUS
  0
ENDTAB
  0
TABLE
  2
STYLE
  5
3
100
AcDbSymbolTable
 70
               2
  0
STYLE
  5
17
100
AcDbSymbolTableRecord
100
AcDbTextStyleTableRecord
  2
STANDARD
 70
               0
 40
0.0
 41
1.0
 50
0.0
 71
               0
 42
0.0
  3
txt
  4
BIGFONT.SHX
  0
STYLE
  5
1D
100
AcDbSymbolTableRecord
100
AcDbTextStyleTableRecord
  2
_______
 70
               0
 40
0.0
 41
1.0
 50
0.0
 71
               0
 42
0.0
  3

  4
ＭＳ ゴシック
1001
ACAD
1000
ＭＳ ゴシック
1071
        0
  0
ENDTAB
  0
TABLE
  2
VIEW
  5
5
100
AcDbSymbolTable
 70
               0
  0
ENDTAB
  0
TABLE
  2
UCS
  5
6
100
AcDbSymbolTable
 70
               0
  0
ENDTAB
  0
TABLE
  2
APPID
  5
8
100
AcDbSymbolTable
 70
               1
  0
APPID
  5
16
100
AcDbSymbolTableRecord
100
AcDbRegAppTableRecord
  2
ACAD
 70
               0
  0
ENDTAB
  0
TABLE
  2
DIMSTYLE
  5
9
100
AcDbSymbolTable
 70
               1
  0
DIMSTYLE
105
18
100
AcDbSymbolTableRecord
100
AcDbDimStyleTableRecord
  2
STANDARD
 70
               0
  3

  4

  5

  6

  7

 40
1.0
 41
0.18
 42
0.0625
 43
0.38
 44
0.18
 45
0.0
 46
0.0
 47
0.0
 48
0.0
 71
               0
 72
               0
 73
               1
 74
               1
 75
               0
 76
               0
 77
               0
 78
               0
140
0.18
141
0.09
142
0.0
143
25.399999999999999
144
1.0
145
0.0
146
1.0
147
0.09
170
               0
171
               2
172
               0
173
               0
174
               0
175
               0
176
               0
177
               0
178
               0
270
               2
271
               4
272
               4
273
               2
274
               2
275
               0
280
               0
281
               0
282
               0
283
               1
284
               0
285
               0
286
               0
287
               3
288
               0
340
17
  0
ENDTAB
  0
TABLE
  2
BLOCK_RECORD
  5
1
100
AcDbSymbolTable
 70
               0
  0
BLOCK_RECORD
  5
A
100
AcDbSymbolTableRecord
100
AcDbBlockTableRecord
  2
*MODEL_SPACE
  0
BLOCK_RECORD
  5
B
100
AcDbSymbolTableRecord
100
AcDbBlockTableRecord
  2
*PAPER_SPACE
  0
ENDTAB
  0
ENDSEC
  0
SECTION
  2
BLOCKS
  0
BLOCK
  5
D
100
AcDbEntity
  8
0
100
AcDbBlockBegin
  2
*MODEL_SPACE
 70
               0
 10
0.0
 20
0.0
 30
0.0
  3
*MODEL_SPACE
  1

  0
ENDBLK
  5
E
100
AcDbEntity
  8
0
100
AcDbBlockEnd
  0
BLOCK
  5
F
100
AcDbEntity
 67
               1
  8
0
100
AcDbBlockBegin
  2
*PAPER_SPACE
 70
               0
 10
0.0
 20
0.0
 30
0.0
  3
*PAPER_SPACE
  1

  0
ENDBLK
  5
10
100
AcDbEntity
 67
               1
  8
0
100
AcDbBlockEnd
  0
ENDSEC
  0
SECTION
  2
ENTITIES
  0
POLYLINE
  5
2C
100
AcDbEntity
  8
IMPORTED
  6
CONTINUOUS
 62
              30
100
AcDb2dPolyline
 66
               1
 10
0.0
 20
0.0
 30
0.0
 70
               1
 75
               5
  0
VERTEX
  5
2D
100
AcDbEntity
  8
IMPORTED
  6
CONTINUOUS
 62
              30
100
AcDbVertex
100
AcDb2dVertex
 10
2178.704999999999
 20
-12.252949999999942
 30
0.0
  0
VERTEX
  5
2E
100
AcDbEntity
  8
IMPORTED
  6
CONTINUOUS
 62
              30
100
AcDbVertex
100
AcDb2dVertex
 10
2173.895559999999
 20
-12.252949999999942
 30
0.0
  0
VERTEX
  5
2F
100
AcDbEntity
  8
IMPORTED
  6
CONTINUOUS
 62
              30
100
AcDbVertex
100
AcDb2dVertex
 10
2173.3149999999996
 20
-11.247400000000084
 30
0.0
  0
VERTEX
  5
30
100
AcDbEntity
  8
IMPORTED
  6
CONTINUOUS
 62
              30
100
AcDbVertex
100
AcDb2dVertex
 10
2173.3149999999996
 20
1.7525999999999158
 30
0.0
  0
VERTEX
  5
31
100
AcDbEntity
  8
IMPORTED
  6
CONTINUOUS
 62
              30
100
AcDbVertex
100
AcDb2dVertex
 10
2173.895559999999
 20
2.7581500000000005
 30
0.0
  0
VERTEX
  5
32
100
AcDbEntity
  8
IMPORTED
  6
CONTINUOUS
 62
              30
100
AcDbVertex
100
AcDb2dVertex
 10
2178.704999999999
 20
2.7581500000000005
 30
0.0
  0
SEQEND
  5
33
100
AcDbEntity
  8
IMPORTED
  6
CONTINUOUS
 62
              30
  0
SPLINE
  5
35
100
AcDbEntity
  8
IMPORTED
  6
CONTINUOUS
 62
              30
100
AcDbSpline
210
0.0
220
0.0
230
1.0
 70
               8
 71
               2
 72
              10
 73
               7
 74
               0
 42
0.000001
 43
0.000001
 40
0.0
 40
0.0
 40
0.0
 40
1.0
 40
1.0
 40
2.0
 40
2.0
 40
3.0
 40
3.0
 40
3.0
 10
2173.895559999999
 20
-12.252949999999942
 30
0.0
 10
2172.7368291358021
 20
-10.376560000000154
 30
0.0
 10
2173.895559999999
 20
-8.5001699999999119
 30
0.0
 10
2172.7368291358021
 20
-4.7473899999997684
 30
0.0
 10
2173.895559999999
 20
-0.9946100000000797
 30
0.0
 10
2172.7368291358021
 20
0.8817800000001625
 30
0.0
 10
2173.895559999999
 20
2.7581699999999501
 30
0.0
  0
LINE
  5
36
100
AcDbEntity
  8
IMPORTED
  6
CONTINUOUS
 62
              30
100
AcDbLine
 10
2178.704999999999
 20
-0.9946200000000545
 30
0.0
 11
2173.895559999999
 21
-0.9946200000000545
 31
0.0
  0
LINE
  5
37
100
AcDbEntity
  8
IMPORTED
  6
CONTINUOUS
 62
              30
100
AcDbLine
 10
2173.895559999999
 20
-8.5001699999999119
 30
0.0
 11
2178.704999999999
 21
-8.5001699999999119
 31
0.0
  0
POLYLINE
  5
38
100
AcDbEntity
  8
IMPORTED
  6
STYLE_05
 62
              30
100
AcDb2dPolyline
 66
               1
 10
0.0
 20
0.0
 30
0.0
 70
               1
 75
               5
  0
VERTEX
  5
39
100
AcDbEntity
  8
IMPORTED
  6
STYLE_05
 62
              30
100
AcDbVertex
100
AcDb2dVertex
 10
2178.704999999999
 20
-8.7474000000000842
 30
0.0
  0
VERTEX
  5
3A
100
AcDbEntity
  8
IMPORTED
  6
STYLE_05
 62
              30
100
AcDbVertex
100
AcDb2dVertex
 10
2202.6224599999996
 20
-8.7474000000000842
 30
0.0
  0
VERTEX
  5
3B
100
AcDbEntity
  8
IMPORTED
  6
STYLE_05
 62
              30
100
AcDbVertex
100
AcDb2dVertex
 10
2203.704999999999
 20
-7.664859999999976
 30
0.0
  0
VERTEX
  5
3C
100
AcDbEntity
  8
IMPORTED
  6
STYLE_05
 62
              30
100
AcDbVertex
100
AcDb2dVertex
 10
2203.704999999999
 20
-1.8299299999999903
 30
0.0
  0
VERTEX
  5
3D
100
AcDbEntity
  8
IMPORTED
  6
STYLE_05
 62
              30
100
AcDbVertex
100
AcDb2dVertex
 10
2202.6224599999996
 20
-0.7473899999998821
 30
0.0
  0
VERTEX
  5
3E
100
AcDbEntity
  8
IMPORTED
  6
STYLE_05
 62
              30
100
AcDbVertex
100
AcDb2dVertex
 10
2178.704999999999
 20
-0.7473899999998821
 30
0.0
  0
SEQEND
  5
3F
100
AcDbEntity
  8
IMPORTED
  6
STYLE_05
 62
              30
  0
LINE
  5
41
100
AcDbEntity
  8
IMPORTED
  6
CONTINUOUS
 62
              30
100
AcDbLine
 10
2202.6224599999996
 20
-8.7474000000000842
 30
0.0
 11
2202.6224599999996
 21
-0.7474000000000842
 31
0.0
  0
LINE
  5
42
100
AcDbEntity
  8
IMPORTED
  6
CONTINUOUS
 62
              30
100
AcDbLine
 10
2181.204999999999
 20
-8.7474000000000842
 30
0.0
 11
2181.204999999999
 21
-0.7474000000000842
 31
0.0
  0
LINE
  5
43
100
AcDbEntity
  8
IMPORTED
  6
STYLE_05
 62
               1
100
AcDbLine
 10
2181.204999999999
 20
-1.829939999999965
 30
0.0
 11
2203.704999999999
 21
-1.829939999999965
 31
0.0
  0
LINE
  5
44
100
AcDbEntity
  8
IMPORTED
  6
STYLE_05
 62
               1
100
AcDbLine
 10
2181.204999999999
 20
-7.6648699999999508
 30
0.0
 11
2203.704999999999
 21
-7.6648699999999508
 31
0.0
  0
POLYLINE
  5
45
100
AcDbEntity
  8
IMPORTED
  6
CONTINUOUS
 62
              30
100
AcDb2dPolyline
 66
               1
 10
0.0
 20
0.0
 30
0.0
 70
               1
 75
               5
  0
VERTEX
  5
46
100
AcDbEntity
  8
IMPORTED
  6
CONTINUOUS
 62
              30
100
AcDbVertex
100
AcDb2dVertex
 10
2192.3855599999997
 20
-12.252959999999916
 30
0.0
  0
VERTEX
  5
47
100
AcDbEntity
  8
IMPORTED
  6
CONTINUOUS
 62
              30
100
AcDbVertex
100
AcDb2dVertex
 10
2191.8049999999994
 20
-11.247410000000059
 30
0.0
  0
VERTEX
  5
48
100
AcDbEntity
  8
IMPORTED
  6
CONTINUOUS
 62
              30
100
AcDbVertex
100
AcDb2dVertex
 10
2191.8049999999994
 20
1.7525900000001684
 30
0.0
  0
VERTEX
  5
49
100
AcDbEntity
  8
IMPORTED
  6
CONTINUOUS
 62
              30
100
AcDbVertex
100
AcDb2dVertex
 10
2192.3855599999997
 20
2.7581400000000258
 30
0.0
  0
VERTEX
  5
4A
100
AcDbEntity
  8
IMPORTED
  6
CONTINUOUS
 62
              30
100
AcDbVertex
100
AcDb2dVertex
 10
2198.0244499999999
 20
2.7581400000000258
 30
0.0
  0
VERTEX
  5
4B
100
AcDbEntity
  8
IMPORTED
  6
CONTINUOUS
 62
              30
100
AcDbVertex
100
AcDb2dVertex
 10
2198.6050099999993
 20
1.7525900000001684
 30
0.0
  0
VERTEX
  5
4C
100
AcDbEntity
  8
IMPORTED
  6
CONTINUOUS
 62
              30
100
AcDbVertex
100
AcDb2dVertex
 10
2198.6050099999993
 20
-11.247410000000059
 30
0.0
  0
VERTEX
  5
4D
100
AcDbEntity
  8
IMPORTED
  6
CONTINUOUS
 62
              30
100
AcDbVertex
100
AcDb2dVertex
 10
2198.0244499999999
 20
-12.252959999999916
 30
0.0
  0
SEQEND
  5
4E
100
AcDbEntity
  8
IMPORTED
  6
CONTINUOUS
 62
              30
  0
SPLINE
  5
50
100
AcDbEntity
  8
IMPORTED
  6
CONTINUOUS
 62
              30
100
AcDbSpline
210
0.0
220
0.0
230
1.0
 70
               8
 71
               2
 72
              10
 73
               7
 74
               0
 42
0.000001
 43
0.000001
 40
0.0
 40
0.0
 40
0.0
 40
1.0
 40
1.0
 40
2.0
 40
2.0
 40
3.0
 40
3.0
 40
3.0
 10
2192.3855599999997
 20
-12.252959999999916
 30
0.0
 10
2191.2268291358023
 20
-10.376570000000129
 30
0.0
 10
2192.3855599999997
 20
-8.5001799999998866
 30
0.0
 10
2191.2268291358023
 20
-4.7474000000003116
 30
0.0
 10
2192.3855599999997
 20
-0.9946199999998271
 30
0.0
 10
2191.2268291358023
 20
0.8817700000000741
 30
0.0
 10
2192.3855599999997
 20
2.7581599999999753
 30
0.0
  0
SPLINE
  5
51
100
AcDbEntity
  8
IMPORTED
  6
CONTINUOUS
 62
              30
100
AcDbSpline
210
0.0
220
0.0
230
1.0
 70
               8
 71
               2
 72
              10
 73
               7
 74
               0
 42
0.000001
 43
0.000001
 40
0.0
 40
0.0
 40
0.0
 40
1.0
 40
1.0
 40
2.0
 40
2.0
 40
3.0
 40
3.0
 40
3.0
 10
2198.0244499999999
 20
-12.252949999999942
 30
0.0
 10
2199.1831808641969
 20
-10.376560000000154
 30
0.0
 10
2198.0244499999999
 20
-8.5001699999999119
 30
0.0
 10
2199.1831808641969
 20
-4.7473899999997684
 30
0.0
 10
2198.0244499999999
 20
-0.9946100000000797
 30
0.0
 10
2199.1831808641969
 20
0.8817800000001625
 30
0.0
 10
2198.0244499999999
 20
2.7581699999999501
 30
0.0
  0
LINE
  5
52
100
AcDbEntity
  8
IMPORTED
  6
CONTINUOUS
 62
              30
100
AcDbLine
 10
2192.3855599999997
 20
-8.5001899999998614
 30
0.0
 11
2198.0244499999999
 21
-8.5001899999998614
 31
0.0
  0
LINE
  5
53
100
AcDbEntity
  8
IMPORTED
  6
CONTINUOUS
 62
              30
100
AcDbLine
 10
2198.0244499999999
 20
-0.994640000000004
 30
0.0
 11
2192.3855599999997
 21
-0.994640000000004
 31
0.0
  0
POLYLINE
  5
54
100
AcDbEntity
  8
IMPORTED
  6
CONTINUOUS
 62
               3
100
AcDb2dPolyline
 66
               1
 10
0.0
 20
0.0
 30
0.0
 70
               1
 75
               5
  0
VERTEX
  5
55
100
AcDbEntity
  8
IMPORTED
  6
CONTINUOUS
 62
               3
100
AcDbVertex
100
AcDb2dVertex
 10
2178.704999999999
 20
6.2525999999999158
 30
0.0
  0
VERTEX
  5
56
100
AcDbEntity
  8
IMPORTED
  6
CONTINUOUS
 62
               3
100
AcDbVertex
100
AcDb2dVertex
 10
2180.3049999999994
 20
6.2525999999999158
 30
0.0
  0
VERTEX
  5
57
100
AcDbEntity
  8
IMPORTED
  6
CONTINUOUS
 62
               3
100
AcDbVertex
100
AcDb2dVertex
 10
2180.3049999999994
 20
-15.747400000000084
 30
0.0
  0
VERTEX
  5
58
100
AcDbEntity
  8
IMPORTED
  6
CONTINUOUS
 62
               3
100
AcDbVertex
100
AcDb2dVertex
 10
2178.704999999999
 20
-15.747400000000084
 30
0.0
  0
SEQEND
  5
59
100
AcDbEntity
  8
IMPORTED
  6
CONTINUOUS
 62
               3
  0
POLYLINE
  5
5B
100
AcDbEntity
  8
IMPORTED
  6
STYLE_05
 62
              30
100
AcDb2dPolyline
 66
               1
 10
0.0
 20
0.0
 30
0.0
 70
               1
 75
               5
  0
VERTEX
  5
5C
100
AcDbEntity
  8
IMPORTED
  6
STYLE_05
 62
              30
100
AcDbVertex
100
AcDb2dVertex
 10
2180.3049999999994
 20
1.2525999999999158
 30
0.0
  0
VERTEX
  5
5D
100
AcDbEntity
  8
IMPORTED
  6
STYLE_05
 62
              30
100
AcDbVertex
100
AcDb2dVertex
 10
2184.8049999999994
 20
1.2525999999999158
 30
0.0
  0
VERTEX
  5
5E
100
AcDbEntity
  8
IMPORTED
  6
STYLE_05
 62
              30
100
AcDbVertex
100
AcDb2dVertex
 10
2184.8049999999994
 20
-10.747400000000084
 30
0.0
  0
VERTEX
  5
5F
100
AcDbEntity
  8
IMPORTED
  6
STYLE_05
 62
              30
100
AcDbVertex
100
AcDb2dVertex
 10
2180.3049999999994
 20
-10.747400000000084
 30
0.0
  0
SEQEND
  5
60
100
AcDbEntity
  8
IMPORTED
  6
STYLE_05
 62
              30
  0
POLYLINE
  5
62
100
AcDbEntity
  8
IMPORTED
  6
STYLE_05
 62
              30
100
AcDb2dPolyline
 66
               1
 10
0.0
 20
0.0
 30
0.0
 70
               1
 75
               5
  0
VERTEX
  5
63
100
AcDbEntity
  8
IMPORTED
  6
STYLE_05
 62
              30
100
AcDbVertex
100
AcDb2dVertex
 10
2187.3049999999994
 20
0.2525999999999158
 30
0.0
  0
VERTEX
  5
64
100
AcDbEntity
  8
IMPORTED
  6
STYLE_05
 62
              30
100
AcDbVertex
100
AcDb2dVertex
 10
2191.8049999999994
 20
0.2525999999999158
 30
0.0
  0
VERTEX
  5
65
100
AcDbEntity
  8
IMPORTED
  6
STYLE_05
 62
              30
100
AcDbVertex
100
AcDb2dVertex
 10
2191.8049999999994
 20
-9.7474000000000842
 30
0.0
  0
VERTEX
  5
66
100
AcDbEntity
  8
IMPORTED
  6
STYLE_05
 62
              30
100
AcDbVertex
100
AcDb2dVertex
 10
2187.3049999999994
 20
-9.7474000000000842
 30
0.0
  0
SEQEND
  5
67
100
AcDbEntity
  8
IMPORTED
  6
STYLE_05
 62
              30
  0
LINE
  5
69
100
AcDbEntity
  8
IMPORTED
  6
CONTINUOUS
 62
              30
100
AcDbLine
 10
2198.6050099999993
 20
-8.7474000000000842
 30
0.0
 11
2202.6224599999996
 21
-8.7474000000000842
 31
0.0
  0
LINE
  5
6A
100
AcDbEntity
  8
IMPORTED
  6
CONTINUOUS
 62
              30
100
AcDbLine
 10
2202.6224599999996
 20
-8.7474000000000842
 30
0.0
 11
2203.704999999999
 21
-7.6648699999999508
 31
0.0
  0
LINE
  5
6B
100
AcDbEntity
  8
IMPORTED
  6
CONTINUOUS
 62
              30
100
AcDbLine
 10
2203.704999999999
 20
-7.6648699999999508
 30
0.0
 11
2203.704999999999
 21
-1.829939999999965
 31
0.0
  0
LINE
  5
6C
100
AcDbEntity
  8
IMPORTED
  6
CONTINUOUS
 62
              30
100
AcDbLine
 10
2203.704999999999
 20
-1.829939999999965
 30
0.0
 11
2202.6224599999996
 21
-0.7473899999998821
 31
0.0
  0
LINE
  5
6D
100
AcDbEntity
  8
IMPORTED
  6
CONTINUOUS
 62
              30
100
AcDbLine
 10
2202.6224599999996
 20
-0.7473899999998821
 30
0.0
 11
2198.6050099999993
 21
-0.7473899999998821
 31
0.0
  0
LINE
  5
6E
100
AcDbEntity
  8
IMPORTED
  6
CONTINUOUS
 62
              30
100
AcDbLine
 10
2203.704999999999
 20
-1.829939999999965
 30
0.0
 11
2198.6050099999993
 21
-1.829939999999965
 31
0.0
  0
LINE
  5
6F
100
AcDbEntity
  8
IMPORTED
  6
CONTINUOUS
 62
              30
100
AcDbLine
 10
2203.704999999999
 20
-7.664859999999976
 30
0.0
 11
2198.6050099999993
 21
-7.6648699999999508
 31
0.0
  0
LINE
  5
70
100
AcDbEntity
  8
IMPORTED
  6
CONTINUOUS
 62
              30
100
AcDbLine
 10
2202.6224599999996
 20
-8.7474000000000842
 30
0.0
 11
2202.6224599999996
 21
-0.7473899999998821
 31
0.0
  0
POLYLINE
  5
71
100
AcDbEntity
  8
IMPORTED
  6
STYLE_05
 62
              30
100
AcDb2dPolyline
 66
               1
 10
0.0
 20
0.0
 30
0.0
 70
               1
 75
               5
  0
VERTEX
  5
72
100
AcDbEntity
  8
IMPORTED
  6
STYLE_05
 62
              30
100
AcDbVertex
100
AcDb2dVertex
 10
2199.3049999999994
 20
30.252599999999887
 30
0.0
  0
VERTEX
  5
73
100
AcDbEntity
  8
IMPORTED
  6
STYLE_05
 62
              30
100
AcDbVertex
100
AcDb2dVertex
 10
2211.3049999999994
 20
30.252599999999887
 30
0.0
  0
VERTEX
  5
74
100
AcDbEntity
  8
IMPORTED
  6
STYLE_05
 62
              30
100
AcDbVertex
100
AcDb2dVertex
 10
2211.3049999999994
 20
25.752599999999887
 30
0.0
  0
VERTEX
  5
75
100
AcDbEntity
  8
IMPORTED
  6
STYLE_05
 62
              30
100
AcDbVertex
100
AcDb2dVertex
 10
2199.3049999999994
 20
25.752599999999887
 30
0.0
  0
SEQEND
  5
76
100
AcDbEntity
  8
IMPORTED
  6
STYLE_05
 62
              30
  0
POLYLINE
  5
78
100
AcDbEntity
  8
IMPORTED
  6
STYLE_05
 62
              30
100
AcDb2dPolyline
 66
               1
 10
0.0
 20
0.0
 30
0.0
 70
               1
 75
               5
  0
VERTEX
  5
79
100
AcDbEntity
  8
IMPORTED
  6
STYLE_05
 62
              30
100
AcDbVertex
100
AcDb2dVertex
 10
2208.8049999999994
 20
30.252599999999887
 30
0.0
  0
VERTEX
  5
7A
100
AcDbEntity
  8
IMPORTED
  6
STYLE_05
 62
              30
100
AcDbVertex
100
AcDb2dVertex
 10
2201.8049999999994
 20
30.252599999999887
 30
0.0
  0
VERTEX
  5
7B
100
AcDbEntity
  8
IMPORTED
  6
STYLE_05
 62
              30
100
AcDbVertex
100
AcDb2dVertex
 10
2201.8049999999994
 20
51.752599999999887
 30
0.0
  0
VERTEX
  5
7C
100
AcDbEntity
  8
IMPORTED
  6
STYLE_05
 62
              30
100
AcDbVertex
100
AcDb2dVertex
 10
2198.3049999999994
 20
55.252599999999887
 30
0.0
  0
VERTEX
  5
7D
100
AcDbEntity
  8
IMPORTED
  6
STYLE_05
 62
              30
100
AcDbVertex
100
AcDb2dVertex
 10
2212.3049999999994
 20
55.252599999999887
 30
0.0
  0
VERTEX
  5
7E
100
AcDbEntity
  8
IMPORTED
  6
STYLE_05
 62
              30
100
AcDbVertex
100
AcDb2dVertex
 10
2208.8049999999994
 20
51.752599999999887
 30
0.0
  0
SEQEND
  5
7F
100
AcDbEntity
  8
IMPORTED
  6
STYLE_05
 62
              30
  0
POLYLINE
  5
81
100
AcDbEntity
  8
IMPORTED
  6
CONTINUOUS
 62
              30
100
AcDb2dPolyline
 66
               1
 10
0.0
 20
0.0
 30
0.0
 70
               1
 75
               5
  0
VERTEX
  5
82
100
AcDbEntity
  8
IMPORTED
  6
CONTINUOUS
 62
              30
100
AcDbVertex
100
AcDb2dVertex
 10
2212.3049999999994
 20
25.752599999999887
 30
0.0
  0
VERTEX
  5
83
100
AcDbEntity
  8
IMPORTED
  6
CONTINUOUS
 62
              30
100
AcDbVertex
100
AcDb2dVertex
 10
2198.3049999999994
 20
25.752599999999887
 30
0.0
  0
VERTEX
  5
84
100
AcDbEntity
  8
IMPORTED
  6
CONTINUOUS
 62
              30
100
AcDbVertex
100
AcDb2dVertex
 10
2198.3049999999994
 20
24.902599999999978
 30
0.0
  0
VERTEX
  5
85
100
AcDbEntity
  8
IMPORTED
  6
CONTINUOUS
 62
              30
100
AcDbVertex
100
AcDb2dVertex
 10
2199.1549999999997
 20
24.052600000000069
 30
0.0
  0
VERTEX
  5
86
100
AcDbEntity
  8
IMPORTED
  6
CONTINUOUS
 62
              30
100
AcDbVertex
100
AcDb2dVertex
 10
2211.4549999999999
 20
24.052600000000069
 30
0.0
  0
VERTEX
  5
87
100
AcDbEntity
  8
IMPORTED
  6
CONTINUOUS
 62
              30
100
AcDbVertex
100
AcDb2dVertex
 10
2212.3049999999994
 20
24.902599999999978
 30
0.0
  0
SEQEND
  5
88
100
AcDbEntity
  8
IMPORTED
  6
CONTINUOUS
 62
              30
  0
POLYLINE
  5
8A
100
AcDbEntity
  8
IMPORTED
  6
STYLE_05
 62
              30
100
AcDb2dPolyline
 66
               1
 10
0.0
 20
0.0
 30
0.0
 70
               1
 75
               5
  0
VERTEX
  5
8B
100
AcDbEntity
  8
IMPORTED
  6
STYLE_05
 62
              30
100
AcDbVertex
100
AcDb2dVertex
 10
2208.3049999999994
 20
16.052600000000098
 30
0.0
  0
VERTEX
  5
8C
100
AcDbEntity
  8
IMPORTED
  6
STYLE_05
 62
              30
100
AcDbVertex
100
AcDb2dVertex
 10
2208.3049999999994
 20
51.952599999999933
 30
0.0
  0
VERTEX
  5
8D
100
AcDbEntity
  8
IMPORTED
  6
STYLE_05
 62
              30
100
AcDbVertex
100
AcDb2dVertex
 10
2202.3049999999994
 20
51.952599999999933
 30
0.0
  0
VERTEX
  5
8E
100
AcDbEntity
  8
IMPORTED
  6
STYLE_05
 62
              30
100
AcDbVertex
100
AcDb2dVertex
 10
2202.3049999999994
 20
16.052600000000098
 30
0.0
  0
VERTEX
  5
8F
100
AcDbEntity
  8
IMPORTED
  6
STYLE_05
 62
              30
100
AcDbVertex
100
AcDb2dVertex
 10
2203.1049999999996
 20
15.252599999999916
 30
0.0
  0
VERTEX
  5
90
100
AcDbEntity
  8
IMPORTED
  6
STYLE_05
 62
              30
100
AcDbVertex
100
AcDb2dVertex
 10
2207.5049999999992
 20
15.252599999999916
 30
0.0
  0
SEQEND
  5
91
100
AcDbEntity
  8
IMPORTED
  6
STYLE_05
 62
              30
  0
POLYLINE
  5
93
100
AcDbEntity
  8
IMPORTED
  6
STYLE_05
 62
              30
100
AcDb2dPolyline
 66
               1
 10
0.0
 20
0.0
 30
0.0
 70
               1
 75
               5
  0
VERTEX
  5
94
100
AcDbEntity
  8
IMPORTED
  6
STYLE_05
 62
              30
100
AcDbVertex
100
AcDb2dVertex
 10
2202.3049999999994
 20
51.952599999999933
 30
0.0
  0
VERTEX
  5
95
100
AcDbEntity
  8
IMPORTED
  6
STYLE_05
 62
              30
100
AcDbVertex
100
AcDb2dVertex
 10
2199.0049999999992
 20
55.252599999999887
 30
0.0
  0
VERTEX
  5
96
100
AcDbEntity
  8
IMPORTED
  6
STYLE_05
 62
              30
100
AcDbVertex
100
AcDb2dVertex
 10
2211.6049999999996
 20
55.252599999999887
 30
0.0
  0
VERTEX
  5
97
100
AcDbEntity
  8
IMPORTED
  6
STYLE_05
 62
              30
100
AcDbVertex
100
AcDb2dVertex
 10
2208.3049999999994
 20
51.952599999999933
 30
0.0
  0
SEQEND
  5
98
100
AcDbEntity
  8
IMPORTED
  6
STYLE_05
 62
              30
  0
POLYLINE
  5
9A
100
AcDbEntity
  8
IMPORTED
  6
CONTINUOUS
 62
              30
100
AcDb2dPolyline
 66
               1
 10
0.0
 20
0.0
 30
0.0
 70
               1
 75
               5
  0
VERTEX
  5
9B
100
AcDbEntity
  8
IMPORTED
  6
CONTINUOUS
 62
              30
100
AcDbVertex
100
AcDb2dVertex
 10
2200.3050099925849
 20
23.625718274825999
 30
0.0
  0
VERTEX
  5
9C
100
AcDbEntity
  8
IMPORTED
  6
CONTINUOUS
 62
              30
100
AcDbVertex
100
AcDb2dVertex
 10
2200.9748796159911
 20
24.052600000000069
 30
0.0
  0
VERTEX
  5
9D
100
AcDbEntity
  8
IMPORTED
  6
CONTINUOUS
 62
              30
100
AcDbVertex
100
AcDb2dVertex
 10
2209.6351203840077
 20
24.052600000000069
 30
0.0
  0
VERTEX
  5
9E
100
AcDbEntity
  8
IMPORTED
  6
CONTINUOUS
 62
              30
100
AcDbVertex
100
AcDb2dVertex
 10
2210.3049900074138
 20
23.625718274825999
 30
0.0
  0
VERTEX
  5
9F
100
AcDbEntity
  8
IMPORTED
  6
CONTINUOUS
 62
              30
100
AcDbVertex
100
AcDb2dVertex
 10
2210.3049900074138
 20
19.479481725173969
 30
0.0
  0
VERTEX
  5
A0
100
AcDbEntity
  8
IMPORTED
  6
CONTINUOUS
 62
              30
100
AcDbVertex
100
AcDb2dVertex
 10
2209.6351203840077
 20
19.052600000000098
 30
0.0
  0
VERTEX
  5
A1
100
AcDbEntity
  8
IMPORTED
  6
CONTINUOUS
 62
              30
100
AcDbVertex
100
AcDb2dVertex
 10
2200.9748796159911
 20
19.052600000000098
 30
0.0
  0
VERTEX
  5
A2
100
AcDbEntity
  8
IMPORTED
  6
CONTINUOUS
 62
              30
100
AcDbVertex
100
AcDb2dVertex
 10
2200.3050099925849
 20
19.479481725173969
 30
0.0
  0
SEQEND
  5
A3
100
AcDbEntity
  8
IMPORTED
  6
CONTINUOUS
 62
              30
  0
SPLINE
  5
A5
100
AcDbEntity
  8
IMPORTED
  6
CONTINUOUS
 62
              30
100
AcDbSpline
210
0.0
220
0.0
230
1.0
 70
               8
 71
               2
 72
              10
 73
               7
 74
               0
 42
0.000001
 43
0.000001
 40
0.0
 40
0.0
 40
0.0
 40
1.0
 40
1.0
 40
2.0
 40
2.0
 40
3.0
 40
3.0
 40
3.0
 10
2200.3050099925849
 20
23.625718274825999
 30
0.0
 10
2201.5550091598698
 20
24.477725010255739
 30
0.0
 10
2202.8050083271537
 20
23.625718274825999
 30
0.0
 10
2205.3050066617234
 20
24.477725010255739
 30
0.0
 10
2207.8050049962922
 20
23.625718274825999
 30
0.0
 10
2209.055004163577
 20
24.477725010255739
 30
0.0
 10
2210.3050033308609
 20
23.625718274825999
 30
0.0
  0
SPLINE
  5
A6
100
AcDbEntity
  8
IMPORTED
  6
CONTINUOUS
 62
              30
100
AcDbSpline
210
0.0
220
0.0
230
1.0
 70
               8
 71
               2
 72
              10
 73
               7
 74
               0
 42
0.000001
 43
0.000001
 40
0.0
 40
0.0
 40
0.0
 40
1.0
 40
1.0
 40
2.0
 40
2.0
 40
3.0
 40
3.0
 40
3.0
 10
2200.3050166543089
 20
19.479481725173969
 30
0.0
 10
2201.5550158215929
 20
18.627474989744627
 30
0.0
 10
2202.8050149888777
 20
19.479481725173969
 30
0.0
 10
2205.3050133234465
 20
18.627474989744627
 30
0.0
 10
2207.8050116580162
 20
19.479481725173969
 30
0.0
 10
2209.0550108253001
 20
18.627474989744627
 30
0.0
 10
2210.3050099925849
 20
19.479481725173969
 30
0.0
  0
LINE
  5
A7
100
AcDbEntity
  8
IMPORTED
  6
CONTINUOUS
 62
              30
100
AcDbLine
 10
2202.8050016654306
 20
23.625718274825999
 30
0.0
 11
2202.8050016654306
 21
19.479481725173969
 31
0.0
  0
LINE
  5
A8
100
AcDbEntity
  8
IMPORTED
  6
CONTINUOUS
 62
              30
100
AcDbLine
 10
2207.8049916728451
 20
19.479481725173969
 30
0.0
 11
2207.8049916728451
 21
23.625718274825999
 31
0.0
  0
LINE
  5
A9
100
AcDbEntity
  8
IMPORTED
  6
CONTINUOUS
 62
              30
100
AcDbLine
 10
2202.3049999999994
 20
19.052600000000098
 30
0.0
 11
2202.3049999999994
 21
16.052600000000098
 31
0.0
  0
LINE
  5
AA
100
AcDbEntity
  8
IMPORTED
  6
CONTINUOUS
 62
              30
100
AcDbLine
 10
2202.3049999999994
 20
16.052600000000098
 30
0.0
 11
2203.1049999999996
 21
15.252599999999916
 31
0.0
  0
LINE
  5
AB
100
AcDbEntity
  8
IMPORTED
  6
CONTINUOUS
 62
              30
100
AcDbLine
 10
2203.1049999999996
 20
15.252599999999916
 30
0.0
 11
2207.5049999999992
 21
15.252599999999916
 31
0.0
  0
LINE
  5
AC
100
AcDbEntity
  8
IMPORTED
  6
CONTINUOUS
 62
              30
100
AcDbLine
 10
2207.5049999999992
 20
15.252599999999916
 30
0.0
 11
2208.3049999999994
 21
16.052600000000098
 31
0.0
  0
LINE
  5
AD
100
AcDbEntity
  8
IMPORTED
  6
CONTINUOUS
 62
              30
100
AcDbLine
 10
2208.3049999999994
 20
16.052600000000098
 30
0.0
 11
2208.3049999999994
 21
19.052600000000098
 31
0.0
  0
POLYLINE
  5
AE
100
AcDbEntity
  8
IMPORTED
  6
CONTINUOUS
 62
              30
100
AcDb2dPolyline
 66
               1
 10
0.0
 20
0.0
 30
0.0
 70
             129
  0
VERTEX
  5
AF
100
AcDbEntity
  8
IMPORTED
  6
CONTINUOUS
 62
              30
100
AcDbVertex
100
AcDb2dVertex
 10
613.77280566043999
 20
-276.26723168113517
 30
0.0
 42
-0.0278261477841786
 70
               2
 50
23.07671135202358
  0
VERTEX
  5
B0
100
AcDbEntity
  8
IMPORTED
  6
CONTINUOUS
 62
              30
100
AcDbVertex
100
AcDb2dVertex
 10
655.77908389195306
 20
-400.01365566748905
 30
0.0
  0
VERTEX
  5
B1
100
AcDbEntity
  8
IMPORTED
  6
CONTINUOUS
 62
              30
100
AcDbVertex
100
AcDb2dVertex
 10
655.77908389195306
 20
-400.01365566748905
 30
0.0
 42
0.1289919989123612
 70
               2
 50
304.67073514916655
  0
VERTEX
  5
B2
100
AcDbEntity
  8
IMPORTED
  6
CONTINUOUS
 62
              30
100
AcDbVertex
100
AcDb2dVertex
 10
693.74801290061305
 20
-397.32552335742662
 30
0.0
  0
VERTEX
  5
B3
100
AcDbEntity
  8
IMPORTED
  6
CONTINUOUS
 62
              30
100
AcDbVertex
100
AcDb2dVertex
 10
816.84901034198913
 20
-355.5384158199534
 30
0.0
  0
VERTEX
  5
B4
100
AcDbEntity
  8
IMPORTED
  6
CONTINUOUS
 62
              30
100
AcDbVertex
100
AcDb2dVertex
 10
816.84901034198913
 20
-355.5384158199534
 30
0.0
 42
0.1157451963334701
 70
               2
 50
-168.78840476789532
  0
VERTEX
  5
B5
100
AcDbEntity
  8
IMPORTED
  6
CONTINUOUS
 62
              30
100
AcDbVertex
100
AcDb2dVertex
 10
845.92118950390261
 20
-337.40410690683211
 30
0.0
  0
VERTEX
  5
B6
100
AcDbEntity
  8
IMPORTED
  6
CONTINUOUS
 62
              30
100
AcDbVertex
100
AcDb2dVertex
 10
845.92118950390261
 20
-337.40410690683211
 30
0.0
 42
0.0244411671050337
 70
               2
 50
16.375000201538473
  0
VERTEX
  5
B7
100
AcDbEntity
  8
IMPORTED
  6
CONTINUOUS
 62
              30
100
AcDbVertex
100
AcDb2dVertex
 10
802.73701452818409
 20
-210.18767838076809
 30
0.0
  0
VERTEX
  5
B8
100
AcDbEntity
  8
IMPORTED
  6
CONTINUOUS
 62
              30
100
AcDbVertex
100
AcDb2dVertex
 10
802.73701452818409
 20
-210.18767838076809
 30
0.0
 42
0.1157445610250323
 70
               2
 50
426.04742735703354
  0
VERTEX
  5
B9
100
AcDbEntity
  8
IMPORTED
  6
CONTINUOUS
 62
              30
100
AcDbVertex
100
AcDb2dVertex
 10
768.63310164489906
 20
-213.49871877221216
 30
0.0
  0
VERTEX
  5
BA
100
AcDbEntity
  8
IMPORTED
  6
CONTINUOUS
 62
              30
100
AcDbVertex
100
AcDb2dVertex
 10
645.53210420352934
 20
-255.28592630968609
 30
0.0
  0
VERTEX
  5
BB
100
AcDbEntity
  8
IMPORTED
  6
CONTINUOUS
 62
              30
100
AcDbVertex
100
AcDb2dVertex
 10
645.53208374209225
 20
-255.28593325541709
 30
0.0
 42
0.1289911564019381
 70
               2
 50
-168.78770463358984
  0
VERTEX
  5
BC
100
AcDbEntity
  8
IMPORTED
  6
CONTINUOUS
 62
              30
100
AcDbVertex
100
AcDb2dVertex
 10
613.77282007697056
 20
-276.26721558525861
 30
0.0
  0
VERTEX
  5
BD
100
AcDbEntity
  8
IMPORTED
  6
CONTINUOUS
 62
              30
100
AcDbVertex
100
AcDb2dVertex
 10
613.77280566043999
 20
-276.26723168113517
 30
0.0
  0
SEQEND
  5
BE
100
AcDbEntity
  8
IMPORTED
  6
CONTINUOUS
 62
              30
  0
POLYLINE
  5
BF
100
AcDbEntity
  8
IMPORTED
  6
STYLE_05
 62
              30
100
AcDb2dPolyline
 66
               1
 10
0.0
 20
0.0
 30
0.0
 70
             129
  0
VERTEX
  5
C0
100
AcDbEntity
  8
IMPORTED
  6
STYLE_05
 62
              30
100
AcDbVertex
100
AcDb2dVertex
 10
845.92119619893833
 20
-337.40410017449869
 30
0.0
 42
0.2848144268961553
 70
               2
 50
-56.978356319440664
  0
VERTEX
  5
C1
100
AcDbEntity
  8
IMPORTED
  6
STYLE_05
 62
              30
100
AcDbVertex
100
AcDb2dVertex
 10
863.76080756926922
 20
-260.41072193828495
 30
0.0
  0
VERTEX
  5
C2
100
AcDbEntity
  8
IMPORTED
  6
STYLE_05
 62
              30
100
AcDbVertex
100
AcDb2dVertex
 10
863.76080451732003
 20
-260.41071294754408
 30
0.0
  0
VERTEX
  5
C3
100
AcDbEntity
  8
IMPORTED
  6
STYLE_05
 62
              30
100
AcDbVertex
100
AcDb2dVertex
 10
863.76080451732003
 20
-260.41071294754408
 30
0.0
 42
0.2848142297677135
 70
               2
 50
19.449240926981858
  0
VERTEX
  5
C4
100
AcDbEntity
  8
IMPORTED
  6
STYLE_05
 62
              30
100
AcDbVertex
100
AcDb2dVertex
 10
802.73701452818409
 20
-210.18767838076809
 30
0.0
  0
VERTEX
  5
C5
100
AcDbEntity
  8
IMPORTED
  6
STYLE_05
 62
              30
100
AcDbVertex
100
AcDb2dVertex
 10
802.73701452818409
 20
-210.18767838076809
 30
0.0
 42
-0.0244411671050337
 70
               2
 50
22.627417813369576
  0
VERTEX
  5
C6
100
AcDbEntity
  8
IMPORTED
  6
STYLE_05
 62
              30
100
AcDbVertex
100
AcDb2dVertex
 10
845.92118950390261
 20
-337.40410690683211
 30
0.0
  0
SEQEND
  5
C7
100
AcDbEntity
  8
IMPORTED
  6
STYLE_05
 62
              30
  0
POLYLINE
  5
C8
100
AcDbEntity
  8
IMPORTED
  6
STYLE_05
 62
              30
100
AcDb2dPolyline
 66
               1
 10
0.0
 20
0.0
 30
0.0
 70
             129
  0
VERTEX
  5
C9
100
AcDbEntity
  8
IMPORTED
  6
STYLE_05
 62
              30
100
AcDbVertex
100
AcDb2dVertex
 10
613.77280566043999
 20
-276.26723168113517
 30
0.0
 42
0.2707564760596963
 70
               2
 50
-51.3179151003811
  0
VERTEX
  5
CA
100
AcDbEntity
  8
IMPORTED
  6
STYLE_05
 62
              30
100
AcDbVertex
100
AcDb2dVertex
 10
598.62041002819797
 20
-350.41362918208938
 30
0.0
  0
VERTEX
  5
CB
100
AcDbEntity
  8
IMPORTED
  6
STYLE_05
 62
              30
100
AcDbVertex
100
AcDb2dVertex
 10
598.62041002819797
 20
-350.41362918208938
 30
0.0
 42
0.2707559910643306
 70
               2
 50
19.449268312676342
  0
VERTEX
  5
CC
100
AcDbEntity
  8
IMPORTED
  6
STYLE_05
 62
              30
100
AcDbVertex
100
AcDb2dVertex
 10
655.77908389195306
 20
-400.01365566748905
 30
0.0
  0
VERTEX
  5
CD
100
AcDbEntity
  8
IMPORTED
  6
STYLE_05
 62
              30
100
AcDbVertex
100
AcDb2dVertex
 10
655.77908389195306
 20
-400.01365566748905
 30
0.0
 42
0.0278261477841786
 70
               2
 50
15.956521671683152
  0
VERTEX
  5
CE
100
AcDbEntity
  8
IMPORTED
  6
STYLE_05
 62
              30
100
AcDbVertex
100
AcDb2dVertex
 10
613.77280566043999
 20
-276.26723168113517
 30
0.0
  0
SEQEND
  5
CF
100
AcDbEntity
  8
IMPORTED
  6
STYLE_05
 62
              30
  0
CIRCLE
  5
D0
100
AcDbEntity
  8
IMPORTED
  6
CONTINUOUS
 62
               1
100
AcDbCircle
 10
351.10297901341983
 20
-285.29764322699293
 30
0.0
 40
32.565289166534299
  0
CIRCLE
  5
D1
100
AcDbEntity
  8
IMPORTED
  6
CONTINUOUS
 62
               1
100
AcDbCircle
 10
1028.7931186737121
 20
-59.510608947136973
 30
0.0
 40
32.565289166534448
  0
MTEXT
  5
D2
100
AcDbEntity
  8
IMPORTED
 62
               1
100
AcDbMText
 10
1021.519432304055
 20
-45.585764941196544
 30
0.0
 40
24.4326171875
 41
0.0
 71
               1
 72
               1
  1
A'
  7
_______
  0
LINE
  5
D3
100
AcDbEntity
  8
IMPORTED
  6
STYLE_06
 62
               1
100
AcDbLine
 10
2240.3049999999994
 20
2.3353999999998507
 30
0.0
 11
2240.3049999999994
 21
-67.747300000000138
 31
0.0
  0
LINE
  5
D4
100
AcDbEntity
  8
IMPORTED
  6
STYLE_06
 62
               1
100
AcDbLine
 10
2420.3049999999994
 20
2.3353999999998507
 30
0.0
 11
2420.3049999999994
 21
-67.747300000000138
 31
0.0
  0
POLYLINE
  5
D5
100
AcDbEntity
  8
IMPORTED
  6
CONTINUOUS
 62
              30
100
AcDb2dPolyline
 66
               1
 10
0.0
 20
0.0
 30
0.0
 70
             129
  0
VERTEX
  5
D6
100
AcDbEntity
  8
IMPORTED
  6
CONTINUOUS
 62
              30
100
AcDbVertex
100
AcDb2dVertex
 10
2549.3049999999994
 20
30.252599999999887
 30
0.0
  0
VERTEX
  5
D7
100
AcDbEntity
  8
IMPORTED
  6
CONTINUOUS
 62
              30
100
AcDbVertex
100
AcDb2dVertex
 10
2111.3049999999998
 20
30.252599999999887
 30
0.0
  0
VERTEX
  5
D8
100
AcDbEntity
  8
IMPORTED
  6
CONTINUOUS
 62
              30
100
AcDbVertex
100
AcDb2dVertex
 10
2111.3049999999998
 20
30.252599999999887
 30
0.0
 42
-0.414213562373095
 70
               2
 50
3.1191399769264294E+17
  0
VERTEX
  5
D9
100
AcDbEntity
  8
IMPORTED
  6
CONTINUOUS
 62
              30
100
AcDbVertex
100
AcDb2dVertex
 10
2105.3049999999998
 20
36.252599999999887
 30
0.0
  0
VERTEX
  5
DA
100
AcDbEntity
  8
IMPORTED
  6
CONTINUOUS
 62
              30
100
AcDbVertex
100
AcDb2dVertex
 10
2105.3049999999998
 20
36.252599999999887
 30
0.0
  0
VERTEX
  5
DB
100
AcDbEntity
  8
IMPORTED
  6
CONTINUOUS
 62
              30
100
AcDbVertex
100
AcDb2dVertex
 10
2105.3049999999998
 20
49.252599999999887
 30
0.0
  0
VERTEX
  5
DC
100
AcDbEntity
  8
IMPORTED
  6
CONTINUOUS
 62
              30
100
AcDbVertex
100
AcDb2dVertex
 10
2105.3049999999998
 20
49.252599999999887
 30
0.0
 42
-0.414213562373095
 70
               2
  0
VERTEX
  5
DD
100
AcDbEntity
  8
IMPORTED
  6
CONTINUOUS
 62
              30
100
AcDbVertex
100
AcDb2dVertex
 10
2111.3049999999998
 20
55.252599999999887
 30
0.0
  0
VERTEX
  5
DE
100
AcDbEntity
  8
IMPORTED
  6
CONTINUOUS
 62
              30
100
AcDbVertex
100
AcDb2dVertex
 10
2111.3049999999998
 20
55.252599999999887
 30
0.0
  0
VERTEX
  5
DF
100
AcDbEntity
  8
IMPORTED
  6
CONTINUOUS
 62
              30
100
AcDbVertex
100
AcDb2dVertex
 10
2549.3049999999994
 20
55.252599999999887
 30
0.0
  0
VERTEX
  5
E0
100
AcDbEntity
  8
IMPORTED
  6
CONTINUOUS
 62
              30
100
AcDbVertex
100
AcDb2dVertex
 10
2549.3049999999994
 20
55.252599999999887
 30
0.0
 42
-0.414213562373095
 70
               2
 50
1.8714839861558573E+17
  0
VERTEX
  5
E1
100
AcDbEntity
  8
IMPORTED
  6
CONTINUOUS
 62
              30
100
AcDbVertex
100
AcDb2dVertex
 10
2555.3049999999994
 20
49.252599999999887
 30
0.0
  0
VERTEX
  5
E2
100
AcDbEntity
  8
IMPORTED
  6
CONTINUOUS
 62
              30
100
AcDbVertex
100
AcDb2dVertex
 10
2555.3049999999994
 20
49.252599999999887
 30
0.0
  0
VERTEX
  5
E3
100
AcDbEntity
  8
IMPORTED
  6
CONTINUOUS
 62
              30
100
AcDbVertex
100
AcDb2dVertex
 10
2555.3049999999994
 20
36.252599999999887
 30
0.0
  0
VERTEX
  5
E4
100
AcDbEntity
  8
IMPORTED
  6
CONTINUOUS
 62
              30
100
AcDbVertex
100
AcDb2dVertex
 10
2555.3049999999994
 20
36.252599999999887
 30
0.0
 42
-0.414213562373095
 70
               2
  0
VERTEX
  5
E5
100
AcDbEntity
  8
IMPORTED
  6
CONTINUOUS
 62
              30
100
AcDbVertex
100
AcDb2dVertex
 10
2549.3049999999994
 20
30.252599999999887
 30
0.0
  0
SEQEND
  5
E6
100
AcDbEntity
  8
IMPORTED
  6
CONTINUOUS
 62
              30
  0
POLYLINE
  5
E7
100
AcDbEntity
  8
IMPORTED
  6
CONTINUOUS
 62
              30
100
AcDb2dPolyline
 66
               1
 10
0.0
 20
0.0
 30
0.0
 70
               1
 75
               5
  0
VERTEX
  5
E8
100
AcDbEntity
  8
IMPORTED
  6
CONTINUOUS
 62
              30
100
AcDbVertex
100
AcDb2dVertex
 10
2230.3049999999994
 20
30.252599999999887
 30
0.0
  0
VERTEX
  5
E9
100
AcDbEntity
  8
IMPORTED
  6
CONTINUOUS
 62
              30
100
AcDbVertex
100
AcDb2dVertex
 10
2430.3049999999994
 20
30.252599999999887
 30
0.0
  0
VERTEX
  5
EA
100
AcDbEntity
  8
IMPORTED
  6
CONTINUOUS
 62
              30
100
AcDbVertex
100
AcDb2dVertex
 10
2430.3049999999994
 20
25.752599999999887
 30
0.0
  0
VERTEX
  5
EB
100
AcDbEntity
  8
IMPORTED
  6
CONTINUOUS
 62
              30
100
AcDbVertex
100
AcDb2dVertex
 10
2230.3049999999994
 20
25.752599999999887
 30
0.0
  0
SEQEND
  5
EC
100
AcDbEntity
  8
IMPORTED
  6
CONTINUOUS
 62
              30
  0
POLYLINE
  5
EE
100
AcDbEntity
  8
IMPORTED
  6
CONTINUOUS
 62
              30
100
AcDb2dPolyline
 66
               1
 10
0.0
 20
0.0
 30
0.0
 70
               1
 75
               5
  0
VERTEX
  5
EF
100
AcDbEntity
  8
IMPORTED
  6
CONTINUOUS
 62
              30
100
AcDbVertex
100
AcDb2dVertex
 10
2230.3049999999994
 20
25.752599999999887
 30
0.0
  0
VERTEX
  5
F0
100
AcDbEntity
  8
IMPORTED
  6
CONTINUOUS
 62
              30
100
AcDbVertex
100
AcDb2dVertex
 10
2184.8049999999994
 20
25.752599999999887
 30
0.0
  0
VERTEX
  5
F1
100
AcDbEntity
  8
IMPORTED
  6
CONTINUOUS
 62
              30
100
AcDbVertex
100
AcDb2dVertex
 10
2184.8049999999994
 20
-19.747400000000113
 30
0.0
  0
VERTEX
  5
F2
100
AcDbEntity
  8
IMPORTED
  6
CONTINUOUS
 62
              30
100
AcDbVertex
100
AcDb2dVertex
 10
2180.3049999999994
 20
-19.747400000000113
 30
0.0
  0
VERTEX
  5
F3
100
AcDbEntity
  8
IMPORTED
  6
CONTINUOUS
 62
              30
100
AcDbVertex
100
AcDb2dVertex
 10
2180.3049999999994
 20
25.752599999999887
 30
0.0
  0
VERTEX
  5
F4
100
AcDbEntity
  8
IMPORTED
  6
CONTINUOUS
 62
              30
100
AcDbVertex
100
AcDb2dVertex
 10
2180.3049999999994
 20
30.252599999999887
 30
0.0
  0
VERTEX
  5
F5
100
AcDbEntity
  8
IMPORTED
  6
CONTINUOUS
 62
              30
100
AcDbVertex
100
AcDb2dVertex
 10
2184.8049999999994
 20
30.252599999999887
 30
0.0
  0
VERTEX
  5
F6
100
AcDbEntity
  8
IMPORTED
  6
CONTINUOUS
 62
              30
100
AcDbVertex
100
AcDb2dVertex
 10
2230.3049999999994
 20
30.252599999999887
 30
0.0
  0
SEQEND
  5
F7
100
AcDbEntity
  8
IMPORTED
  6
CONTINUOUS
 62
              30
  0
POLYLINE
  5
F9
100
AcDbEntity
  8
IMPORTED
  6
CONTINUOUS
 62
              30
100
AcDb2dPolyline
 66
               1
 10
0.0
 20
0.0
 30
0.0
 70
               1
 75
               5
  0
VERTEX
  5
FA
100
AcDbEntity
  8
IMPORTED
  6
CONTINUOUS
 62
              30
100
AcDbVertex
100
AcDb2dVertex
 10
2475.8049999999994
 20
30.252599999999887
 30
0.0
  0
VERTEX
  5
FB
100
AcDbEntity
  8
IMPORTED
  6
CONTINUOUS
 62
              30
100
AcDbVertex
100
AcDb2dVertex
 10
2480.3049999999994
 20
30.252599999999887
 30
0.0
  0
VERTEX
  5
FC
100
AcDbEntity
  8
IMPORTED
  6
CONTINUOUS
 62
              30
100
AcDbVertex
100
AcDb2dVertex
 10
2480.3049999999994
 20
25.752599999999887
 30
0.0
  0
VERTEX
  5
FD
100
AcDbEntity
  8
IMPORTED
  6
CONTINUOUS
 62
              30
100
AcDbVertex
100
AcDb2dVertex
 10
2480.3049999999994
 20
-19.747400000000113
 30
0.0
  0
VERTEX
  5
FE
100
AcDbEntity
  8
IMPORTED
  6
CONTINUOUS
 62
              30
100
AcDbVertex
100
AcDb2dVertex
 10
2475.8049999999994
 20
-19.747400000000113
 30
0.0
  0
VERTEX
  5
FF
100
AcDbEntity
  8
IMPORTED
  6
CONTINUOUS
 62
              30
100
AcDbVertex
100
AcDb2dVertex
 10
2475.8049999999994
 20
25.752599999999887
 30
0.0
  0
VERTEX
  5
100
100
AcDbEntity
  8
IMPORTED
  6
CONTINUOUS
 62
              30
100
AcDbVertex
100
AcDb2dVertex
 10
2430.3049999999994
 20
25.752599999999887
 30
0.0
  0
VERTEX
  5
101
100
AcDbEntity
  8
IMPORTED
  6
CONTINUOUS
 62
              30
100
AcDbVertex
100
AcDb2dVertex
 10
2430.3049999999994
 20
30.252599999999887
 30
0.0
  0
SEQEND
  5
102
100
AcDbEntity
  8
IMPORTED
  6
CONTINUOUS
 62
              30
  0
POLYLINE
  5
104
100
AcDbEntity
  8
IMPORTED
  6
CONTINUOUS
 62
              30
100
AcDb2dPolyline
 66
               1
 10
0.0
 20
0.0
 30
0.0
 70
               1
 75
               5
  0
VERTEX
  5
105
100
AcDbEntity
  8
IMPORTED
  6
CONTINUOUS
 62
              30
100
AcDbVertex
100
AcDb2dVertex
 10
2187.3049999999994
 20
-24.747400000000113
 30
0.0
  0
VERTEX
  5
106
100
AcDbEntity
  8
IMPORTED
  6
CONTINUOUS
 62
              30
100
AcDbVertex
100
AcDb2dVertex
 10
2187.3049999999994
 20
-20.247400000000113
 30
0.0
  0
VERTEX
  5
107
100
AcDbEntity
  8
IMPORTED
  6
CONTINUOUS
 62
              30
100
AcDbVertex
100
AcDb2dVertex
 10
2187.3049999999994
 20
20.252599999999887
 30
0.0
  0
VERTEX
  5
108
100
AcDbEntity
  8
IMPORTED
  6
CONTINUOUS
 62
              30
100
AcDbVertex
100
AcDb2dVertex
 10
2191.8049999999994
 20
20.252599999999887
 30
0.0
  0
VERTEX
  5
109
100
AcDbEntity
  8
IMPORTED
  6
CONTINUOUS
 62
              30
100
AcDbVertex
100
AcDb2dVertex
 10
2191.8049999999994
 20
-20.247400000000113
 30
0.0
  0
VERTEX
  5
10A
100
AcDbEntity
  8
IMPORTED
  6
CONTINUOUS
 62
              30
100
AcDbVertex
100
AcDb2dVertex
 10
2228.3049999999994
 20
-20.247400000000113
 30
0.0
  0
VERTEX
  5
10B
100
AcDbEntity
  8
IMPORTED
  6
CONTINUOUS
 62
              30
100
AcDbVertex
100
AcDb2dVertex
 10
2237.3049999999994
 20
-20.247400000000113
 30
0.0
  0
VERTEX
  5
10C
100
AcDbEntity
  8
IMPORTED
  6
CONTINUOUS
 62
              30
100
AcDbVertex
100
AcDb2dVertex
 10
2423.3049999999994
 20
-20.247400000000113
 30
0.0
  0
VERTEX
  5
10D
100
AcDbEntity
  8
IMPORTED
  6
CONTINUOUS
 62
              30
100
AcDbVertex
100
AcDb2dVertex
 10
2433.3049999999994
 20
-20.247400000000113
 30
0.0
  0
VERTEX
  5
10E
100
AcDbEntity
  8
IMPORTED
  6
CONTINUOUS
 62
              30
100
AcDbVertex
100
AcDb2dVertex
 10
2468.8049999999994
 20
-20.247400000000113
 30
0.0
  0
VERTEX
  5
10F
100
AcDbEntity
  8
IMPORTED
  6
CONTINUOUS
 62
              30
100
AcDbVertex
100
AcDb2dVertex
 10
2468.8049999999994
 20
20.252599999999887
 30
0.0
  0
VERTEX
  5
110
100
AcDbEntity
  8
IMPORTED
  6
CONTINUOUS
 62
              30
100
AcDbVertex
100
AcDb2dVertex
 10
2473.3049999999994
 20
20.252599999999887
 30
0.0
  0
VERTEX
  5
111
100
AcDbEntity
  8
IMPORTED
  6
CONTINUOUS
 62
              30
100
AcDbVertex
100
AcDb2dVertex
 10
2473.3049999999994
 20
-20.247400000000113
 30
0.0
  0
VERTEX
  5
112
100
AcDbEntity
  8
IMPORTED
  6
CONTINUOUS
 62
              30
100
AcDbVertex
100
AcDb2dVertex
 10
2473.3049999999994
 20
-24.747400000000113
 30
0.0
  0
VERTEX
  5
113
100
AcDbEntity
  8
IMPORTED
  6
CONTINUOUS
 62
              30
100
AcDbVertex
100
AcDb2dVertex
 10
2468.8049999999994
 20
-24.747400000000113
 30
0.0
  0
VERTEX
  5
114
100
AcDbEntity
  8
IMPORTED
  6
CONTINUOUS
 62
              30
100
AcDbVertex
100
AcDb2dVertex
 10
2433.3049999999994
 20
-24.747400000000113
 30
0.0
  0
VERTEX
  5
115
100
AcDbEntity
  8
IMPORTED
  6
CONTINUOUS
 62
              30
100
AcDbVertex
100
AcDb2dVertex
 10
2423.3049999999994
 20
-24.747400000000113
 30
0.0
  0
VERTEX
  5
116
100
AcDbEntity
  8
IMPORTED
  6
CONTINUOUS
 62
              30
100
AcDbVertex
100
AcDb2dVertex
 10
2237.3049999999994
 20
-24.747400000000113
 30
0.0
  0
VERTEX
  5
117
100
AcDbEntity
  8
IMPORTED
  6
CONTINUOUS
 62
              30
100
AcDbVertex
100
AcDb2dVertex
 10
2228.3049999999994
 20
-24.747400000000113
 30
0.0
  0
VERTEX
  5
118
100
AcDbEntity
  8
IMPORTED
  6
CONTINUOUS
 62
              30
100
AcDbVertex
100
AcDb2dVertex
 10
2191.8049999999994
 20
-24.747400000000113
 30
0.0
  0
SEQEND
  5
119
100
AcDbEntity
  8
IMPORTED
  6
CONTINUOUS
 62
              30
  0
POLYLINE
  5
11B
100
AcDbEntity
  8
IMPORTED
  6
STYLE_13
 62
              30
100
AcDb2dPolyline
 66
               1
 10
0.0
 20
0.0
 30
0.0
 70
               1
 75
               5
  0
VERTEX
  5
11C
100
AcDbEntity
  8
IMPORTED
  6
STYLE_13
 62
              30
100
AcDbVertex
100
AcDb2dVertex
 10
2234.3049999999994
 20
-20.247400000000113
 30
0.0
  0
VERTEX
  5
11D
100
AcDbEntity
  8
IMPORTED
  6
STYLE_13
 62
              30
100
AcDbVertex
100
AcDb2dVertex
 10
2246.3049999999994
 20
-20.247400000000113
 30
0.0
  0
VERTEX
  5
11E
100
AcDbEntity
  8
IMPORTED
  6
STYLE_13
 62
              30
100
AcDbVertex
100
AcDb2dVertex
 10
2246.3049999999994
 20
-24.747400000000113
 30
0.0
  0
VERTEX
  5
11F
100
AcDbEntity
  8
IMPORTED
  6
STYLE_13
 62
              30
100
AcDbVertex
100
AcDb2dVertex
 10
2234.3049999999994
 20
-24.747400000000113
 30
0.0
  0
SEQEND
  5
120
100
AcDbEntity
  8
IMPORTED
  6
STYLE_13
 62
              30
  0
POLYLINE
  5
122
100
AcDbEntity
  8
IMPORTED
  6
STYLE_13
 62
              30
100
AcDb2dPolyline
 66
               1
 10
0.0
 20
0.0
 30
0.0
 70
               1
 75
               5
  0
VERTEX
  5
123
100
AcDbEntity
  8
IMPORTED
  6
STYLE_13
 62
              30
100
AcDbVertex
100
AcDb2dVertex
 10
2414.3049999999994
 20
-20.247400000000113
 30
0.0
  0
VERTEX
  5
124
100
AcDbEntity
  8
IMPORTED
  6
STYLE_13
 62
              30
100
AcDbVertex
100
AcDb2dVertex
 10
2426.3049999999994
 20
-20.247400000000113
 30
0.0
  0
VERTEX
  5
125
100
AcDbEntity
  8
IMPORTED
  6
STYLE_13
 62
              30
100
AcDbVertex
100
AcDb2dVertex
 10
2426.3049999999994
 20
-24.747400000000113
 30
0.0
  0
VERTEX
  5
126
100
AcDbEntity
  8
IMPORTED
  6
STYLE_13
 62
              30
100
AcDbVertex
100
AcDb2dVertex
 10
2414.3049999999994
 20
-24.747400000000113
 30
0.0
  0
SEQEND
  5
127
100
AcDbEntity
  8
IMPORTED
  6
STYLE_13
 62
              30
  0
POLYLINE
  5
129
100
AcDbEntity
  8
IMPORTED
  6
STYLE_05
 62
              30
100
AcDb2dPolyline
 66
               1
 10
0.0
 20
0.0
 30
0.0
 70
             129
  0
VERTEX
  5
12A
100
AcDbEntity
  8
IMPORTED
  6
STYLE_05
 62
              30
100
AcDbVertex
100
AcDb2dVertex
 10
2232.8833999999997
 20
-24.747400000000113
 30
0.0
  0
VERTEX
  5
12B
100
AcDbEntity
  8
IMPORTED
  6
STYLE_05
 62
              30
100
AcDbVertex
100
AcDb2dVertex
 10
2248.2833999999993
 20
-24.747400000000113
 30
0.0
  0
VERTEX
  5
12C
100
AcDbEntity
  8
IMPORTED
  6
STYLE_05
 62
              30
100
AcDbVertex
100
AcDb2dVertex
 10
2248.2833999999993
 20
-46.652200000000136
 30
0.0
  0
VERTEX
  5
12D
100
AcDbEntity
  8
IMPORTED
  6
STYLE_05
 62
              30
100
AcDbVertex
100
AcDb2dVertex
 10
2232.8833999999997
 20
-46.652200000000136
 30
0.0
  0
VERTEX
  5
12E
100
AcDbEntity
  8
IMPORTED
  6
STYLE_05
 62
              30
100
AcDbVertex
100
AcDb2dVertex
 10
2232.8833999999997
 20
-24.747400000000113
 30
0.0
  0
SEQEND
  5
12F
100
AcDbEntity
  8
IMPORTED
  6
STYLE_05
 62
              30
  0
POLYLINE
  5
130
100
AcDbEntity
  8
IMPORTED
  6
STYLE_05
 62
              30
100
AcDb2dPolyline
 66
               1
 10
0.0
 20
0.0
 30
0.0
 70
             129
  0
VERTEX
  5
131
100
AcDbEntity
  8
IMPORTED
  6
STYLE_05
 62
              30
100
AcDbVertex
100
AcDb2dVertex
 10
2234.3048999999996
 20
-24.747400000000113
 30
0.0
  0
VERTEX
  5
132
100
AcDbEntity
  8
IMPORTED
  6
STYLE_05
 62
              30
100
AcDbVertex
100
AcDb2dVertex
 10
2234.3048999999996
 20
-43.534900000000135
 30
0.0
  0
VERTEX
  5
133
100
AcDbEntity
  8
IMPORTED
  6
STYLE_05
 62
              30
100
AcDbVertex
100
AcDb2dVertex
 10
2235.8205999999996
 20
-44.747400000000113
 30
0.0
  0
VERTEX
  5
134
100
AcDbEntity
  8
IMPORTED
  6
STYLE_05
 62
              30
100
AcDbVertex
100
AcDb2dVertex
 10
2244.7893999999997
 20
-44.747400000000113
 30
0.0
  0
VERTEX
  5
135
100
AcDbEntity
  8
IMPORTED
  6
STYLE_05
 62
              30
100
AcDbVertex
100
AcDb2dVertex
 10
2246.3049999999994
 20
-43.534900000000135
 30
0.0
  0
VERTEX
  5
136
100
AcDbEntity
  8
IMPORTED
  6
STYLE_05
 62
              30
100
AcDbVertex
100
AcDb2dVertex
 10
2246.3049999999994
 20
-24.747400000000113
 30
0.0
  0
SEQEND
  5
137
100
AcDbEntity
  8
IMPORTED
  6
STYLE_05
 62
              30
  0
POLYLINE
  5
138
100
AcDbEntity
  8
IMPORTED
  6
CONTINUOUS
 62
              30
100
AcDb2dPolyline
 66
               1
 10
0.0
 20
0.0
 30
0.0
 70
             128
  0
VERTEX
  5
139
100
AcDbEntity
  8
IMPORTED
  6
CONTINUOUS
 62
              30
100
AcDbVertex
100
AcDb2dVertex
 10
2229.9125999999997
 20
-13.451100000000139
 30
0.0
  0
VERTEX
  5
13A
100
AcDbEntity
  8
IMPORTED
  6
CONTINUOUS
 62
              30
100
AcDbVertex
100
AcDb2dVertex
 10
2230.5619999999999
 20
-13.100300000000146
 30
0.0
  0
VERTEX
  5
13B
100
AcDbEntity
  8
IMPORTED
  6
CONTINUOUS
 62
              30
100
AcDbVertex
100
AcDb2dVertex
 10
2231.2115999999996
 20
-12.849700000000126
 30
0.0
  0
VERTEX
  5
13C
100
AcDbEntity
  8
IMPORTED
  6
CONTINUOUS
 62
              30
100
AcDbVertex
100
AcDb2dVertex
 10
2231.8609999999999
 20
-12.699300000000136
 30
0.0
  0
VERTEX
  5
13D
100
AcDbEntity
  8
IMPORTED
  6
CONTINUOUS
 62
              30
100
AcDbVertex
100
AcDb2dVertex
 10
2232.5105999999996
 20
-12.649100000000118
 30
0.0
  0
VERTEX
  5
13E
100
AcDbEntity
  8
IMPORTED
  6
CONTINUOUS
 62
              30
100
AcDbVertex
100
AcDb2dVertex
 10
2233.1599999999999
 20
-12.699300000000136
 30
0.0
  0
VERTEX
  5
13F
100
AcDbEntity
  8
IMPORTED
  6
CONTINUOUS
 62
              30
100
AcDbVertex
100
AcDb2dVertex
 10
2233.8095999999996
 20
-12.849700000000126
 30
0.0
  0
VERTEX
  5
140
100
AcDbEntity
  8
IMPORTED
  6
CONTINUOUS
 62
              30
100
AcDbVertex
100
AcDb2dVertex
 10
2234.4591999999993
 20
-13.100300000000146
 30
0.0
  0
VERTEX
  5
141
100
AcDbEntity
  8
IMPORTED
  6
CONTINUOUS
 62
              30
100
AcDbVertex
100
AcDb2dVertex
 10
2235.1087999999995
 20
-13.451100000000139
 30
0.0
  0
VERTEX
  5
142
100
AcDbEntity
  8
IMPORTED
  6
CONTINUOUS
 62
              30
100
AcDbVertex
100
AcDb2dVertex
 10
2235.1087999999995
 20
-13.451100000000139
 30
0.0
  0
VERTEX
  5
143
100
AcDbEntity
  8
IMPORTED
  6
CONTINUOUS
 62
              30
100
AcDbVertex
100
AcDb2dVertex
 10
2236.4077999999995
 20
-13.100300000000146
 30
0.0
  0
VERTEX
  5
144
100
AcDbEntity
  8
IMPORTED
  6
CONTINUOUS
 62
              30
100
AcDbVertex
100
AcDb2dVertex
 10
2237.7067999999999
 20
-12.849700000000126
 30
0.0
  0
VERTEX
  5
145
100
AcDbEntity
  8
IMPORTED
  6
CONTINUOUS
 62
              30
100
AcDbVertex
100
AcDb2dVertex
 10
2239.0057999999999
 20
-12.699300000000136
 30
0.0
  0
VERTEX
  5
146
100
AcDbEntity
  8
IMPORTED
  6
CONTINUOUS
 62
              30
100
AcDbVertex
100
AcDb2dVertex
 10
2240.3049999999994
 20
-12.649100000000118
 30
0.0
  0
VERTEX
  5
147
100
AcDbEntity
  8
IMPORTED
  6
CONTINUOUS
 62
              30
100
AcDbVertex
100
AcDb2dVertex
 10
2241.6039999999994
 20
-12.699300000000136
 30
0.0
  0
VERTEX
  5
148
100
AcDbEntity
  8
IMPORTED
  6
CONTINUOUS
 62
              30
100
AcDbVertex
100
AcDb2dVertex
 10
2242.9029999999993
 20
-12.849700000000126
 30
0.0
  0
VERTEX
  5
149
100
AcDbEntity
  8
IMPORTED
  6
CONTINUOUS
 62
              30
100
AcDbVertex
100
AcDb2dVertex
 10
2244.2019999999993
 20
-13.100300000000146
 30
0.0
  0
VERTEX
  5
14A
100
AcDbEntity
  8
IMPORTED
  6
CONTINUOUS
 62
              30
100
AcDbVertex
100
AcDb2dVertex
 10
2245.5011999999997
 20
-13.451100000000139
 30
0.0
  0
VERTEX
  5
14B
100
AcDbEntity
  8
IMPORTED
  6
CONTINUOUS
 62
              30
100
AcDbVertex
100
AcDb2dVertex
 10
2245.5011999999997
 20
-13.451100000000139
 30
0.0
  0
VERTEX
  5
14C
100
AcDbEntity
  8
IMPORTED
  6
CONTINUOUS
 62
              30
100
AcDbVertex
100
AcDb2dVertex
 10
2246.1505999999999
 20
-13.100300000000146
 30
0.0
  0
VERTEX
  5
14D
100
AcDbEntity
  8
IMPORTED
  6
CONTINUOUS
 62
              30
100
AcDbVertex
100
AcDb2dVertex
 10
2246.8001999999997
 20
-12.849700000000126
 30
0.0
  0
VERTEX
  5
14E
100
AcDbEntity
  8
IMPORTED
  6
CONTINUOUS
 62
              30
100
AcDbVertex
100
AcDb2dVertex
 10
2247.4495999999999
 20
-12.699300000000136
 30
0.0
  0
VERTEX
  5
14F
100
AcDbEntity
  8
IMPORTED
  6
CONTINUOUS
 62
              30
100
AcDbVertex
100
AcDb2dVertex
 10
2248.0991999999997
 20
-12.649100000000118
 30
0.0
  0
VERTEX
  5
150
100
AcDbEntity
  8
IMPORTED
  6
CONTINUOUS
 62
              30
100
AcDbVertex
100
AcDb2dVertex
 10
2248.7485999999999
 20
-12.699300000000136
 30
0.0
  0
VERTEX
  5
151
100
AcDbEntity
  8
IMPORTED
  6
CONTINUOUS
 62
              30
100
AcDbVertex
100
AcDb2dVertex
 10
2249.3981999999996
 20
-12.849700000000126
 30
0.0
  0
VERTEX
  5
152
100
AcDbEntity
  8
IMPORTED
  6
CONTINUOUS
 62
              30
100
AcDbVertex
100
AcDb2dVertex
 10
2250.0477999999994
 20
-13.100300000000146
 30
0.0
  0
VERTEX
  5
153
100
AcDbEntity
  8
IMPORTED
  6
CONTINUOUS
 62
              30
100
AcDbVertex
100
AcDb2dVertex
 10
2250.6973999999996
 20
-13.451100000000139
 30
0.0
  0
VERTEX
  5
154
100
AcDbEntity
  8
IMPORTED
  6
CONTINUOUS
 62
              30
100
AcDbVertex
100
AcDb2dVertex
 10
2250.6973999999996
 20
-13.451100000000139
 30
0.0
  0
SEQEND
  5
155
100
AcDbEntity
  8
IMPORTED
  6
CONTINUOUS
 62
              30
  0
POLYLINE
  5
156
100
AcDbEntity
  8
IMPORTED
  6
CONTINUOUS
 62
              30
100
AcDb2dPolyline
 66
               1
 10
0.0
 20
0.0
 30
0.0
 70
             129
  0
VERTEX
  5
157
100
AcDbEntity
  8
IMPORTED
  6
CONTINUOUS
 62
              30
100
AcDbVertex
100
AcDb2dVertex
 10
2229.9125999999997
 20
-20.247400000000113
 30
0.0
  0
VERTEX
  5
158
100
AcDbEntity
  8
IMPORTED
  6
CONTINUOUS
 62
              30
100
AcDbVertex
100
AcDb2dVertex
 10
2229.9125999999997
 20
-13.451200000000114
 30
0.0
  0
VERTEX
  5
159
100
AcDbEntity
  8
IMPORTED
  6
CONTINUOUS
 62
              30
100
AcDbVertex
100
AcDb2dVertex
 10
2231.3048999999996
 20
-12.647400000000147
 30
0.0
  0
VERTEX
  5
15A
100
AcDbEntity
  8
IMPORTED
  6
CONTINUOUS
 62
              30
100
AcDbVertex
100
AcDb2dVertex
 10
2249.3048999999996
 20
-12.647400000000147
 30
0.0
  0
VERTEX
  5
15B
100
AcDbEntity
  8
IMPORTED
  6
CONTINUOUS
 62
              30
100
AcDbVertex
100
AcDb2dVertex
 10
2250.6971999999996
 20
-13.451200000000114
 30
0.0
  0
VERTEX
  5
15C
100
AcDbEntity
  8
IMPORTED
  6
CONTINUOUS
 62
              30
100
AcDbVertex
100
AcDb2dVertex
 10
2250.6971999999996
 20
-20.247400000000113
 30
0.0
  0
SEQEND
  5
15D
100
AcDbEntity
  8
IMPORTED
  6
CONTINUOUS
 62
              30
  0
LINE
  5
15E
100
AcDbEntity
  8
IMPORTED
  6
CONTINUOUS
 62
              30
100
AcDbLine
 10
2245.5010999999995
 20
-20.247400000000113
 30
0.0
 11
2245.5010999999995
 21
-13.451200000000114
 31
0.0
  0
LINE
  5
15F
100
AcDbEntity
  8
IMPORTED
  6
CONTINUOUS
 62
              30
100
AcDbLine
 10
2235.1087999999995
 20
-13.451200000000114
 30
0.0
 11
2235.1087999999995
 21
-20.247400000000113
 31
0.0
  0
POLYLINE
  5
160
100
AcDbEntity
  8
IMPORTED
  6
STYLE_05
 62
              30
100
AcDb2dPolyline
 66
               1
 10
0.0
 20
0.0
 30
0.0
 70
             129
  0
VERTEX
  5
161
100
AcDbEntity
  8
IMPORTED
  6
STYLE_05
 62
              30
100
AcDbVertex
100
AcDb2dVertex
 10
2412.8834999999995
 20
-24.747400000000113
 30
0.0
  0
VERTEX
  5
162
100
AcDbEntity
  8
IMPORTED
  6
STYLE_05
 62
              30
100
AcDbVertex
100
AcDb2dVertex
 10
2428.2834999999995
 20
-24.747400000000113
 30
0.0
  0
VERTEX
  5
163
100
AcDbEntity
  8
IMPORTED
  6
STYLE_05
 62
              30
100
AcDbVertex
100
AcDb2dVertex
 10
2428.2834999999995
 20
-46.652200000000136
 30
0.0
  0
VERTEX
  5
164
100
AcDbEntity
  8
IMPORTED
  6
STYLE_05
 62
              30
100
AcDbVertex
100
AcDb2dVertex
 10
2412.8834999999995
 20
-46.652200000000136
 30
0.0
  0
VERTEX
  5
165
100
AcDbEntity
  8
IMPORTED
  6
STYLE_05
 62
              30
100
AcDbVertex
100
AcDb2dVertex
 10
2412.8834999999995
 20
-24.747400000000113
 30
0.0
  0
SEQEND
  5
166
100
AcDbEntity
  8
IMPORTED
  6
STYLE_05
 62
              30
  0
POLYLINE
  5
167
100
AcDbEntity
  8
IMPORTED
  6
STYLE_05
 62
              30
100
AcDb2dPolyline
 66
               1
 10
0.0
 20
0.0
 30
0.0
 70
             129
  0
VERTEX
  5
168
100
AcDbEntity
  8
IMPORTED
  6
STYLE_05
 62
              30
100
AcDbVertex
100
AcDb2dVertex
 10
2414.3050999999996
 20
-24.747400000000113
 30
0.0
  0
VERTEX
  5
169
100
AcDbEntity
  8
IMPORTED
  6
STYLE_05
 62
              30
100
AcDbVertex
100
AcDb2dVertex
 10
2414.3050999999996
 20
-43.534900000000135
 30
0.0
  0
VERTEX
  5
16A
100
AcDbEntity
  8
IMPORTED
  6
STYLE_05
 62
              30
100
AcDbVertex
100
AcDb2dVertex
 10
2415.8206999999998
 20
-44.747400000000113
 30
0.0
  0
VERTEX
  5
16B
100
AcDbEntity
  8
IMPORTED
  6
STYLE_05
 62
              30
100
AcDbVertex
100
AcDb2dVertex
 10
2424.7894999999994
 20
-44.747400000000113
 30
0.0
  0
VERTEX
  5
16C
100
AcDbEntity
  8
IMPORTED
  6
STYLE_05
 62
              30
100
AcDbVertex
100
AcDb2dVertex
 10
2426.3051999999998
 20
-43.534900000000135
 30
0.0
  0
VERTEX
  5
16D
100
AcDbEntity
  8
IMPORTED
  6
STYLE_05
 62
              30
100
AcDbVertex
100
AcDb2dVertex
 10
2426.3051999999998
 20
-24.747400000000113
 30
0.0
  0
SEQEND
  5
16E
100
AcDbEntity
  8
IMPORTED
  6
STYLE_05
 62
              30
  0
POLYLINE
  5
16F
100
AcDbEntity
  8
IMPORTED
  6
CONTINUOUS
 62
              30
100
AcDb2dPolyline
 66
               1
 10
0.0
 20
0.0
 30
0.0
 70
             128
  0
VERTEX
  5
170
100
AcDbEntity
  8
IMPORTED
  6
CONTINUOUS
 62
              30
100
AcDbVertex
100
AcDb2dVertex
 10
2409.9126999999994
 20
-13.451100000000139
 30
0.0
  0
VERTEX
  5
171
100
AcDbEntity
  8
IMPORTED
  6
CONTINUOUS
 62
              30
100
AcDbVertex
100
AcDb2dVertex
 10
2410.5620999999996
 20
-13.100300000000146
 30
0.0
  0
VERTEX
  5
172
100
AcDbEntity
  8
IMPORTED
  6
CONTINUOUS
 62
              30
100
AcDbVertex
100
AcDb2dVertex
 10
2411.2116999999994
 20
-12.849700000000126
 30
0.0
  0
VERTEX
  5
173
100
AcDbEntity
  8
IMPORTED
  6
CONTINUOUS
 62
              30
100
AcDbVertex
100
AcDb2dVertex
 10
2411.8610999999996
 20
-12.699300000000136
 30
0.0
  0
VERTEX
  5
174
100
AcDbEntity
  8
IMPORTED
  6
CONTINUOUS
 62
              30
100
AcDbVertex
100
AcDb2dVertex
 10
2412.5106999999994
 20
-12.649100000000118
 30
0.0
  0
VERTEX
  5
175
100
AcDbEntity
  8
IMPORTED
  6
CONTINUOUS
 62
              30
100
AcDbVertex
100
AcDb2dVertex
 10
2413.1600999999996
 20
-12.699300000000136
 30
0.0
  0
VERTEX
  5
176
100
AcDbEntity
  8
IMPORTED
  6
CONTINUOUS
 62
              30
100
AcDbVertex
100
AcDb2dVertex
 10
2413.8096999999998
 20
-12.849700000000126
 30
0.0
  0
VERTEX
  5
177
100
AcDbEntity
  8
IMPORTED
  6
CONTINUOUS
 62
              30
100
AcDbVertex
100
AcDb2dVertex
 10
2414.4592999999995
 20
-13.100300000000146
 30
0.0
  0
VERTEX
  5
178
100
AcDbEntity
  8
IMPORTED
  6
CONTINUOUS
 62
              30
100
AcDbVertex
100
AcDb2dVertex
 10
2415.1088999999997
 20
-13.451100000000139
 30
0.0
  0
VERTEX
  5
179
100
AcDbEntity
  8
IMPORTED
  6
CONTINUOUS
 62
              30
100
AcDbVertex
100
AcDb2dVertex
 10
2415.1088999999997
 20
-13.451100000000139
 30
0.0
  0
VERTEX
  5
17A
100
AcDbEntity
  8
IMPORTED
  6
CONTINUOUS
 62
              30
100
AcDbVertex
100
AcDb2dVertex
 10
2416.4078999999997
 20
-13.100300000000146
 30
0.0
  0
VERTEX
  5
17B
100
AcDbEntity
  8
IMPORTED
  6
CONTINUOUS
 62
              30
100
AcDbVertex
100
AcDb2dVertex
 10
2417.7068999999997
 20
-12.849700000000126
 30
0.0
  0
VERTEX
  5
17C
100
AcDbEntity
  8
IMPORTED
  6
CONTINUOUS
 62
              30
100
AcDbVertex
100
AcDb2dVertex
 10
2419.0058999999997
 20
-12.699300000000136
 30
0.0
  0
VERTEX
  5
17D
100
AcDbEntity
  8
IMPORTED
  6
CONTINUOUS
 62
              30
100
AcDbVertex
100
AcDb2dVertex
 10
2420.3050999999996
 20
-12.649100000000118
 30
0.0
  0
VERTEX
  5
17E
100
AcDbEntity
  8
IMPORTED
  6
CONTINUOUS
 62
              30
100
AcDbVertex
100
AcDb2dVertex
 10
2421.6040999999996
 20
-12.699300000000136
 30
0.0
  0
VERTEX
  5
17F
100
AcDbEntity
  8
IMPORTED
  6
CONTINUOUS
 62
              30
100
AcDbVertex
100
AcDb2dVertex
 10
2422.9030999999995
 20
-12.849700000000126
 30
0.0
  0
VERTEX
  5
180
100
AcDbEntity
  8
IMPORTED
  6
CONTINUOUS
 62
              30
100
AcDbVertex
100
AcDb2dVertex
 10
2424.2020999999995
 20
-13.100300000000146
 30
0.0
  0
VERTEX
  5
181
100
AcDbEntity
  8
IMPORTED
  6
CONTINUOUS
 62
              30
100
AcDbVertex
100
AcDb2dVertex
 10
2425.5012999999994
 20
-13.451100000000139
 30
0.0
  0
VERTEX
  5
182
100
AcDbEntity
  8
IMPORTED
  6
CONTINUOUS
 62
              30
100
AcDbVertex
100
AcDb2dVertex
 10
2425.5012999999994
 20
-13.451100000000139
 30
0.0
  0
VERTEX
  5
183
100
AcDbEntity
  8
IMPORTED
  6
CONTINUOUS
 62
              30
100
AcDbVertex
100
AcDb2dVertex
 10
2426.1506999999997
 20
-13.100300000000146
 30
0.0
  0
VERTEX
  5
184
100
AcDbEntity
  8
IMPORTED
  6
CONTINUOUS
 62
              30
100
AcDbVertex
100
AcDb2dVertex
 10
2426.8002999999994
 20
-12.849700000000126
 30
0.0
  0
VERTEX
  5
185
100
AcDbEntity
  8
IMPORTED
  6
CONTINUOUS
 62
              30
100
AcDbVertex
100
AcDb2dVertex
 10
2427.4496999999997
 20
-12.699300000000136
 30
0.0
  0
VERTEX
  5
186
100
AcDbEntity
  8
IMPORTED
  6
CONTINUOUS
 62
              30
100
AcDbVertex
100
AcDb2dVertex
 10
2428.0992999999994
 20
-12.649100000000118
 30
0.0
  0
VERTEX
  5
187
100
AcDbEntity
  8
IMPORTED
  6
CONTINUOUS
 62
              30
100
AcDbVertex
100
AcDb2dVertex
 10
2428.7486999999996
 20
-12.699300000000136
 30
0.0
  0
VERTEX
  5
188
100
AcDbEntity
  8
IMPORTED
  6
CONTINUOUS
 62
              30
100
AcDbVertex
100
AcDb2dVertex
 10
2429.3982999999994
 20
-12.849700000000126
 30
0.0
  0
VERTEX
  5
189
100
AcDbEntity
  8
IMPORTED
  6
CONTINUOUS
 62
              30
100
AcDbVertex
100
AcDb2dVertex
 10
2430.0478999999996
 20
-13.100300000000146
 30
0.0
  0
VERTEX
  5
18A
100
AcDbEntity
  8
IMPORTED
  6
CONTINUOUS
 62
              30
100
AcDbVertex
100
AcDb2dVertex
 10
2430.6974999999998
 20
-13.451100000000139
 30
0.0
  0
VERTEX
  5
18B
100
AcDbEntity
  8
IMPORTED
  6
CONTINUOUS
 62
              30
100
AcDbVertex
100
AcDb2dVertex
 10
2430.6974999999998
 20
-13.451100000000139
 30
0.0
  0
SEQEND
  5
18C
100
AcDbEntity
  8
IMPORTED
  6
CONTINUOUS
 62
              30
  0
POLYLINE
  5
18D
100
AcDbEntity
  8
IMPORTED
  6
CONTINUOUS
 62
              30
100
AcDb2dPolyline
 66
               1
 10
0.0
 20
0.0
 30
0.0
 70
             129
  0
VERTEX
  5
18E
100
AcDbEntity
  8
IMPORTED
  6
CONTINUOUS
 62
              30
100
AcDbVertex
100
AcDb2dVertex
 10
2409.9126999999994
 20
-20.247400000000113
 30
0.0
  0
VERTEX
  5
18F
100
AcDbEntity
  8
IMPORTED
  6
CONTINUOUS
 62
              30
100
AcDbVertex
100
AcDb2dVertex
 10
2409.9126999999994
 20
-13.451200000000114
 30
0.0
  0
VERTEX
  5
190
100
AcDbEntity
  8
IMPORTED
  6
CONTINUOUS
 62
              30
100
AcDbVertex
100
AcDb2dVertex
 10
2411.3049999999994
 20
-12.647400000000147
 30
0.0
  0
VERTEX
  5
191
100
AcDbEntity
  8
IMPORTED
  6
CONTINUOUS
 62
              30
100
AcDbVertex
100
AcDb2dVertex
 10
2429.3049999999994
 20
-12.647400000000147
 30
0.0
  0
VERTEX
  5
192
100
AcDbEntity
  8
IMPORTED
  6
CONTINUOUS
 62
              30
100
AcDbVertex
100
AcDb2dVertex
 10
2430.6972999999994
 20
-13.451200000000114
 30
0.0
  0
VERTEX
  5
193
100
AcDbEntity
  8
IMPORTED
  6
CONTINUOUS
 62
              30
100
AcDbVertex
100
AcDb2dVertex
 10
2430.6972999999994
 20
-20.247400000000113
 30
0.0
  0
SEQEND
  5
194
100
AcDbEntity
  8
IMPORTED
  6
CONTINUOUS
 62
              30
  0
LINE
  5
195
100
AcDbEntity
  8
IMPORTED
  6
CONTINUOUS
 62
              30
100
AcDbLine
 10
2425.5011999999997
 20
-20.247400000000113
 30
0.0
 11
2425.5011999999997
 21
-13.451200000000114
 31
0.0
  0
LINE
  5
196
100
AcDbEntity
  8
IMPORTED
  6
CONTINUOUS
 62
              30
100
AcDbLine
 10
2415.1088999999997
 20
-13.451200000000114
 30
0.0
 11
2415.1088999999997
 21
-20.247400000000113
 31
0.0
  0
ARC
  5
197
100
AcDbEntity
  8
IMPORTED
  6
CONTINUOUS
 62
              30
100
AcDbCircle
 10
-476.14516763302231
 20
-715.24759498998014
 30
0.0
 40
1125.000041765119
100
AcDbArc
 50
0.5092821333638292
 51
26.597916456989719
  0
ARC
  5
198
100
AcDbEntity
  8
IMPORTED
  6
STYLE_05
 62
              30
100
AcDbCircle
 10
-476.14516763302231
 20
-715.24759498998014
 30
0.0
 40
1129.0000001896367
100
AcDbArc
 50
0.5092844799715165
 51
89.490715520028473
  0
ARC
  5
199
100
AcDbEntity
  8
IMPORTED
  6
CONTINUOUS
 62
              30
100
AcDbCircle
 10
-476.14516763302231
 20
-715.24759498998014
 30
0.0
 40
1174.9999782491316
100
AcDbArc
 50
0.4871955503926486
 51
26.592331426588501
  0
ARC
  5
19A
100
AcDbEntity
  8
IMPORTED
  6
CONTINUOUS
 62
              30
100
AcDbCircle
 10
-476.14516763302231
 20
-715.24759498998014
 30
0.0
 40
1375.0000565561729
100
AcDbArc
 50
0.4160835073860382
 51
26.574767732511553
  0
ARC
  5
19B
100
AcDbEntity
  8
IMPORTED
  6
CONTINUOUS
 62
              30
100
AcDbCircle
 10
-476.14516763302231
 20
-715.24759498998014
 30
0.0
 40
1424.9999867480872
100
AcDbArc
 50
0.4020709079048451
 51
26.571112684382186
  0
ARC
  5
19C
100
AcDbEntity
  8
IMPORTED
  6
STYLE_05
 62
              30
100
AcDbCircle
 10
-476.14516763302231
 20
-715.24759498998014
 30
0.0
 40
1420.9999880457033
100
AcDbArc
 50
0.4020696823332659
 51
89.597930317666737
  0
LINE
  5
19D
100
AcDbEntity
  8
IMPORTED
  6
CONTINUOUS
 62
              30
100
AcDbLine
 10
898.81853236697725
 20
-705.26239498998007
 30
0.0
 11
948.85473236697726
 21
-705.24759498998014
 31
0.0
  0
LINE
  5
19E
100
AcDbEntity
  8
IMPORTED
  6
CONTINUOUS
 62
              30
100
AcDbLine
 10
648.85463236697751
 20
-705.24769498998012
 30
0.0
 11
698.81213236697749
 21
-705.25659498998016
 31
0.0
  0
LINE
  5
19F
100
AcDbEntity
  8
IMPORTED
  6
STYLE_05
 62
              30
100
AcDbLine
 10
-416.14556763302221
 20
459.70800501001986
 30
0.0
 11
-416.14556763302221
 21
658.44280501001981
 31
0.0
  0
LINE
  5
1A0
100
AcDbEntity
  8
IMPORTED
  6
CONTINUOUS
 62
              30
100
AcDbLine
 10
698.81223236697747
 20
-655.25649498998018
 30
0.0
 11
898.81843236697728
 21
-655.25649498998018
 31
0.0
  0
LINE
  5
1A1
100
AcDbEntity
  8
IMPORTED
  6
CONTINUOUS
 62
              30
100
AcDbLine
 10
698.81223236697747
 20
-705.25649498998018
 30
0.0
 11
898.81843236697728
 21
-705.25649498998018
 31
0.0
  0
LINE
  5
1A2
100
AcDbEntity
  8
IMPORTED
  6
STYLE_05
 62
              30
100
AcDbLine
 10
513.80443236697761
 20
239.34660501002028
 30
0.0
 11
372.38303236697766
 21
97.925205010019738
 31
0.0
  0
LINE
  5
1A3
100
AcDbEntity
  8
IMPORTED
  6
STYLE_05
 62
              30
100
AcDbLine
 10
478.44903236697769
 20
274.70200501002
 30
0.0
 11
337.02763236697751
 21
133.28060501002008
 31
0.0
  0
CIRCLE
  5
1A4
100
AcDbEntity
  8
IMPORTED
  6
CONTINUOUS
 62
               1
100
AcDbCircle
 10
-476.14516763302231
 20
13.046405010019953
 30
0.0
 40
31.753899999999703
  0
CIRCLE
  5
1A5
100
AcDbEntity
  8
IMPORTED
  6
CONTINUOUS
 62
               1
100
AcDbCircle
 10
-242.04276763302232
 20
-25.604094989979984
 30
0.0
 40
31.753899999999931
  0
ARC
  5
1A6
100
AcDbEntity
  8
IMPORTED
  6
CONTINUOUS
 62
               1
100
AcDbCircle
 10
-477.38589131683102
 20
-718.82335511868928
 30
0.0
 40
728.29386434963192
100
AcDbArc
 50
71.249993942427295
 51
90.0
  0
MTEXT
  5
1A7
100
AcDbEntity
  8
IMPORTED
 62
               1
100
AcDbMText
 10
-407.0780710833285
 20
56.290488534637603
 30
0.0
 40
24.4326171875
 41
0.0
 71
               1
 72
               1
  1
18.75°
  7
_______
 11
0.9866430278892626
 21
-0.1628973158695616
 31
0.0
  0
CIRCLE
  5
1A8
100
AcDbEntity
  8
IMPORTED
  6
CONTINUOUS
 62
               1
100
AcDbCircle
 10
209.91443236697751
 20
-482.36179498998013
 30
0.0
 40
31.753900000000158
  0
ARC
  5
1A9
100
AcDbEntity
  8
IMPORTED
  6
CONTINUOUS
 62
               1
100
AcDbCircle
 10
-476.14516763302231
 20
-715.24759498998014
 30
0.0
 40
724.5090982050466
100
AcDbArc
 50
18.749998569040418
 51
71.249974815401373
  0
MTEXT
  5
1AA
100
AcDbEntity
  8
IMPORTED
 62
               1
100
AcDbMText
 10
72.983750940050641
 20
-165.96798225510753
 30
0.0
 40
24.4326171875
 41
0.0
 71
               1
 72
               1
  1
52.5°
  7
_______
 11
0.6488957274686609
 21
-0.7608773454854058
 31
0.0
  0
CIRCLE
  5
1AB
100
AcDbEntity
  8
IMPORTED
  6
CONTINUOUS
 62
               1
100
AcDbCircle
 10
248.36403236697765
 20
-715.24759498998014
 30
0.0
 40
31.753899999999931
  0
ARC
  5
1AC
100
AcDbEntity
  8
IMPORTED
  6
CONTINUOUS
 62
               1
100
AcDbCircle
 10
-476.14516763302231
 20
-715.24759498998014
 30
0.0
 40
724.50909999999976
100
AcDbArc
 50
0.0
 51
18.749996027026668
  0
MTEXT
  5
1AD
100
AcDbEntity
  8
IMPORTED
 62
               1
100
AcDbMText
 10
287.09431489516055
 20
-526.67249240499859
 30
0.0
 40
24.4326171875
 41
0.0
 71
               1
 72
               1
  1
18.75°
  7
_______
 11
0.1628952147263458
 21
-0.986643374791144
 31
0.0
  0
CIRCLE
  5
1AE
100
AcDbEntity
  8
IMPORTED
  6
CONTINUOUS
 62
               1
100
AcDbCircle
 10
-476.14516763302231
 20
-248.3060949899801
 30
0.0
 40
31.753899999999703
  0
CIRCLE
  5
1AF
100
AcDbEntity
  8
IMPORTED
  6
CONTINUOUS
 62
               1
100
AcDbCircle
 10
-9.2036676330224054
 20
-715.24759498998014
 30
0.0
 40
31.753900000000158
  0
ARC
  5
1B0
100
AcDbEntity
  8
IMPORTED
  6
CONTINUOUS
 62
               1
100
AcDbCircle
 10
-476.14516763302231
 20
-715.24759498998014
 30
0.0
 40
466.94139999999993
100
AcDbArc
 50
0.0
 51
90.0
  0
MTEXT
  5
1B1
100
AcDbEntity
  8
IMPORTED
 62
               1
100
AcDbMText
 10
-139.86108099411081
 20
-321.58060386568025
 30
0.0
 40
24.4326171875
 41
0.0
 71
               1
 72
               1
  1
90°
  7
_______
 11
0.7071114834185913
 21
-0.7071020789232339
 31
0.0
  0
MTEXT
  5
1B2
100
AcDbEntity
  8
IMPORTED
 62
               1
100
AcDbMText
 10
1049.2739809575583
 20
-467.21728486870779
 30
0.0
 40
24.4326171875
 41
0.0
 71
               1
 72
               1
  1
FB-50×4.5
  7
_______
  0
LINE
  5
1B3
100
AcDbEntity
  8
IMPORTED
  6
CONTINUOUS
 62
               1
100
AcDbLine
 10
1034.6701809575584
 20
-504.02637375654331
 30
0.0
 11
1222.0
 21
-504.02637375654331
 31
0.0
  0
LINE
  5
1B4
100
AcDbEntity
  8
IMPORTED
  6
CONTINUOUS
 62
               1
100
AcDbLine
 10
853.51345201900949
 20
-655.25649498998018
 30
0.0
 11
1034.6701809575584
 21
-504.02637375654331
 31
0.0
  0
LINE
  5
1B5
100
AcDbEntity
  8
IMPORTED
  6
CONTINUOUS
 62
               1
100
AcDbLine
 10
908.0
 20
-484.0
 30
0.0
 11
1060.0681323669774
 21
-368.13329498998053
 31
0.0
  0
LINE
  5
1B6
100
AcDbEntity
  8
IMPORTED
  6
CONTINUOUS
 62
               1
100
AcDbLine
 10
1060.0681323669774
 20
-368.13329498998053
 30
0.0
 11
1172.5135323669774
 21
-368.13329498998053
 31
0.0
  0
MTEXT
  5
1B7
100
AcDbEntity
  8
IMPORTED
 62
               1
100
AcDbMText
 10
1084.3260323669774
 20
-323.37817780248076
 30
0.0
 40
24.4326171875
 41
0.0
 71
               1
 72
               1
  1
φ10
  7
_______
  0
LINE
  5
1B8
100
AcDbEntity
  8
IMPORTED
  6
STYLE_06
 62
               1
100
AcDbLine
 10
56.882012266288712
 20
855.0
 30
0.0
 11
-262.28866763302244
 21
-85.247694989980076
 31
0.0
  0
LINE
  5
1B9
100
AcDbEntity
  8
IMPORTED
  6
STYLE_06
 62
               1
100
AcDbLine
 10
1143.2961340489101
 20
-165.52146133604876
 30
0.0
 11
153.85463236697751
 21
-501.39099498998007
 31
0.0
  0
MTEXT
  5
1BA
100
AcDbEntity
  8
IMPORTED
 62
               1
100
AcDbMText
 10
469.12815390952892
 20
832.38297911241682
 30
0.0
 40
24.432617187500004
 41
0.0
 71
               1
 72
               1
  1
座板 ESW(134×93)×25M塗装
  7
_______
  0
LINE
  5
1BB
100
AcDbEntity
  8
IMPORTED
  6
CONTINUOUS
 62
               1
100
AcDbLine
 10
454.58453236697756
 20
793.31630501001973
 30
0.0
 11
884.0
 21
793.31630501001973
 31
0.0
  0
POLYLINE
  5
1BC
100
AcDbEntity
  8
IMPORTED
  6
CONTINUOUS
 62
              30
100
AcDb2dPolyline
 66
               1
 10
0.0
 20
0.0
 30
0.0
 70
             129
  0
VERTEX
  5
1BD
100
AcDbEntity
  8
IMPORTED
  6
CONTINUOUS
 62
              30
100
AcDbVertex
100
AcDb2dVertex
 10
-844.34130000000027
 20
1231.1104
 30
0.0
  0
VERTEX
  5
1BE
100
AcDbEntity
  8
IMPORTED
  6
CONTINUOUS
 62
              30
100
AcDbVertex
100
AcDb2dVertex
 10
3055.6587
 20
1231.1104
 30
0.0
  0
VERTEX
  5
1BF
100
AcDbEntity
  8
IMPORTED
  6
CONTINUOUS
 62
              30
100
AcDbVertex
100
AcDb2dVertex
 10
3055.6587
 20
-1518.8896
 30
0.0
  0
VERTEX
  5
1C0
100
AcDbEntity
  8
IMPORTED
  6
CONTINUOUS
 62
              30
100
AcDbVertex
100
AcDb2dVertex
 10
-844.34130000000027
 20
-1518.8896
 30
0.0
  0
VERTEX
  5
1C1
100
AcDbEntity
  8
IMPORTED
  6
CONTINUOUS
 62
              30
100
AcDbVertex
100
AcDb2dVertex
 10
-844.34130000000027
 20
1231.1104
 30
0.0
  0
SEQEND
  5
1C2
100
AcDbEntity
  8
IMPORTED
  6
CONTINUOUS
 62
              30
  0
MTEXT
  5
1C3
100
AcDbEntity
  8
IMPORTED
 62
              30
100
AcDbMText
 10
2334.5266333333329
 20
1020.9798615312498
 30
0.0
 40
27.14736953125
 41
0.0
 71
               1
 72
               1
  1
記　　号
  7
_______
  0
MTEXT
  5
1C4
100
AcDbEntity
  8
IMPORTED
 62
              30
100
AcDbMText
 10
2334.5266333333329
 20
841.94939486458327
 30
0.0
 40
27.14736953125
 41
0.0
 71
               1
 72
               1
  1
縮　　尺
  7
_______
  0
MTEXT
  5
1C5
100
AcDbEntity
  8
IMPORTED
 62
              30
100
AcDbMText
 10
2334.5266333333329
 20
1110.9798615312498
 30
0.0
 40
27.14736953125
 41
0.0
 71
               1
 72
               1
  1
仕　　様
  7
_______
  0
MTEXT
  5
1C6
100
AcDbEntity
  8
IMPORTED
 62
              30
100
AcDbMText
 10
2334.5266333333329
 20
1201.9493948645832
 30
0.0
 40
27.14736953125
 41
0.0
 71
               1
 72
               1
  1
品　　名
  7
_______
  0
MTEXT
  5
1C7
100
AcDbEntity
  8
IMPORTED
 62
              30
100
AcDbMText
 10
2684.711166666666
 20
1200.9798615312498
 30
0.0
 40
27.14736953125
 41
0.0
 71
               1
 72
               1
  1
ＥＳＷベンチ
  7
_______
  0
LINE
  5
1C8
100
AcDbEntity
  8
IMPORTED
  6
CONTINUOUS
 62
              30
100
AcDbLine
 10
-844.34130000000027
 20
-1368.889533333333
 30
0.0
 11
3055.6587
 21
-1368.889533333333
 31
0.0
  0
MTEXT
  5
1C9
100
AcDbEntity
  8
IMPORTED
 62
              30
100
AcDbMText
 10
2296.6888333333327
 20
-1413.2148989583332
 30
0.0
 40
48.865234374999993
 41
0.0
 71
               1
 72
               1
  1
イー・トップ株式会社
  7
_______
  0
MTEXT
  5
1CA
100
AcDbEntity
  8
IMPORTED
 62
              30
100
AcDbMText
 10
2614.1551666666664
 20
1110.5053948645832
 30
0.0
 40
27.14736953125
 41
0.0
 71
               1
 72
               1
  1
ＥＩＮスーパーウッド
  7
_______
  0
LINE
  5
1CB
100
AcDbEntity
  8
IMPORTED
  6
CONTINUOUS
 62
              30
100
AcDbLine
 10
3055.6586333333325
 20
1141.1103999999998
 30
0.0
 11
2305.658633333333
 21
1141.1103999999998
 31
0.0
  0
LINE
  5
1CC
100
AcDbEntity
  8
IMPORTED
  6
CONTINUOUS
 62
              30
100
AcDbLine
 10
3055.6586333333325
 20
1051.1103999999998
 30
0.0
 11
2305.658633333333
 21
1051.1103999999998
 31
0.0
  0
LINE
  5
1CD
100
AcDbEntity
  8
IMPORTED
  6
CONTINUOUS
 62
              30
100
AcDbLine
 10
3055.6586333333325
 20
961.1103999999998
 30
0.0
 11
2305.658633333333
 21
961.1103999999998
 31
0.0
  0
LINE
  5
1CE
100
AcDbEntity
  8
IMPORTED
  6
CONTINUOUS
 62
              30
100
AcDbLine
 10
3055.6586333333325
 20
871.1103999999998
 30
0.0
 11
2305.658633333333
 21
871.1103999999998
 31
0.0
  0
LINE
  5
1CF
100
AcDbEntity
  8
IMPORTED
  6
CONTINUOUS
 62
              30
100
AcDbLine
 10
3055.6586333333325
 20
781.11040000000003
 30
0.0
 11
2305.658633333333
 21
781.11040000000003
 31
0.0
  0
LINE
  5
1D0
100
AcDbEntity
  8
IMPORTED
  6
CONTINUOUS
 62
              30
100
AcDbLine
 10
2505.6586333333325
 20
1231.1104
 30
0.0
 11
2505.6586333333325
 21
781.11040000000003
 31
0.0
  0
LINE
  5
1D1
100
AcDbEntity
  8
IMPORTED
  6
CONTINUOUS
 62
              30
100
AcDbLine
 10
2305.658633333333
 20
1231.1104
 30
0.0
 11
2305.658633333333
 21
781.11040000000003
 31
0.0
  0
MTEXT
  5
1D2
100
AcDbEntity
  8
IMPORTED
 62
              30
100
AcDbMText
 10
2731.0786333333326
 20
932.91886153124983
 30
0.0
 40
27.14736953125
 41
0.0
 71
               1
 72
               1
  1
R1500
  7
_______
  0
MTEXT
  5
1D3
100
AcDbEntity
  8
IMPORTED
 62
              30
100
AcDbMText
 10
2334.5266333333329
 20
930.97986153124975
 30
0.0
 40
27.14736953125
 41
0.0
 71
               1
 72
               1
  1
規格寸法
  7
_______
  0
MTEXT
  5
1D4
100
AcDbEntity
  8
IMPORTED
 62
              30
100
AcDbMText
 10
2736.0331666666661
 20
1023.5813948645832
 30
0.0
 40
27.14736953125
 41
0.0
 71
               1
 72
               1
  1
B-070
  7
_______
  0
MTEXT
  5
1D5
100
AcDbEntity
  8
IMPORTED
 62
              30
100
AcDbMText
 10
2737.4641666666666
 20
840.97986153124998
 30
0.0
 40
27.14736953125
 41
0.0
 71
               1
 72
               1
  1
1：10(A3)
  7
_______
  0
MTEXT
  5
1D6
100
AcDbEntity
  8
IMPORTED
 62
              30
100
AcDbMText
 10
2144.0508725784366
 20
-1090.2395118742379
 30
0.0
 40
48.865234375
 41
0.0
 71
               1
 72
               1
  1
A-A'部断面図
  7
_______
  0
POLYLINE
  5
1D7
100
AcDbEntity
  8
IMPORTED
  6
CONTINUOUS
 62
              30
100
AcDb2dPolyline
 66
               1
 10
0.0
 20
0.0
 30
0.0
 70
             129
  0
VERTEX
  5
1D8
100
AcDbEntity
  8
IMPORTED
  6
CONTINUOUS
 62
              30
100
AcDbVertex
100
AcDb2dVertex
 10
2094.0812999999998
 20
-1067.05105
 30
0.0
  0
VERTEX
  5
1D9
100
AcDbEntity
  8
IMPORTED
  6
CONTINUOUS
 62
              30
100
AcDbVertex
100
AcDb2dVertex
 10
2571.9824999999996
 20
-1067.05105
 30
0.0
  0
VERTEX
  5
1DA
100
AcDbEntity
  8
IMPORTED
  6
CONTINUOUS
 62
              30
100
AcDbVertex
100
AcDb2dVertex
 10
2571.9824999999996
 20
-1167.05105
 30
0.0
  0
VERTEX
  5
1DB
100
AcDbEntity
  8
IMPORTED
  6
CONTINUOUS
 62
              30
100
AcDbVertex
100
AcDb2dVertex
 10
2094.0812999999998
 20
-1167.05105
 30
0.0
  0
VERTEX
  5
1DC
100
AcDbEntity
  8
IMPORTED
  6
CONTINUOUS
 62
              30
100
AcDbVertex
100
AcDb2dVertex
 10
2094.0812999999998
 20
-1067.05105
 30
0.0
  0
SEQEND
  5
1DD
100
AcDbEntity
  8
IMPORTED
  6
CONTINUOUS
 62
              30
  0
LINE
  5
1DE
100
AcDbEntity
  8
IMPORTED
  6
CONTINUOUS
 62
               1
100
AcDbLine
 10
1594.0
 20
159.11299999999991
 30
0.0
 11
2014.9445999999998
 21
159.11299999999991
 31
0.0
  0
MTEXT
  5
1DF
100
AcDbEntity
  8
IMPORTED
 62
               1
100
AcDbMText
 10
1808.3249397656114
 20
-216.16084304688869
 30
0.0
 40
24.4326171875
 41
0.0
 71
               1
 72
               1
  1
コンクリート脚\P楕円形
  7
_______
  0
LINE
  5
1E0
100
AcDbEntity
  8
IMPORTED
  6
CONTINUOUS
 62
               1
100
AcDbLine
 10
1802.0
 20
-247.9316
 30
0.0
 11
2033.9549999999997
 21
-247.9316
 31
0.0
  0
MTEXT
  5
1E1
100
AcDbEntity
  8
IMPORTED
 62
               1
100
AcDbMText
 10
1671.6070999999997
 20
-701.55755375982369
 30
0.0
 40
24.4326171875
 41
0.0
 71
               1
 72
               1
  1
均しコンクリート
  7
_______
  0
MTEXT
  5
1E2
100
AcDbEntity
  8
IMPORTED
 62
               1
100
AcDbMText
 10
1639.5480645263378
 20
-787.69535375982366
 30
0.0
 40
24.4326171875
 41
0.0
 71
               1
 72
               1
  1
再生クラッシャラン
  7
_______
  0
MTEXT
  5
1E3
100
AcDbEntity
  8
IMPORTED
 62
               1
100
AcDbMText
 10
1671.0837999999997
 20
-590.39777149665531
 30
0.0
 40
24.4326171875
 41
0.0
 71
               1
 72
               1
  1
基礎コンクリート
  7
_______
  0
LINE
  5
1E4
100
AcDbEntity
  8
IMPORTED
  6
CONTINUOUS
 62
              30
100
AcDbLine
 10
2395.4549999999995
 20
-24.747400000000042
 30
0.0
 11
2395.4549999999995
 21
-544.74740000000008
 31
0.0
  0
LINE
  5
1E5
100
AcDbEntity
  8
IMPORTED
  6
CONTINUOUS
 62
              30
100
AcDbLine
 10
2409.9549999999995
 20
-24.747400000000042
 30
0.0
 11
2409.9549999999995
 21
-544.74740000000008
 31
0.0
  0
LINE
  5
1E6
100
AcDbEntity
  8
IMPORTED
  6
CONTINUOUS
 62
              30
100
AcDbLine
 10
2423.9549999999995
 20
-24.747400000000042
 30
0.0
 11
2423.9549999999995
 21
-544.74740000000008
 31
0.0
  0
LINE
  5
1E7
100
AcDbEntity
  8
IMPORTED
  6
CONTINUOUS
 62
              30
100
AcDbLine
 10
2436.9549999999995
 20
-24.747400000000042
 30
0.0
 11
2436.9549999999995
 21
-544.74740000000008
 31
0.0
  0
LINE
  5
1E8
100
AcDbEntity
  8
IMPORTED
  6
CONTINUOUS
 62
              30
100
AcDbLine
 10
2448.4549999999995
 20
-24.747400000000042
 30
0.0
 11
2448.4549999999995
 21
-544.74740000000008
 31
0.0
  0
LINE
  5
1E9
100
AcDbEntity
  8
IMPORTED
  6
CONTINUOUS
 62
              30
100
AcDbLine
 10
2457.4549999999995
 20
-24.747400000000042
 30
0.0
 11
2457.4549999999995
 21
-544.74740000000008
 31
0.0
  0
LINE
  5
1EA
100
AcDbEntity
  8
IMPORTED
  6
CONTINUOUS
 62
              30
100
AcDbLine
 10
2464.4549999999995
 20
-24.747400000000042
 30
0.0
 11
2464.4549999999995
 21
-544.74740000000008
 31
0.0
  0
LINE
  5
1EB
100
AcDbEntity
  8
IMPORTED
  6
CONTINUOUS
 62
              30
100
AcDbLine
 10
2468.9549999999995
 20
-24.747400000000042
 30
0.0
 11
2468.9549999999995
 21
-544.74740000000008
 31
0.0
  0
LINE
  5
1EC
100
AcDbEntity
  8
IMPORTED
  6
CONTINUOUS
 62
              30
100
AcDbLine
 10
2203.4549999999999
 20
-24.747400000000042
 30
0.0
 11
2203.4549999999999
 21
-544.74740000000008
 31
0.0
  0
LINE
  5
1ED
100
AcDbEntity
  8
IMPORTED
  6
CONTINUOUS
 62
              30
100
AcDbLine
 10
2196.4549999999999
 20
-24.747400000000042
 30
0.0
 11
2196.4549999999999
 21
-544.74740000000008
 31
0.0
  0
LINE
  5
1EE
100
AcDbEntity
  8
IMPORTED
  6
CONTINUOUS
 62
              30
100
AcDbLine
 10
2191.9549999999999
 20
-24.747400000000042
 30
0.0
 11
2191.9549999999999
 21
-544.74740000000008
 31
0.0
  0
LINE
  5
1EF
100
AcDbEntity
  8
IMPORTED
  6
CONTINUOUS
 62
              30
100
AcDbLine
 10
2265.4549999999999
 20
-24.747400000000042
 30
0.0
 11
2265.4549999999999
 21
-544.74740000000008
 31
0.0
  0
LINE
  5
1F0
100
AcDbEntity
  8
IMPORTED
  6
CONTINUOUS
 62
              30
100
AcDbLine
 10
2250.9549999999999
 20
-24.747400000000042
 30
0.0
 11
2250.9549999999999
 21
-544.74740000000008
 31
0.0
  0
LINE
  5
1F1
100
AcDbEntity
  8
IMPORTED
  6
CONTINUOUS
 62
              30
100
AcDbLine
 10
2236.9549999999999
 20
-24.747400000000042
 30
0.0
 11
2236.9549999999999
 21
-544.74740000000008
 31
0.0
  0
LINE
  5
1F2
100
AcDbEntity
  8
IMPORTED
  6
CONTINUOUS
 62
              30
100
AcDbLine
 10
2223.9549999999999
 20
-24.747400000000042
 30
0.0
 11
2223.9549999999999
 21
-544.74740000000008
 31
0.0
  0
LINE
  5
1F3
100
AcDbEntity
  8
IMPORTED
  6
CONTINUOUS
 62
              30
100
AcDbLine
 10
2212.4549999999999
 20
-24.747400000000042
 30
0.0
 11
2212.4549999999999
 21
-544.74740000000008
 31
0.0
  0
POLYLINE
  5
1F4
100
AcDbEntity
  8
IMPORTED
  6
CONTINUOUS
 62
              30
100
AcDb2dPolyline
 66
               1
 10
0.0
 20
0.0
 30
0.0
 70
             129
  0
VERTEX
  5
1F5
100
AcDbEntity
  8
IMPORTED
  6
CONTINUOUS
 62
              30
100
AcDbVertex
100
AcDb2dVertex
 10
2190.4549999999995
 20
-24.747400000000042
 30
0.0
  0
VERTEX
  5
1F6
100
AcDbEntity
  8
IMPORTED
  6
CONTINUOUS
 62
              30
100
AcDbVertex
100
AcDb2dVertex
 10
2470.4549999999995
 20
-24.747400000000042
 30
0.0
  0
VERTEX
  5
1F7
100
AcDbEntity
  8
IMPORTED
  6
CONTINUOUS
 62
              30
100
AcDbVertex
100
AcDb2dVertex
 10
2470.4549999999995
 20
-544.74740000000008
 30
0.0
  0
VERTEX
  5
1F8
100
AcDbEntity
  8
IMPORTED
  6
CONTINUOUS
 62
              30
100
AcDbVertex
100
AcDb2dVertex
 10
2190.4549999999995
 20
-544.74740000000008
 30
0.0
  0
VERTEX
  5
1F9
100
AcDbEntity
  8
IMPORTED
  6
CONTINUOUS
 62
              30
100
AcDbVertex
100
AcDb2dVertex
 10
2190.4549999999995
 20
-24.747400000000042
 30
0.0
  0
SEQEND
  5
1FA
100
AcDbEntity
  8
IMPORTED
  6
CONTINUOUS
 62
              30
  0
LINE
  5
1FB
100
AcDbEntity
  8
IMPORTED
  6
CONTINUOUS
 62
              30
100
AcDbLine
 10
2361.5781999999995
 20
-544.74730000000011
 30
0.0
 11
2403.3397999999997
 21
-594.74730000000011
 31
0.0
  0
LINE
  5
1FC
100
AcDbEntity
  8
IMPORTED
  6
CONTINUOUS
 62
              30
100
AcDbLine
 10
2369.0781999999995
 20
-694.7473
 30
0.0
 11
2320.8315999999995
 21
-594.74730000000011
 31
0.0
  0
POLYLINE
  5
1FD
100
AcDbEntity
  8
IMPORTED
  6
CONTINUOUS
 62
              30
100
AcDb2dPolyline
 66
               1
 10
0.0
 20
0.0
 30
0.0
 70
             129
  0
VERTEX
  5
1FE
100
AcDbEntity
  8
IMPORTED
  6
CONTINUOUS
 62
              30
100
AcDbVertex
100
AcDb2dVertex
 10
2039.0781999999997
 20
-544.74730000000011
 30
0.0
  0
VERTEX
  5
1FF
100
AcDbEntity
  8
IMPORTED
  6
CONTINUOUS
 62
              30
100
AcDbVertex
100
AcDb2dVertex
 10
2639.0781999999995
 20
-544.74730000000011
 30
0.0
  0
VERTEX
  5
200
100
AcDbEntity
  8
IMPORTED
  6
CONTINUOUS
 62
              30
100
AcDbVertex
100
AcDb2dVertex
 10
2639.0781999999995
 20
-594.74730000000011
 30
0.0
  0
VERTEX
  5
201
100
AcDbEntity
  8
IMPORTED
  6
CONTINUOUS
 62
              30
100
AcDbVertex
100
AcDb2dVertex
 10
2039.0781999999997
 20
-594.74730000000011
 30
0.0
  0
VERTEX
  5
202
100
AcDbEntity
  8
IMPORTED
  6
CONTINUOUS
 62
              30
100
AcDbVertex
100
AcDb2dVertex
 10
2039.0781999999997
 20
-544.74730000000011
 30
0.0
  0
SEQEND
  5
203
100
AcDbEntity
  8
IMPORTED
  6
CONTINUOUS
 62
              30
  0
POLYLINE
  5
204
100
AcDbEntity
  8
IMPORTED
  6
CONTINUOUS
 62
              30
100
AcDb2dPolyline
 66
               1
 10
0.0
 20
0.0
 30
0.0
 70
             129
  0
VERTEX
  5
205
100
AcDbEntity
  8
IMPORTED
  6
CONTINUOUS
 62
              30
100
AcDbVertex
100
AcDb2dVertex
 10
2089.0781999999999
 20
-394.74730000000011
 30
0.0
  0
VERTEX
  5
206
100
AcDbEntity
  8
IMPORTED
  6
CONTINUOUS
 62
              30
100
AcDbVertex
100
AcDb2dVertex
 10
2589.0781999999995
 20
-394.74730000000011
 30
0.0
  0
VERTEX
  5
207
100
AcDbEntity
  8
IMPORTED
  6
CONTINUOUS
 62
              30
100
AcDbVertex
100
AcDb2dVertex
 10
2589.0781999999995
 20
-544.74730000000011
 30
0.0
  0
VERTEX
  5
208
100
AcDbEntity
  8
IMPORTED
  6
CONTINUOUS
 62
              30
100
AcDbVertex
100
AcDb2dVertex
 10
2089.0781999999999
 20
-544.74730000000011
 30
0.0
  0
VERTEX
  5
209
100
AcDbEntity
  8
IMPORTED
  6
CONTINUOUS
 62
              30
100
AcDbVertex
100
AcDb2dVertex
 10
2089.0781999999999
 20
-394.74730000000011
 30
0.0
  0
SEQEND
  5
20A
100
AcDbEntity
  8
IMPORTED
  6
CONTINUOUS
 62
              30
  0
POLYLINE
  5
20B
100
AcDbEntity
  8
IMPORTED
  6
CONTINUOUS
 62
              30
100
AcDb2dPolyline
 66
               1
 10
0.0
 20
0.0
 30
0.0
 70
             129
  0
VERTEX
  5
20C
100
AcDbEntity
  8
IMPORTED
  6
CONTINUOUS
 62
              30
100
AcDbVertex
100
AcDb2dVertex
 10
2039.0781999999997
 20
-594.74730000000011
 30
0.0
  0
VERTEX
  5
20D
100
AcDbEntity
  8
IMPORTED
  6
CONTINUOUS
 62
              30
100
AcDbVertex
100
AcDb2dVertex
 10
2639.0781999999995
 20
-594.74730000000011
 30
0.0
  0
VERTEX
  5
20E
100
AcDbEntity
  8
IMPORTED
  6
CONTINUOUS
 62
              30
100
AcDbVertex
100
AcDb2dVertex
 10
2639.0781999999995
 20
-694.7473
 30
0.0
  0
VERTEX
  5
20F
100
AcDbEntity
  8
IMPORTED
  6
CONTINUOUS
 62
              30
100
AcDbVertex
100
AcDb2dVertex
 10
2039.0781999999997
 20
-694.7473
 30
0.0
  0
VERTEX
  5
210
100
AcDbEntity
  8
IMPORTED
  6
CONTINUOUS
 62
              30
100
AcDbVertex
100
AcDb2dVertex
 10
2039.0781999999997
 20
-594.74730000000011
 30
0.0
  0
SEQEND
  5
211
100
AcDbEntity
  8
IMPORTED
  6
CONTINUOUS
 62
              30
  0
LINE
  5
212
100
AcDbEntity
  8
IMPORTED
  6
CONTINUOUS
 62
              30
100
AcDbLine
 10
2089.0781999999999
 20
-445.19100000000003
 30
0.0
 11
2139.5217999999995
 21
-394.74740000000008
 31
0.0
  0
LINE
  5
213
100
AcDbEntity
  8
IMPORTED
  6
CONTINUOUS
 62
              30
100
AcDbLine
 10
2129.0780999999997
 20
-694.7473
 30
0.0
 11
2080.8315999999995
 21
-594.74730000000011
 31
0.0
  0
LINE
  5
214
100
AcDbEntity
  8
IMPORTED
  6
CONTINUOUS
 62
              30
100
AcDbLine
 10
2117.0165999999999
 20
-669.74720000000002
 30
0.0
 11
2104.9547999999995
 21
-694.74739999999997
 31
0.0
  0
LINE
  5
215
100
AcDbEntity
  8
IMPORTED
  6
CONTINUOUS
 62
              30
100
AcDbLine
 10
2061.5780999999997
 20
-544.74730000000011
 30
0.0
 11
2103.3398999999999
 21
-594.74730000000011
 31
0.0
  0
LINE
  5
216
100
AcDbEntity
  8
IMPORTED
  6
CONTINUOUS
 62
              30
100
AcDbLine
 10
2092.8933999999999
 20
-619.74730000000011
 30
0.0
 11
2104.9549999999999
 21
-594.74730000000011
 31
0.0
  0
LINE
  5
217
100
AcDbEntity
  8
IMPORTED
  6
CONTINUOUS
 62
              30
100
AcDbLine
 10
2073.3901999999998
 20
-544.74730000000011
 30
0.0
 11
2115.1519999999996
 21
-594.74730000000011
 31
0.0
  0
LINE
  5
218
100
AcDbEntity
  8
IMPORTED
  6
CONTINUOUS
 62
              30
100
AcDbLine
 10
2089.0781999999999
 20
-430.34140000000014
 30
0.0
 11
2124.6722
 21
-394.74740000000008
 31
0.0
  0
LINE
  5
219
100
AcDbEntity
  8
IMPORTED
  6
CONTINUOUS
 62
              30
100
AcDbLine
 10
2089.0781999999999
 20
-415.49220000000003
 30
0.0
 11
2109.8229999999994
 21
-394.74740000000008
 31
0.0
  0
LINE
  5
21A
100
AcDbEntity
  8
IMPORTED
  6
CONTINUOUS
 62
              30
100
AcDbLine
 10
2171.9549999999999
 20
-544.74730000000011
 30
0.0
 11
2321.9549999999995
 21
-394.74730000000011
 31
0.0
  0
LINE
  5
21B
100
AcDbEntity
  8
IMPORTED
  6
CONTINUOUS
 62
              30
100
AcDbLine
 10
2201.6533999999997
 20
-544.74730000000011
 30
0.0
 11
2351.6533999999997
 21
-394.74730000000011
 31
0.0
  0
LINE
  5
21C
100
AcDbEntity
  8
IMPORTED
  6
CONTINUOUS
 62
              30
100
AcDbLine
 10
2186.8041999999996
 20
-544.74730000000011
 30
0.0
 11
2336.8041999999996
 21
-394.74730000000011
 31
0.0
  0
LINE
  5
21D
100
AcDbEntity
  8
IMPORTED
  6
CONTINUOUS
 62
              30
100
AcDbLine
 10
2223.3901999999998
 20
-544.74730000000011
 30
0.0
 11
2265.1519999999996
 21
-594.74730000000011
 31
0.0
  0
LINE
  5
21E
100
AcDbEntity
  8
IMPORTED
  6
CONTINUOUS
 62
              30
100
AcDbLine
 10
2211.5780999999997
 20
-544.74730000000011
 30
0.0
 11
2253.3398999999999
 21
-594.74730000000011
 31
0.0
  0
LINE
  5
21F
100
AcDbEntity
  8
IMPORTED
  6
CONTINUOUS
 62
              30
100
AcDbLine
 10
2289.0781999999999
 20
-694.7473
 30
0.0
 11
2240.8315999999995
 21
-594.74730000000011
 31
0.0
  0
LINE
  5
220
100
AcDbEntity
  8
IMPORTED
  6
CONTINUOUS
 62
              30
100
AcDbLine
 10
2209.0780999999997
 20
-694.7473
 30
0.0
 11
2160.8316999999997
 21
-594.74730000000011
 31
0.0
  0
LINE
  5
221
100
AcDbEntity
  8
IMPORTED
  6
CONTINUOUS
 62
              30
100
AcDbLine
 10
2197.0165999999999
 20
-669.74720000000002
 30
0.0
 11
2184.9547999999995
 21
-694.74739999999997
 31
0.0
  0
LINE
  5
222
100
AcDbEntity
  8
IMPORTED
  6
CONTINUOUS
 62
              30
100
AcDbLine
 10
2172.8933999999999
 20
-619.74730000000011
 30
0.0
 11
2184.9549999999999
 21
-594.74730000000011
 31
0.0
  0
LINE
  5
223
100
AcDbEntity
  8
IMPORTED
  6
CONTINUOUS
 62
              30
100
AcDbLine
 10
2277.0165999999999
 20
-669.74720000000002
 30
0.0
 11
2264.9547999999995
 21
-694.74739999999997
 31
0.0
  0
LINE
  5
224
100
AcDbEntity
  8
IMPORTED
  6
CONTINUOUS
 62
              30
100
AcDbLine
 10
2357.0165999999995
 20
-669.74720000000002
 30
0.0
 11
2344.9547999999995
 21
-694.74739999999997
 31
0.0
  0
LINE
  5
225
100
AcDbEntity
  8
IMPORTED
  6
CONTINUOUS
 62
              30
100
AcDbLine
 10
2252.8933999999999
 20
-619.74730000000011
 30
0.0
 11
2264.9549999999999
 21
-594.74730000000011
 31
0.0
  0
LINE
  5
226
100
AcDbEntity
  8
IMPORTED
  6
CONTINUOUS
 62
              30
100
AcDbLine
 10
2332.8933999999995
 20
-619.74730000000011
 30
0.0
 11
2344.9549999999995
 21
-594.74730000000011
 31
0.0
  0
LINE
  5
227
100
AcDbEntity
  8
IMPORTED
  6
CONTINUOUS
 62
              30
100
AcDbLine
 10
2609.0781999999995
 20
-694.7473
 30
0.0
 11
2560.8315999999995
 21
-594.74730000000011
 31
0.0
  0
LINE
  5
228
100
AcDbEntity
  8
IMPORTED
  6
CONTINUOUS
 62
              30
100
AcDbLine
 10
2413.7849999999999
 20
-544.74730000000011
 30
0.0
 11
2563.7849999999999
 21
-394.74730000000011
 31
0.0
  0
LINE
  5
229
100
AcDbEntity
  8
IMPORTED
  6
CONTINUOUS
 62
              30
100
AcDbLine
 10
2398.9361999999996
 20
-544.74730000000011
 30
0.0
 11
2548.9361999999996
 21
-394.74730000000011
 31
0.0
  0
LINE
  5
22A
100
AcDbEntity
  8
IMPORTED
  6
CONTINUOUS
 62
              30
100
AcDbLine
 10
2384.0869999999995
 20
-544.74730000000011
 30
0.0
 11
2534.0869999999995
 21
-394.74730000000011
 31
0.0
  0
LINE
  5
22B
100
AcDbEntity
  8
IMPORTED
  6
CONTINUOUS
 62
              30
100
AcDbLine
 10
2529.0781999999995
 20
-694.7473
 30
0.0
 11
2480.8315999999995
 21
-594.74730000000011
 31
0.0
  0
LINE
  5
22C
100
AcDbEntity
  8
IMPORTED
  6
CONTINUOUS
 62
              30
100
AcDbLine
 10
2449.0781999999995
 20
-694.7473
 30
0.0
 11
2400.8315999999995
 21
-594.74730000000011
 31
0.0
  0
LINE
  5
22D
100
AcDbEntity
  8
IMPORTED
  6
CONTINUOUS
 62
              30
100
AcDbLine
 10
2437.0165999999995
 20
-669.74720000000002
 30
0.0
 11
2424.9547999999995
 21
-694.74739999999997
 31
0.0
  0
LINE
  5
22E
100
AcDbEntity
  8
IMPORTED
  6
CONTINUOUS
 62
              30
100
AcDbLine
 10
2412.8933999999995
 20
-619.74730000000011
 30
0.0
 11
2424.9549999999995
 21
-594.74730000000011
 31
0.0
  0
LINE
  5
22F
100
AcDbEntity
  8
IMPORTED
  6
CONTINUOUS
 62
              30
100
AcDbLine
 10
2373.3902999999996
 20
-544.74730000000011
 30
0.0
 11
2415.1518999999998
 21
-594.74730000000011
 31
0.0
  0
LINE
  5
230
100
AcDbEntity
  8
IMPORTED
  6
CONTINUOUS
 62
              30
100
AcDbLine
 10
2517.0165999999995
 20
-669.74720000000002
 30
0.0
 11
2504.9547999999995
 21
-694.74739999999997
 31
0.0
  0
LINE
  5
231
100
AcDbEntity
  8
IMPORTED
  6
CONTINUOUS
 62
              30
100
AcDbLine
 10
2597.0165999999995
 20
-669.74720000000002
 30
0.0
 11
2584.9547999999995
 21
-694.74739999999997
 31
0.0
  0
LINE
  5
232
100
AcDbEntity
  8
IMPORTED
  6
CONTINUOUS
 62
              30
100
AcDbLine
 10
2511.5781999999995
 20
-544.74730000000011
 30
0.0
 11
2553.3397999999997
 21
-594.74730000000011
 31
0.0
  0
LINE
  5
233
100
AcDbEntity
  8
IMPORTED
  6
CONTINUOUS
 62
              30
100
AcDbLine
 10
2523.3901999999998
 20
-544.74730000000011
 30
0.0
 11
2565.1519999999996
 21
-594.74730000000011
 31
0.0
  0
LINE
  5
234
100
AcDbEntity
  8
IMPORTED
  6
CONTINUOUS
 62
              30
100
AcDbLine
 10
2492.8933999999995
 20
-619.74730000000011
 30
0.0
 11
2504.9549999999995
 21
-594.74730000000011
 31
0.0
  0
LINE
  5
235
100
AcDbEntity
  8
IMPORTED
  6
CONTINUOUS
 62
              30
100
AcDbLine
 10
2572.8933999999995
 20
-619.74730000000011
 30
0.0
 11
2584.9549999999995
 21
-594.74730000000011
 31
0.0
  0
LINE
  5
236
100
AcDbEntity
  8
IMPORTED
  6
CONTINUOUS
 62
              30
100
AcDbLine
 10
2000.4548999999997
 20
-344.74740000000008
 30
0.0
 11
2690.0334999999995
 21
-344.74740000000008
 31
0.0
  0
LINE
  5
237
100
AcDbEntity
  8
IMPORTED
  6
CONTINUOUS
 62
               1
100
AcDbLine
 10
2033.9549999999997
 20
-247.93170000000001
 30
0.0
 11
2219.2609999999995
 21
-140.9451
 31
0.0
  0
LINE
  5
238
100
AcDbEntity
  8
IMPORTED
  6
CONTINUOUS
 62
               1
100
AcDbLine
 10
2014.9445999999998
 20
159.11299999999991
 30
0.0
 11
2130.3049999999998
 21
43.752599999999887
 31
0.0
  0
MTEXT
  5
239
100
AcDbEntity
  8
IMPORTED
 62
              30
100
AcDbMText
 10
2570.0334999999995
 20
-288.42847421875013
 30
0.0
 40
36.64892578125
 41
0.0
 71
               1
 72
               1
  1
▽GL
  7
_______
  0
ARC
  5
23A
100
AcDbEntity
  8
IMPORTED
  6
STYLE_05
 62
              30
100
AcDbCircle
 10
-476.14516763302231
 20
-715.24759498998014
 30
0.0
 40
1125.000017868462
100
AcDbArc
 50
26.597916456989722
 51
89.490717821367241
  0
ARC
  5
23B
100
AcDbEntity
  8
IMPORTED
  6
STYLE_05
 62
              30
100
AcDbCircle
 10
-476.14516763302231
 20
-715.24759498998014
 30
0.0
 40
1175.0000268487483
100
AcDbArc
 50
26.592331426588501
 51
89.512385066943807
  0
ARC
  5
23C
100
AcDbEntity
  8
IMPORTED
  6
STYLE_05
 62
              30
100
AcDbCircle
 10
-476.14516763302231
 20
-715.24759498998014
 30
0.0
 40
1375.0001211790818
100
AcDbArc
 50
26.574767732511553
 51
89.583003920986869
  0
ARC
  5
23D
100
AcDbEntity
  8
IMPORTED
  6
STYLE_05
 62
              30
100
AcDbCircle
 10
-476.14516763302231
 20
-715.24759498998014
 30
0.0
 40
1424.9999763481578
100
AcDbArc
 50
26.571112684382186
 51
89.597929063879889
  0
POLYLINE
  5
23E
100
AcDbEntity
  8
IMPORTED
  6
CONTINUOUS
 62
              30
100
AcDb2dPolyline
 66
               1
 10
0.0
 20
0.0
 30
0.0
 70
             129
  0
VERTEX
  5
23F
100
AcDbEntity
  8
IMPORTED
  6
CONTINUOUS
 62
              30
100
AcDbVertex
100
AcDb2dVertex
 10
-467.9223676330223
 20
334.48480501001973
 30
0.0
  0
VERTEX
  5
240
100
AcDbEntity
  8
IMPORTED
  6
CONTINUOUS
 62
              30
100
AcDbVertex
100
AcDb2dVertex
 10
-387.47606763302224
 20
330.76550501001975
 30
0.0
  0
VERTEX
  5
241
100
AcDbEntity
  8
IMPORTED
  6
CONTINUOUS
 62
              30
100
AcDbVertex
100
AcDb2dVertex
 10
-387.47606763302224
 20
330.76550501001975
 30
0.0
 42
0.4007430666585028
 70
               2
 50
1239.243182741754
  0
VERTEX
  5
242
100
AcDbEntity
  8
IMPORTED
  6
CONTINUOUS
 62
              30
100
AcDbVertex
100
AcDb2dVertex
 10
-381.22446763302219
 20
336.20550501001981
 30
0.0
  0
VERTEX
  5
243
100
AcDbEntity
  8
IMPORTED
  6
CONTINUOUS
 62
              30
100
AcDbVertex
100
AcDb2dVertex
 10
-381.22446763302219
 20
336.20550501001981
 30
0.0
  0
VERTEX
  5
244
100
AcDbEntity
  8
IMPORTED
  6
CONTINUOUS
 62
              30
100
AcDbVertex
100
AcDb2dVertex
 10
-340.81206763302248
 20
772.32530501001975
 30
0.0
  0
VERTEX
  5
245
100
AcDbEntity
  8
IMPORTED
  6
CONTINUOUS
 62
              30
100
AcDbVertex
100
AcDb2dVertex
 10
-340.81206032133946
 20
772.32538392877143
 30
0.0
 42
0.4278067031305377
 70
               2
 50
-5.3083527862785482
  0
VERTEX
  5
246
100
AcDbEntity
  8
IMPORTED
  6
CONTINUOUS
 62
              30
100
AcDbVertex
100
AcDb2dVertex
 10
-346.50938056324367
 20
778.87250098464972
 30
0.0
  0
VERTEX
  5
247
100
AcDbEntity
  8
IMPORTED
  6
CONTINUOUS
 62
              30
100
AcDbVertex
100
AcDb2dVertex
 10
-346.5094676330225
 20
778.87250501001972
 30
0.0
  0
VERTEX
  5
248
100
AcDbEntity
  8
IMPORTED
  6
CONTINUOUS
 62
              30
100
AcDbVertex
100
AcDb2dVertex
 10
-346.5094676330225
 20
778.87250501001972
 30
0.0
  0
VERTEX
  5
249
100
AcDbEntity
  8
IMPORTED
  6
CONTINUOUS
 62
              30
100
AcDbVertex
100
AcDb2dVertex
 10
-467.36816763302227
 20
784.46010501001979
 30
0.0
  0
VERTEX
  5
24A
100
AcDbEntity
  8
IMPORTED
  6
CONTINUOUS
 62
              30
100
AcDbVertex
100
AcDb2dVertex
 10
-467.36817435809621
 20
784.46010532093032
 30
0.0
 42
0.4278104846829856
 70
               2
 50
1239.3223210950348
  0
VERTEX
  5
24B
100
AcDbEntity
  8
IMPORTED
  6
CONTINUOUS
 62
              30
100
AcDbVertex
100
AcDb2dVertex
 10
-473.64526763302251
 20
778.46650712644055
 30
0.0
  0
VERTEX
  5
24C
100
AcDbEntity
  8
IMPORTED
  6
CONTINUOUS
 62
              30
100
AcDbVertex
100
AcDb2dVertex
 10
-473.64526763302251
 20
778.46650501001977
 30
0.0
  0
VERTEX
  5
24D
100
AcDbEntity
  8
IMPORTED
  6
CONTINUOUS
 62
              30
100
AcDbVertex
100
AcDb2dVertex
 10
-473.64526763302251
 20
778.46650501001977
 30
0.0
  0
VERTEX
  5
24E
100
AcDbEntity
  8
IMPORTED
  6
CONTINUOUS
 62
              30
100
AcDbVertex
100
AcDb2dVertex
 10
-473.64526763302251
 20
340.47840501001974
 30
0.0
  0
VERTEX
  5
24F
100
AcDbEntity
  8
IMPORTED
  6
CONTINUOUS
 62
              30
100
AcDbVertex
100
AcDb2dVertex
 10
-473.64526763302251
 20
340.47840289361591
 30
0.0
 42
0.4007450337363729
 70
               2
  0
VERTEX
  5
250
100
AcDbEntity
  8
IMPORTED
  6
CONTINUOUS
 62
              30
100
AcDbVertex
100
AcDb2dVertex
 10
-467.92238339725782
 20
334.48480573888389
 30
0.0
  0
VERTEX
  5
251
100
AcDbEntity
  8
IMPORTED
  6
CONTINUOUS
 62
              30
100
AcDbVertex
100
AcDb2dVertex
 10
-467.9223676330223
 20
334.48480501001973
 30
0.0
  0
SEQEND
  5
252
100
AcDbEntity
  8
IMPORTED
  6
CONTINUOUS
 62
              30
  0
POLYLINE
  5
253
100
AcDbEntity
  8
IMPORTED
  6
CONTINUOUS
 62
              30
100
AcDb2dPolyline
 66
               1
 10
0.0
 20
0.0
 30
0.0
 70
             129
  0
VERTEX
  5
254
100
AcDbEntity
  8
IMPORTED
  6
CONTINUOUS
 62
              30
100
AcDbVertex
100
AcDb2dVertex
 10
-371.10026763302244
 20
329.2481050100198
 30
0.0
  0
VERTEX
  5
255
100
AcDbEntity
  8
IMPORTED
  6
CONTINUOUS
 62
              30
100
AcDbVertex
100
AcDb2dVertex
 10
-291.34036763302242
 20
318.12210501001982
 30
0.0
  0
VERTEX
  5
256
100
AcDbEntity
  8
IMPORTED
  6
CONTINUOUS
 62
              30
100
AcDbVertex
100
AcDb2dVertex
 10
-291.34036763302242
 20
318.12210501001982
 30
0.0
 42
0.4007407710729832
 70
               2
 50
410.74160775127518
  0
VERTEX
  5
257
100
AcDbEntity
  8
IMPORTED
  6
CONTINUOUS
 62
              30
100
AcDbVertex
100
AcDb2dVertex
 10
-284.61356763302251
 20
322.96200501001977
 30
0.0
  0
VERTEX
  5
258
100
AcDbEntity
  8
IMPORTED
  6
CONTINUOUS
 62
              30
100
AcDbVertex
100
AcDb2dVertex
 10
-284.61356763302251
 20
322.96200501001977
 30
0.0
  0
VERTEX
  5
259
100
AcDbEntity
  8
IMPORTED
  6
CONTINUOUS
 62
              30
100
AcDbVertex
100
AcDb2dVertex
 10
-204.13336763302232
 20
753.49260501001982
 30
0.0
  0
VERTEX
  5
25A
100
AcDbEntity
  8
IMPORTED
  6
CONTINUOUS
 62
              30
100
AcDbVertex
100
AcDb2dVertex
 10
-204.13336763302232
 20
753.49260501001982
 30
0.0
 42
0.4278091296314312
 70
               2
 50
-10.710028983585156
  0
VERTEX
  5
25B
100
AcDbEntity
  8
IMPORTED
  6
CONTINUOUS
 62
              30
100
AcDbVertex
100
AcDb2dVertex
 10
-209.2022676330223
 20
760.53750501001969
 30
0.0
  0
VERTEX
  5
25C
100
AcDbEntity
  8
IMPORTED
  6
CONTINUOUS
 62
              30
100
AcDbVertex
100
AcDb2dVertex
 10
-209.2022676330223
 20
760.53750501001969
 30
0.0
  0
VERTEX
  5
25D
100
AcDbEntity
  8
IMPORTED
  6
CONTINUOUS
 62
              30
100
AcDbVertex
100
AcDb2dVertex
 10
-329.02986763302238
 20
777.25270501001978
 30
0.0
  0
VERTEX
  5
25E
100
AcDbEntity
  8
IMPORTED
  6
CONTINUOUS
 62
              30
100
AcDbVertex
100
AcDb2dVertex
 10
-329.02987342011102
 20
777.25270581733889
 30
0.0
 42
0.427808742142385
 70
               2
 50
410.71214443646022
  0
VERTEX
  5
25F
100
AcDbEntity
  8
IMPORTED
  6
CONTINUOUS
 62
              30
100
AcDbVertex
100
AcDb2dVertex
 10
-335.83326261803995
 20
771.86395912063676
 30
0.0
  0
VERTEX
  5
260
100
AcDbEntity
  8
IMPORTED
  6
CONTINUOUS
 62
              30
100
AcDbVertex
100
AcDb2dVertex
 10
-335.83326763302261
 20
771.86390501001983
 30
0.0
  0
VERTEX
  5
261
100
AcDbEntity
  8
IMPORTED
  6
CONTINUOUS
 62
              30
100
AcDbVertex
100
AcDb2dVertex
 10
-335.83326763302261
 20
771.86390501001983
 30
0.0
  0
VERTEX
  5
262
100
AcDbEntity
  8
IMPORTED
  6
CONTINUOUS
 62
              30
100
AcDbVertex
100
AcDb2dVertex
 10
-376.24576763302252
 20
335.74420501001987
 30
0.0
  0
VERTEX
  5
263
100
AcDbEntity
  8
IMPORTED
  6
CONTINUOUS
 62
              30
100
AcDbVertex
100
AcDb2dVertex
 10
-376.24577057401007
 20
335.74417327116623
 30
0.0
 42
0.4007454626772654
 70
               2
 50
-5.3091450847782102
  0
VERTEX
  5
264
100
AcDbEntity
  8
IMPORTED
  6
CONTINUOUS
 62
              30
100
AcDbVertex
100
AcDb2dVertex
 10
-371.10029954274523
 20
329.24810946121829
 30
0.0
  0
VERTEX
  5
265
100
AcDbEntity
  8
IMPORTED
  6
CONTINUOUS
 62
              30
100
AcDbVertex
100
AcDb2dVertex
 10
-371.10026763302244
 20
329.2481050100198
 30
0.0
  0
SEQEND
  5
266
100
AcDbEntity
  8
IMPORTED
  6
CONTINUOUS
 62
              30
  0
POLYLINE
  5
267
100
AcDbEntity
  8
IMPORTED
  6
CONTINUOUS
 62
              30
100
AcDb2dPolyline
 66
               1
 10
0.0
 20
0.0
 30
0.0
 70
             129
  0
VERTEX
  5
268
100
AcDbEntity
  8
IMPORTED
  6
CONTINUOUS
 62
              30
100
AcDbVertex
100
AcDb2dVertex
 10
-275.17436763302226
 20
315.10010501001966
 30
0.0
  0
VERTEX
  5
269
100
AcDbEntity
  8
IMPORTED
  6
CONTINUOUS
 62
              30
100
AcDbVertex
100
AcDb2dVertex
 10
-196.78126763302248
 20
296.66210501001979
 30
0.0
  0
VERTEX
  5
26A
100
AcDbEntity
  8
IMPORTED
  6
CONTINUOUS
 62
              30
100
AcDbVertex
100
AcDb2dVertex
 10
-196.78126763302248
 20
296.66210501001979
 30
0.0
 42
0.4007457115208469
 70
               2
 50
243.61627263539341
  0
VERTEX
  5
26B
100
AcDbEntity
  8
IMPORTED
  6
CONTINUOUS
 62
              30
100
AcDbVertex
100
AcDb2dVertex
 10
-189.6366676330224
 20
300.8608050100197
 30
0.0
  0
VERTEX
  5
26C
100
AcDbEntity
  8
IMPORTED
  6
CONTINUOUS
 62
              30
100
AcDbVertex
100
AcDb2dVertex
 10
-189.6366676330224
 20
300.8608050100197
 30
0.0
  0
VERTEX
  5
26D
100
AcDbEntity
  8
IMPORTED
  6
CONTINUOUS
 62
              30
100
AcDbVertex
100
AcDb2dVertex
 10
-69.77556763302232
 20
722.12900501001968
 30
0.0
  0
VERTEX
  5
26E
100
AcDbEntity
  8
IMPORTED
  6
CONTINUOUS
 62
              30
100
AcDbVertex
100
AcDb2dVertex
 10
-69.775562901784951
 20
722.12902163895978
 30
0.0
 42
0.4278083083050834
 70
               2
 50
-16.301696330297265
  0
VERTEX
  5
26F
100
AcDbEntity
  8
IMPORTED
  6
CONTINUOUS
 62
              30
100
AcDbVertex
100
AcDb2dVertex
 10
-74.17280650382304
 20
729.61159063238085
 30
0.0
  0
VERTEX
  5
270
100
AcDbEntity
  8
IMPORTED
  6
CONTINUOUS
 62
              30
100
AcDbVertex
100
AcDb2dVertex
 10
-74.172867633022406
 20
729.61160501001973
 30
0.0
  0
VERTEX
  5
271
100
AcDbEntity
  8
IMPORTED
  6
CONTINUOUS
 62
              30
100
AcDbVertex
100
AcDb2dVertex
 10
-74.172867633022406
 20
729.61160501001973
 30
0.0
  0
VERTEX
  5
272
100
AcDbEntity
  8
IMPORTED
  6
CONTINUOUS
 62
              30
100
AcDbVertex
100
AcDb2dVertex
 10
-191.94686763302229
 20
757.3119050100197
 30
0.0
  0
VERTEX
  5
273
100
AcDbEntity
  8
IMPORTED
  6
CONTINUOUS
 62
              30
100
AcDbVertex
100
AcDb2dVertex
 10
-191.9468892019911
 20
757.31191008270662
 30
0.0
 42
0.4278091426214606
 70
               2
 50
243.62057118282695
  0
VERTEX
  5
274
100
AcDbEntity
  8
IMPORTED
  6
CONTINUOUS
 62
              30
100
AcDbVertex
100
AcDb2dVertex
 10
-199.21836467538606
 20
752.57372083257997
 30
0.0
  0
VERTEX
  5
275
100
AcDbEntity
  8
IMPORTED
  6
CONTINUOUS
 62
              30
100
AcDbVertex
100
AcDb2dVertex
 10
-199.21836763302235
 20
752.57370501001969
 30
0.0
  0
VERTEX
  5
276
100
AcDbEntity
  8
IMPORTED
  6
CONTINUOUS
 62
              30
100
AcDbVertex
100
AcDb2dVertex
 10
-199.21836763302235
 20
752.57370501001969
 30
0.0
  0
VERTEX
  5
277
100
AcDbEntity
  8
IMPORTED
  6
CONTINUOUS
 62
              30
100
AcDbVertex
100
AcDb2dVertex
 10
-279.69856763302232
 20
322.04320501001985
 30
0.0
  0
VERTEX
  5
278
100
AcDbEntity
  8
IMPORTED
  6
CONTINUOUS
 62
              30
100
AcDbVertex
100
AcDb2dVertex
 10
-279.69856763302232
 20
322.04320501001985
 30
0.0
 42
0.4007495535552176
 70
               2
 50
-10.710337759641234
  0
VERTEX
  5
279
100
AcDbEntity
  8
IMPORTED
  6
CONTINUOUS
 62
              30
100
AcDbVertex
100
AcDb2dVertex
 10
-275.17436763302226
 20
315.10010501001966
 30
0.0
  0
SEQEND
  5
27A
100
AcDbEntity
  8
IMPORTED
  6
CONTINUOUS
 62
              30
  0
POLYLINE
  5
27B
100
AcDbEntity
  8
IMPORTED
  6
CONTINUOUS
 62
              30
100
AcDb2dPolyline
 66
               1
 10
0.0
 20
0.0
 30
0.0
 70
             129
  0
VERTEX
  5
27C
100
AcDbEntity
  8
IMPORTED
  6
CONTINUOUS
 62
              30
100
AcDbVertex
100
AcDb2dVertex
 10
-180.96326763302227
 20
292.16170501002
 30
0.0
  0
VERTEX
  5
27D
100
AcDbEntity
  8
IMPORTED
  6
CONTINUOUS
 62
              30
100
AcDbVertex
100
AcDb2dVertex
 10
-104.60566763302245
 20
266.56920501001991
 30
0.0
  0
VERTEX
  5
27E
100
AcDbEntity
  8
IMPORTED
  6
CONTINUOUS
 62
              30
100
AcDbVertex
100
AcDb2dVertex
 10
-104.60565392234685
 20
266.56920041497483
 30
0.0
 42
0.4007417743276662
 70
               2
 50
170.95889827799124
  0
VERTEX
  5
27F
100
AcDbEntity
  8
IMPORTED
  6
CONTINUOUS
 62
              30
100
AcDbVertex
100
AcDb2dVertex
 10
-97.104173436972133
 20
270.09079002800524
 30
0.0
  0
VERTEX
  5
280
100
AcDbEntity
  8
IMPORTED
  6
CONTINUOUS
 62
              30
100
AcDbVertex
100
AcDb2dVertex
 10
-97.104167633022371
 20
270.09080501001995
 30
0.0
  0
VERTEX
  5
281
100
AcDbEntity
  8
IMPORTED
  6
CONTINUOUS
 62
              30
100
AcDbVertex
100
AcDb2dVertex
 10
-97.104167633022371
 20
270.09080501001995
 30
0.0
  0
VERTEX
  5
282
100
AcDbEntity
  8
IMPORTED
  6
CONTINUOUS
 62
              30
100
AcDbVertex
100
AcDb2dVertex
 10
61.115332366977555
 20
678.50240501001963
 30
0.0
  0
VERTEX
  5
283
100
AcDbEntity
  8
IMPORTED
  6
CONTINUOUS
 62
              30
100
AcDbVertex
100
AcDb2dVertex
 10
61.115332366977555
 20
678.50240501001963
 30
0.0
 42
0.4278137352601402
 70
               2
 50
-22.196675398020322
  0
VERTEX
  5
284
100
AcDbEntity
  8
IMPORTED
  6
CONTINUOUS
 62
              30
100
AcDbVertex
100
AcDb2dVertex
 10
57.427232366977705
 20
686.35880501001975
 30
0.0
  0
VERTEX
  5
285
100
AcDbEntity
  8
IMPORTED
  6
CONTINUOUS
 62
              30
100
AcDbVertex
100
AcDb2dVertex
 10
57.427232366977705
 20
686.35880501001975
 30
0.0
  0
VERTEX
  5
286
100
AcDbEntity
  8
IMPORTED
  6
CONTINUOUS
 62
              30
100
AcDbVertex
100
AcDb2dVertex
 10
-57.288667633022442
 20
724.80780501001982
 30
0.0
  0
VERTEX
  5
287
100
AcDbEntity
  8
IMPORTED
  6
CONTINUOUS
 62
              30
100
AcDbVertex
100
AcDb2dVertex
 10
-57.288667633022442
 20
724.80780501001982
 30
0.0
 42
0.4278069701770124
 70
               2
 50
170.95196750808103
  0
VERTEX
  5
288
100
AcDbEntity
  8
IMPORTED
  6
CONTINUOUS
 62
              30
100
AcDbVertex
100
AcDb2dVertex
 10
-64.966367633022401
 20
720.76080501001979
 30
0.0
  0
VERTEX
  5
289
100
AcDbEntity
  8
IMPORTED
  6
CONTINUOUS
 62
              30
100
AcDbVertex
100
AcDb2dVertex
 10
-64.966367633022401
 20
720.76080501001979
 30
0.0
  0
VERTEX
  5
28A
100
AcDbEntity
  8
IMPORTED
  6
CONTINUOUS
 62
              30
100
AcDbVertex
100
AcDb2dVertex
 10
-184.82746763302225
 20
299.49260501001982
 30
0.0
  0
VERTEX
  5
28B
100
AcDbEntity
  8
IMPORTED
  6
CONTINUOUS
 62
              30
100
AcDbVertex
100
AcDb2dVertex
 10
-184.82746763302225
 20
299.49260501001982
 30
0.0
 42
0.4007452829503184
 70
               2
 50
-16.301893385228087
  0
VERTEX
  5
28C
100
AcDbEntity
  8
IMPORTED
  6
CONTINUOUS
 62
              30
100
AcDbVertex
100
AcDb2dVertex
 10
-180.96326763302227
 20
292.16170501002
 30
0.0
  0
SEQEND
  5
28D
100
AcDbEntity
  8
IMPORTED
  6
CONTINUOUS
 62
              30
  0
POLYLINE
  5
28E
100
AcDbEntity
  8
IMPORTED
  6
CONTINUOUS
 62
              30
100
AcDb2dPolyline
 66
               1
 10
0.0
 20
0.0
 30
0.0
 70
             129
  0
VERTEX
  5
28F
100
AcDbEntity
  8
IMPORTED
  6
CONTINUOUS
 62
              30
100
AcDbVertex
100
AcDb2dVertex
 10
-89.270467633022463
 20
260.6283050100202
 30
0.0
  0
VERTEX
  5
290
100
AcDbEntity
  8
IMPORTED
  6
CONTINUOUS
 62
              30
100
AcDbVertex
100
AcDb2dVertex
 10
-15.600067633022491
 20
228.0997050100203
 30
0.0
  0
VERTEX
  5
291
100
AcDbEntity
  8
IMPORTED
  6
CONTINUOUS
 62
              30
100
AcDbVertex
100
AcDb2dVertex
 10
-15.600067633022491
 20
228.0997050100203
 30
0.0
 42
0.4007493196745391
 70
               2
 50
129.75918122473666
  0
VERTEX
  5
292
100
AcDbEntity
  8
IMPORTED
  6
CONTINUOUS
 62
              30
100
AcDbVertex
100
AcDb2dVertex
 10
-7.8055676330225197
 20
230.91400501002025
 30
0.0
  0
VERTEX
  5
293
100
AcDbEntity
  8
IMPORTED
  6
CONTINUOUS
 62
              30
100
AcDbVertex
100
AcDb2dVertex
 10
-7.8055676330225197
 20
230.91400501002025
 30
0.0
  0
VERTEX
  5
294
100
AcDbEntity
  8
IMPORTED
  6
CONTINUOUS
 62
              30
100
AcDbVertex
100
AcDb2dVertex
 10
187.42243236697755
 20
622.9849050100197
 30
0.0
  0
VERTEX
  5
295
100
AcDbEntity
  8
IMPORTED
  6
CONTINUOUS
 62
              30
100
AcDbVertex
100
AcDb2dVertex
 10
187.42243236697755
 20
622.9849050100197
 30
0.0
 42
0.4278142338834272
 70
               2
 50
-28.530751718424447
  0
VERTEX
  5
296
100
AcDbEntity
  8
IMPORTED
  6
CONTINUOUS
 62
              30
100
AcDbVertex
100
AcDb2dVertex
 10
184.47503236697753
 20
631.14810501001966
 30
0.0
  0
VERTEX
  5
297
100
AcDbEntity
  8
IMPORTED
  6
CONTINUOUS
 62
              30
100
AcDbVertex
100
AcDb2dVertex
 10
184.47503236697753
 20
631.14810501001966
 30
0.0
  0
VERTEX
  5
298
100
AcDbEntity
  8
IMPORTED
  6
CONTINUOUS
 62
              30
100
AcDbVertex
100
AcDb2dVertex
 10
73.796132366977645
 20
680.0175050100197
 30
0.0
  0
VERTEX
  5
299
100
AcDbEntity
  8
IMPORTED
  6
CONTINUOUS
 62
              30
100
AcDbVertex
100
AcDb2dVertex
 10
73.796132366977645
 20
680.0175050100197
 30
0.0
 42
0.4278058113278287
 70
               2
 50
129.76598989520147
  0
VERTEX
  5
29A
100
AcDbEntity
  8
IMPORTED
  6
CONTINUOUS
 62
              30
100
AcDbVertex
100
AcDb2dVertex
 10
65.777832366977464
 20
676.69620501001964
 30
0.0
  0
VERTEX
  5
29B
100
AcDbEntity
  8
IMPORTED
  6
CONTINUOUS
 62
              30
100
AcDbVertex
100
AcDb2dVertex
 10
65.777832366977464
 20
676.69620501001964
 30
0.0
  0
VERTEX
  5
29C
100
AcDbEntity
  8
IMPORTED
  6
CONTINUOUS
 62
              30
100
AcDbVertex
100
AcDb2dVertex
 10
-92.441767633022437
 20
268.28450501001998
 30
0.0
  0
VERTEX
  5
29D
100
AcDbEntity
  8
IMPORTED
  6
CONTINUOUS
 62
              30
100
AcDbVertex
100
AcDb2dVertex
 10
-92.441767633022437
 20
268.28450501001998
 30
0.0
 42
0.4007512528000977
 70
               2
 50
-22.197140690039479
  0
VERTEX
  5
29E
100
AcDbEntity
  8
IMPORTED
  6
CONTINUOUS
 62
              30
100
AcDbVertex
100
AcDb2dVertex
 10
-89.270467633022463
 20
260.6283050100202
 30
0.0
  0
SEQEND
  5
29F
100
AcDbEntity
  8
IMPORTED
  6
CONTINUOUS
 62
              30
  0
POLYLINE
  5
2A0
100
AcDbEntity
  8
IMPORTED
  6
CONTINUOUS
 62
              30
100
AcDb2dPolyline
 66
               1
 10
0.0
 20
0.0
 30
0.0
 70
             129
  0
VERTEX
  5
2A1
100
AcDbEntity
  8
IMPORTED
  6
CONTINUOUS
 62
              30
100
AcDbVertex
100
AcDb2dVertex
 10
-0.8784676330224102
 20
220.76910501002035
 30
0.0
  0
VERTEX
  5
2A2
100
AcDbEntity
  8
IMPORTED
  6
CONTINUOUS
 62
              30
100
AcDbVertex
100
AcDb2dVertex
 10
69.476332366977658
 20
181.58180501002047
 30
0.0
  0
VERTEX
  5
2A3
100
AcDbEntity
  8
IMPORTED
  6
CONTINUOUS
 62
              30
100
AcDbVertex
100
AcDb2dVertex
 10
69.476377083076613
 20
181.58178010301927
 30
0.0
 42
0.4007443741302026
 70
               2
 50
102.86440076870714
  0
VERTEX
  5
2A4
100
AcDbEntity
  8
IMPORTED
  6
CONTINUOUS
 62
              30
100
AcDbVertex
100
AcDb2dVertex
 10
77.497302252379086
 20
183.66485637434496
 30
0.0
  0
VERTEX
  5
2A5
100
AcDbEntity
  8
IMPORTED
  6
CONTINUOUS
 62
              30
100
AcDbVertex
100
AcDb2dVertex
 10
77.497332366977616
 20
183.66490501002053
 30
0.0
  0
VERTEX
  5
2A6
100
AcDbEntity
  8
IMPORTED
  6
CONTINUOUS
 62
              30
100
AcDbVertex
100
AcDb2dVertex
 10
77.497332366977616
 20
183.66490501002053
 30
0.0
  0
VERTEX
  5
2A7
100
AcDbEntity
  8
IMPORTED
  6
CONTINUOUS
 62
              30
100
AcDbVertex
100
AcDb2dVertex
 10
308.06823236697755
 20
556.04990501001976
 30
0.0
  0
VERTEX
  5
2A8
100
AcDbEntity
  8
IMPORTED
  6
CONTINUOUS
 62
              30
100
AcDbVertex
100
AcDb2dVertex
 10
308.06824165587955
 20
556.0499200116484
 30
0.0
 42
0.4278125900482619
 70
               2
 50
-35.477140008090487
  0
VERTEX
  5
2A9
100
AcDbEntity
  8
IMPORTED
  6
CONTINUOUS
 62
              30
100
AcDbVertex
100
AcDb2dVertex
 10
305.88665101816218
 20
564.45029462118396
 30
0.0
  0
VERTEX
  5
2AA
100
AcDbEntity
  8
IMPORTED
  6
CONTINUOUS
 62
              30
100
AcDbVertex
100
AcDb2dVertex
 10
305.88663236697766
 20
564.45030501001975
 30
0.0
  0
VERTEX
  5
2AB
100
AcDbEntity
  8
IMPORTED
  6
CONTINUOUS
 62
              30
100
AcDbVertex
100
AcDb2dVertex
 10
305.88663236697766
 20
564.45030501001975
 30
0.0
  0
VERTEX
  5
2AC
100
AcDbEntity
  8
IMPORTED
  6
CONTINUOUS
 62
              30
100
AcDbVertex
100
AcDb2dVertex
 10
200.18893236697772
 20
623.32340501001977
 30
0.0
  0
VERTEX
  5
2AD
100
AcDbEntity
  8
IMPORTED
  6
CONTINUOUS
 62
              30
100
AcDbVertex
100
AcDb2dVertex
 10
200.18893236697772
 20
623.32340501001977
 30
0.0
 42
0.4278071904187673
 70
               2
 50
102.86707027928492
  0
VERTEX
  5
2AE
100
AcDbEntity
  8
IMPORTED
  6
CONTINUOUS
 62
              30
100
AcDbVertex
100
AcDb2dVertex
 10
191.89833236697746
 20
620.75610501001984
 30
0.0
  0
VERTEX
  5
2AF
100
AcDbEntity
  8
IMPORTED
  6
CONTINUOUS
 62
              30
100
AcDbVertex
100
AcDb2dVertex
 10
191.89833236697746
 20
620.75610501001984
 30
0.0
  0
VERTEX
  5
2B0
100
AcDbEntity
  8
IMPORTED
  6
CONTINUOUS
 62
              30
100
AcDbVertex
100
AcDb2dVertex
 10
-3.3297676330223567
 20
228.68520501002021
 30
0.0
  0
VERTEX
  5
2B1
100
AcDbEntity
  8
IMPORTED
  6
CONTINUOUS
 62
              30
100
AcDbVertex
100
AcDb2dVertex
 10
-3.3297923515037837
 20
228.68515536881236
 30
0.0
 42
0.4007422773008861
 70
               2
 50
-28.530020194727832
  0
VERTEX
  5
2B2
100
AcDbEntity
  8
IMPORTED
  6
CONTINUOUS
 62
              30
100
AcDbVertex
100
AcDb2dVertex
 10
-0.8785556510451897
 20
220.7691540373024
 30
0.0
  0
VERTEX
  5
2B3
100
AcDbEntity
  8
IMPORTED
  6
CONTINUOUS
 62
              30
100
AcDbVertex
100
AcDb2dVertex
 10
-0.8784676330224102
 20
220.76910501002035
 30
0.0
  0
SEQEND
  5
2B4
100
AcDbEntity
  8
IMPORTED
  6
CONTINUOUS
 62
              30
  0
POLYLINE
  5
2B5
100
AcDbEntity
  8
IMPORTED
  6
CONTINUOUS
 62
              30
100
AcDb2dPolyline
 66
               1
 10
0.0
 20
0.0
 30
0.0
 70
             129
  0
VERTEX
  5
2B6
100
AcDbEntity
  8
IMPORTED
  6
CONTINUOUS
 62
              30
100
AcDbVertex
100
AcDb2dVertex
 10
83.458932366977706
 20
172.92400501002041
 30
0.0
  0
VERTEX
  5
2B7
100
AcDbEntity
  8
IMPORTED
  6
CONTINUOUS
 62
              30
100
AcDbVertex
100
AcDb2dVertex
 10
149.89783236697758
 20
127.41240501002002
 30
0.0
  0
VERTEX
  5
2B8
100
AcDbEntity
  8
IMPORTED
  6
CONTINUOUS
 62
              30
100
AcDbVertex
100
AcDb2dVertex
 10
149.89784880663319
 20
127.41239374880027
 30
0.0
 42
0.4007417912571221
 70
               2
 50
83.643060381338984
  0
VERTEX
  5
2B9
100
AcDbEntity
  8
IMPORTED
  6
CONTINUOUS
 62
              30
100
AcDbVertex
100
AcDb2dVertex
 10
158.07670979865736
 20
128.74657512505345
 30
0.0
  0
VERTEX
  5
2BA
100
AcDbEntity
  8
IMPORTED
  6
CONTINUOUS
 62
              30
100
AcDbVertex
100
AcDb2dVertex
 10
158.07673236697769
 20
128.74660501002003
 30
0.0
  0
VERTEX
  5
2BB
100
AcDbEntity
  8
IMPORTED
  6
CONTINUOUS
 62
              30
100
AcDbVertex
100
AcDb2dVertex
 10
158.07673236697769
 20
128.74660501002003
 30
0.0
  0
VERTEX
  5
2BC
100
AcDbEntity
  8
IMPORTED
  6
CONTINUOUS
 62
              30
100
AcDbVertex
100
AcDb2dVertex
 10
422.02343236697766
 20
478.26860501001966
 30
0.0
  0
VERTEX
  5
2BD
100
AcDbEntity
  8
IMPORTED
  6
CONTINUOUS
 62
              30
100
AcDbVertex
100
AcDb2dVertex
 10
422.02345388433014
 20
478.2686335039765
 30
0.0
 42
0.4278086247075
 70
               2
 50
-43.267191373214473
  0
VERTEX
  5
2BE
100
AcDbEntity
  8
IMPORTED
  6
CONTINUOUS
 62
              30
100
AcDbVertex
100
AcDb2dVertex
 10
420.62615177061321
 20
486.83439171818679
 30
0.0
  0
VERTEX
  5
2BF
100
AcDbEntity
  8
IMPORTED
  6
CONTINUOUS
 62
              30
100
AcDbVertex
100
AcDb2dVertex
 10
420.62613236697757
 20
486.83440501001974
 30
0.0
  0
VERTEX
  5
2C0
100
AcDbEntity
  8
IMPORTED
  6
CONTINUOUS
 62
              30
100
AcDbVertex
100
AcDb2dVertex
 10
420.62613236697757
 20
486.83440501001974
 30
0.0
  0
VERTEX
  5
2C1
100
AcDbEntity
  8
IMPORTED
  6
CONTINUOUS
 62
              30
100
AcDbVertex
100
AcDb2dVertex
 10
320.81153236697764
 20
555.20900501001984
 30
0.0
  0
VERTEX
  5
2C2
100
AcDbEntity
  8
IMPORTED
  6
CONTINUOUS
 62
              30
100
AcDbVertex
100
AcDb2dVertex
 10
320.81153236697764
 20
555.20900501001984
 30
0.0
 42
0.4278123869065225
 70
               2
 50
83.641318589150103
  0
VERTEX
  5
2C3
100
AcDbEntity
  8
IMPORTED
  6
CONTINUOUS
 62
              30
100
AcDbVertex
100
AcDb2dVertex
 10
312.31943236697748
 20
553.41760501001977
 30
0.0
  0
VERTEX
  5
2C4
100
AcDbEntity
  8
IMPORTED
  6
CONTINUOUS
 62
              30
100
AcDbVertex
100
AcDb2dVertex
 10
312.31943236697748
 20
553.41760501001977
 30
0.0
  0
VERTEX
  5
2C5
100
AcDbEntity
  8
IMPORTED
  6
CONTINUOUS
 62
              30
100
AcDbVertex
100
AcDb2dVertex
 10
81.748432366977568
 20
181.03260501002049
 30
0.0
  0
VERTEX
  5
2C6
100
AcDbEntity
  8
IMPORTED
  6
CONTINUOUS
 62
              30
100
AcDbVertex
100
AcDb2dVertex
 10
81.748411646229897
 20
181.03257154449093
 30
0.0
 42
0.4007426135192299
 70
               2
 50
-35.47564955829688
  0
VERTEX
  5
2C7
100
AcDbEntity
  8
IMPORTED
  6
CONTINUOUS
 62
              30
100
AcDbVertex
100
AcDb2dVertex
 10
83.458882712614923
 20
172.92403902447759
 30
0.0
  0
VERTEX
  5
2C8
100
AcDbEntity
  8
IMPORTED
  6
CONTINUOUS
 62
              30
100
AcDbVertex
100
AcDb2dVertex
 10
83.458932366977706
 20
172.92400501002041
 30
0.0
  0
SEQEND
  5
2C9
100
AcDbEntity
  8
IMPORTED
  6
CONTINUOUS
 62
              30
  0
POLYLINE
  5
2CA
100
AcDbEntity
  8
IMPORTED
  6
CONTINUOUS
 62
              30
100
AcDb2dPolyline
 66
               1
 10
0.0
 20
0.0
 30
0.0
 70
             129
  0
VERTEX
  5
2CB
100
AcDbEntity
  8
IMPORTED
  6
CONTINUOUS
 62
              30
100
AcDbVertex
100
AcDb2dVertex
 10
163.02183236697761
 20
117.50150501001983
 30
0.0
  0
VERTEX
  5
2CC
100
AcDbEntity
  8
IMPORTED
  6
CONTINUOUS
 62
              30
100
AcDbVertex
100
AcDb2dVertex
 10
224.97813236697766
 20
66.053705010019712
 30
0.0
  0
VERTEX
  5
2CD
100
AcDbEntity
  8
IMPORTED
  6
CONTINUOUS
 62
              30
100
AcDbVertex
100
AcDb2dVertex
 10
224.97813236697766
 20
66.053705010019712
 30
0.0
 42
0.4007483957163334
 70
               2
 50
68.997581476477492
  0
VERTEX
  5
2CE
100
AcDbEntity
  8
IMPORTED
  6
CONTINUOUS
 62
              30
100
AcDbVertex
100
AcDb2dVertex
 10
233.24523236697746
 20
66.627505010019718
 30
0.0
  0
VERTEX
  5
2CF
100
AcDbEntity
  8
IMPORTED
  6
CONTINUOUS
 62
              30
100
AcDbVertex
100
AcDb2dVertex
 10
233.24523236697746
 20
66.627505010019718
 30
0.0
  0
VERTEX
  5
2D0
100
AcDbEntity
  8
IMPORTED
  6
CONTINUOUS
 62
              30
100
AcDbVertex
100
AcDb2dVertex
 10
528.31583236697747
 20
390.30470501001969
 30
0.0
  0
VERTEX
  5
2D1
100
AcDbEntity
  8
IMPORTED
  6
CONTINUOUS
 62
              30
100
AcDbVertex
100
AcDb2dVertex
 10
528.31583236697747
 20
390.30470501001969
 30
0.0
 42
0.427813785112372
 70
               2
 50
-52.232213486945966
  0
VERTEX
  5
2D2
100
AcDbEntity
  8
IMPORTED
  6
CONTINUOUS
 62
              30
100
AcDbVertex
100
AcDb2dVertex
 10
527.71483236697759
 20
398.96290501001977
 30
0.0
  0
VERTEX
  5
2D3
100
AcDbEntity
  8
IMPORTED
  6
CONTINUOUS
 62
              30
100
AcDbVertex
100
AcDb2dVertex
 10
527.71483236697759
 20
398.96290501001977
 30
0.0
  0
VERTEX
  5
2D4
100
AcDbEntity
  8
IMPORTED
  6
CONTINUOUS
 62
              30
100
AcDbVertex
100
AcDb2dVertex
 10
434.63473236697769
 20
476.25550501001976
 30
0.0
  0
VERTEX
  5
2D5
100
AcDbEntity
  8
IMPORTED
  6
CONTINUOUS
 62
              30
100
AcDbVertex
100
AcDb2dVertex
 10
434.63473236697769
 20
476.25550501001976
 30
0.0
 42
0.4278084860940998
 70
               2
 50
68.999281705374344
  0
VERTEX
  5
2D6
100
AcDbEntity
  8
IMPORTED
  6
CONTINUOUS
 62
              30
100
AcDbVertex
100
AcDb2dVertex
 10
426.01353236697764
 20
475.25530501001981
 30
0.0
  0
VERTEX
  5
2D7
100
AcDbEntity
  8
IMPORTED
  6
CONTINUOUS
 62
              30
100
AcDbVertex
100
AcDb2dVertex
 10
426.01353236697764
 20
475.25530501001981
 30
0.0
  0
VERTEX
  5
2D8
100
AcDbEntity
  8
IMPORTED
  6
CONTINUOUS
 62
              30
100
AcDbVertex
100
AcDb2dVertex
 10
162.06683236697768
 20
125.7333050100199
 30
0.0
  0
VERTEX
  5
2D9
100
AcDbEntity
  8
IMPORTED
  6
CONTINUOUS
 62
              30
100
AcDbVertex
100
AcDb2dVertex
 10
162.06683236697768
 20
125.7333050100199
 30
0.0
 42
0.400747270015142
 70
               2
 50
-43.268226687283629
  0
VERTEX
  5
2DA
100
AcDbEntity
  8
IMPORTED
  6
CONTINUOUS
 62
              30
100
AcDbVertex
100
AcDb2dVertex
 10
163.02183236697761
 20
117.50150501001983
 30
0.0
  0
SEQEND
  5
2DB
100
AcDbEntity
  8
IMPORTED
  6
CONTINUOUS
 62
              30
  0
POLYLINE
  5
2DC
100
AcDbEntity
  8
IMPORTED
  6
CONTINUOUS
 62
              30
100
AcDb2dPolyline
 66
               1
 10
0.0
 20
0.0
 30
0.0
 70
             129
  0
VERTEX
  5
2DD
100
AcDbEntity
  8
IMPORTED
  6
CONTINUOUS
 62
              30
100
AcDbVertex
100
AcDb2dVertex
 10
237.13163236697756
 20
54.974105010019713
 30
0.0
  0
VERTEX
  5
2DE
100
AcDbEntity
  8
IMPORTED
  6
CONTINUOUS
 62
              30
100
AcDbVertex
100
AcDb2dVertex
 10
294.07653236697752
 20
-1.9706949899799895
 30
0.0
  0
VERTEX
  5
2DF
100
AcDbEntity
  8
IMPORTED
  6
CONTINUOUS
 62
              30
100
AcDbVertex
100
AcDb2dVertex
 10
294.07653236697752
 20
-1.9706949899799895
 30
0.0
 42
0.4007466341672427
 70
               2
 50
57.295779513084241
  0
VERTEX
  5
2E0
100
AcDbEntity
  8
IMPORTED
  6
CONTINUOUS
 62
              30
100
AcDbVertex
100
AcDb2dVertex
 10
302.36133236697765
 20
-2.1620949899800337
 30
0.0
  0
VERTEX
  5
2E1
100
AcDbEntity
  8
IMPORTED
  6
CONTINUOUS
 62
              30
100
AcDbVertex
100
AcDb2dVertex
 10
302.36133236697765
 20
-2.1620949899800337
 30
0.0
  0
VERTEX
  5
2E2
100
AcDbEntity
  8
IMPORTED
  6
CONTINUOUS
 62
              30
100
AcDbVertex
100
AcDb2dVertex
 10
626.03843236697753
 20
292.90850501001989
 30
0.0
  0
VERTEX
  5
2E3
100
AcDbEntity
  8
IMPORTED
  6
CONTINUOUS
 62
              30
100
AcDbVertex
100
AcDb2dVertex
 10
626.03843236697753
 20
292.90850501001989
 30
0.0
 42
0.4278142374348881
 70
               2
 50
-62.850224619183507
  0
VERTEX
  5
2E4
100
AcDbEntity
  8
IMPORTED
  6
CONTINUOUS
 62
              30
100
AcDbVertex
100
AcDb2dVertex
 10
626.23883236697748
 20
301.58520501001976
 30
0.0
  0
VERTEX
  5
2E5
100
AcDbEntity
  8
IMPORTED
  6
CONTINUOUS
 62
              30
100
AcDbVertex
100
AcDb2dVertex
 10
626.23883236697748
 20
301.58520501001976
 30
0.0
  0
VERTEX
  5
2E6
100
AcDbEntity
  8
IMPORTED
  6
CONTINUOUS
 62
              30
100
AcDbVertex
100
AcDb2dVertex
 10
540.6876323669776
 20
387.13650501001985
 30
0.0
  0
VERTEX
  5
2E7
100
AcDbEntity
  8
IMPORTED
  6
CONTINUOUS
 62
              30
100
AcDbVertex
100
AcDb2dVertex
 10
540.6876323669776
 20
387.13650501001985
 30
0.0
 42
0.4278129474251066
 70
               2
 50
57.294490055023509
  0
VERTEX
  5
2E8
100
AcDbEntity
  8
IMPORTED
  6
CONTINUOUS
 62
              30
100
AcDbVertex
100
AcDb2dVertex
 10
532.01093236697761
 20
386.93610501001967
 30
0.0
  0
VERTEX
  5
2E9
100
AcDbEntity
  8
IMPORTED
  6
CONTINUOUS
 62
              30
100
AcDbVertex
100
AcDb2dVertex
 10
532.01093236697761
 20
386.93610501001967
 30
0.0
  0
VERTEX
  5
2EA
100
AcDbEntity
  8
IMPORTED
  6
CONTINUOUS
 62
              30
100
AcDbVertex
100
AcDb2dVertex
 10
236.94023236697763
 20
63.259005010019678
 30
0.0
  0
VERTEX
  5
2EB
100
AcDbEntity
  8
IMPORTED
  6
CONTINUOUS
 62
              30
100
AcDbVertex
100
AcDb2dVertex
 10
236.94023236697763
 20
63.259005010019678
 30
0.0
 42
0.4007508127820549
 70
               2
 50
-52.233105056129943
  0
VERTEX
  5
2EC
100
AcDbEntity
  8
IMPORTED
  6
CONTINUOUS
 62
              30
100
AcDbVertex
100
AcDb2dVertex
 10
237.13163236697756
 20
54.974105010019713
 30
0.0
  0
SEQEND
  5
2ED
100
AcDbEntity
  8
IMPORTED
  6
CONTINUOUS
 62
              30
  0
POLYLINE
  5
2EE
100
AcDbEntity
  8
IMPORTED
  6
CONTINUOUS
 62
              30
100
AcDb2dPolyline
 66
               1
 10
0.0
 20
0.0
 30
0.0
 70
             129
  0
VERTEX
  5
2EF
100
AcDbEntity
  8
IMPORTED
  6
CONTINUOUS
 62
              30
100
AcDbVertex
100
AcDb2dVertex
 10
305.15603236697757
 20
-14.124394989979891
 30
0.0
  0
VERTEX
  5
2F0
100
AcDbEntity
  8
IMPORTED
  6
CONTINUOUS
 62
              30
100
AcDbVertex
100
AcDb2dVertex
 10
356.60383236697749
 20
-76.080594989980085
 30
0.0
  0
VERTEX
  5
2F1
100
AcDbEntity
  8
IMPORTED
  6
CONTINUOUS
 62
              30
100
AcDbVertex
100
AcDb2dVertex
 10
356.60383236697749
 20
-76.080594989980085
 30
0.0
 42
0.4007426717192077
 70
               2
 50
47.578571302981892
  0
VERTEX
  5
2F2
100
AcDbEntity
  8
IMPORTED
  6
CONTINUOUS
 62
              30
100
AcDbVertex
100
AcDb2dVertex
 10
364.83563236697751
 20
-77.035594989980012
 30
0.0
  0
VERTEX
  5
2F3
100
AcDbEntity
  8
IMPORTED
  6
CONTINUOUS
 62
              30
100
AcDbVertex
100
AcDb2dVertex
 10
364.83563236697751
 20
-77.035594989980012
 30
0.0
  0
VERTEX
  5
2F4
100
AcDbEntity
  8
IMPORTED
  6
CONTINUOUS
 62
              30
100
AcDbVertex
100
AcDb2dVertex
 10
714.35763236697755
 20
186.91120501002055
 30
0.0
  0
VERTEX
  5
2F5
100
AcDbEntity
  8
IMPORTED
  6
CONTINUOUS
 62
              30
100
AcDbVertex
100
AcDb2dVertex
 10
714.35763236697755
 20
186.91120501002055
 30
0.0
 42
0.4278144738495555
 70
               2
 50
-75.872878405591194
  0
VERTEX
  5
2F6
100
AcDbEntity
  8
IMPORTED
  6
CONTINUOUS
 62
              30
100
AcDbVertex
100
AcDb2dVertex
 10
715.3578323669775
 20
195.5324050100206
 30
0.0
  0
VERTEX
  5
2F7
100
AcDbEntity
  8
IMPORTED
  6
CONTINUOUS
 62
              30
100
AcDbVertex
100
AcDb2dVertex
 10
715.3578323669775
 20
195.5324050100206
 30
0.0
  0
VERTEX
  5
2F8
100
AcDbEntity
  8
IMPORTED
  6
CONTINUOUS
 62
              30
100
AcDbVertex
100
AcDb2dVertex
 10
638.06523236697763
 20
288.61240501001987
 30
0.0
  0
VERTEX
  5
2F9
100
AcDbEntity
  8
IMPORTED
  6
CONTINUOUS
 62
              30
100
AcDbVertex
100
AcDb2dVertex
 10
638.06523236697763
 20
288.61240501001987
 30
0.0
 42
0.4278116144240844
 70
               2
 50
47.577398907273484
  0
VERTEX
  5
2FA
100
AcDbEntity
  8
IMPORTED
  6
CONTINUOUS
 62
              30
100
AcDbVertex
100
AcDb2dVertex
 10
629.40703236697755
 20
289.21340501001998
 30
0.0
  0
VERTEX
  5
2FB
100
AcDbEntity
  8
IMPORTED
  6
CONTINUOUS
 62
              30
100
AcDbVertex
100
AcDb2dVertex
 10
629.40703236697755
 20
289.21340501001998
 30
0.0
  0
VERTEX
  5
2FC
100
AcDbEntity
  8
IMPORTED
  6
CONTINUOUS
 62
              30
100
AcDbVertex
100
AcDb2dVertex
 10
305.72993236697766
 20
-5.8572949899800051
 30
0.0
  0
VERTEX
  5
2FD
100
AcDbEntity
  8
IMPORTED
  6
CONTINUOUS
 62
              30
100
AcDbVertex
100
AcDb2dVertex
 10
305.72993236697766
 20
-5.8572949899800051
 30
0.0
 42
0.4007420992132477
 70
               2
 50
-62.850780211032657
  0
VERTEX
  5
2FE
100
AcDbEntity
  8
IMPORTED
  6
CONTINUOUS
 62
              30
100
AcDbVertex
100
AcDb2dVertex
 10
305.15603236697757
 20
-14.124394989979891
 30
0.0
  0
SEQEND
  5
2FF
100
AcDbEntity
  8
IMPORTED
  6
CONTINUOUS
 62
              30
  0
POLYLINE
  5
300
100
AcDbEntity
  8
IMPORTED
  6
CONTINUOUS
 62
              30
100
AcDb2dPolyline
 66
               1
 10
0.0
 20
0.0
 30
0.0
 70
             129
  0
VERTEX
  5
301
100
AcDbEntity
  8
IMPORTED
  6
CONTINUOUS
 62
              30
100
AcDbVertex
100
AcDb2dVertex
 10
366.51463236697759
 20
-89.204694989980069
 30
0.0
  0
VERTEX
  5
302
100
AcDbEntity
  8
IMPORTED
  6
CONTINUOUS
 62
              30
100
AcDbVertex
100
AcDb2dVertex
 10
412.02633236697761
 20
-155.6434949899799
 30
0.0
  0
VERTEX
  5
303
100
AcDbEntity
  8
IMPORTED
  6
CONTINUOUS
 62
              30
100
AcDbVertex
100
AcDb2dVertex
 10
412.02636638143463
 20
-155.64354464434251
 30
0.0
 42
0.4007426135192192
 70
               2
 50
39.249015176351968
  0
VERTEX
  5
304
100
AcDbEntity
  8
IMPORTED
  6
CONTINUOUS
 62
              30
100
AcDbVertex
100
AcDb2dVertex
 10
420.13489890144797
 20
-157.35401571072771
 30
0.0
  0
VERTEX
  5
305
100
AcDbEntity
  8
IMPORTED
  6
CONTINUOUS
 62
              30
100
AcDbVertex
100
AcDb2dVertex
 10
420.13493236697764
 20
-157.35399498997981
 30
0.0
  0
VERTEX
  5
306
100
AcDbEntity
  8
IMPORTED
  6
CONTINUOUS
 62
              30
100
AcDbVertex
100
AcDb2dVertex
 10
420.13493236697764
 20
-157.35399498997981
 30
0.0
  0
VERTEX
  5
307
100
AcDbEntity
  8
IMPORTED
  6
CONTINUOUS
 62
              30
100
AcDbVertex
100
AcDb2dVertex
 10
792.51983236697754
 20
73.217105010019736
 30
0.0
  0
VERTEX
  5
308
100
AcDbEntity
  8
IMPORTED
  6
CONTINUOUS
 62
              30
100
AcDbVertex
100
AcDb2dVertex
 10
792.51983236697754
 20
73.217105010019736
 30
0.0
 42
0.427809841313692
 70
               2
 50
-92.535801579986625
  0
VERTEX
  5
309
100
AcDbEntity
  8
IMPORTED
  6
CONTINUOUS
 62
              30
100
AcDbVertex
100
AcDb2dVertex
 10
794.31123236697749
 20
81.709205010019701
 30
0.0
  0
VERTEX
  5
30A
100
AcDbEntity
  8
IMPORTED
  6
CONTINUOUS
 62
              30
100
AcDbVertex
100
AcDb2dVertex
 10
794.31123236697749
 20
81.709205010019701
 30
0.0
  0
VERTEX
  5
30B
100
AcDbEntity
  8
IMPORTED
  6
CONTINUOUS
 62
              30
100
AcDbVertex
100
AcDb2dVertex
 10
725.93663236697751
 20
181.52370501002051
 30
0.0
  0
VERTEX
  5
30C
100
AcDbEntity
  8
IMPORTED
  6
CONTINUOUS
 62
              30
100
AcDbVertex
100
AcDb2dVertex
 10
725.93661907514456
 20
181.52372441365614
 30
0.0
 42
0.4278086247075005
 70
               2
 50
39.248620243988697
  0
VERTEX
  5
30D
100
AcDbEntity
  8
IMPORTED
  6
CONTINUOUS
 62
              30
100
AcDbVertex
100
AcDb2dVertex
 10
717.37086086093427
 20
182.92102652737296
 30
0.0
  0
VERTEX
  5
30E
100
AcDbEntity
  8
IMPORTED
  6
CONTINUOUS
 62
              30
100
AcDbVertex
100
AcDb2dVertex
 10
717.37083236697754
 20
182.92100501002059
 30
0.0
  0
VERTEX
  5
30F
100
AcDbEntity
  8
IMPORTED
  6
CONTINUOUS
 62
              30
100
AcDbVertex
100
AcDb2dVertex
 10
717.37083236697754
 20
182.92100501002059
 30
0.0
  0
VERTEX
  5
310
100
AcDbEntity
  8
IMPORTED
  6
CONTINUOUS
 62
              30
100
AcDbVertex
100
AcDb2dVertex
 10
367.8488323669776
 20
-81.025694989979996
 30
0.0
  0
VERTEX
  5
311
100
AcDbEntity
  8
IMPORTED
  6
CONTINUOUS
 62
              30
100
AcDbVertex
100
AcDb2dVertex
 10
367.8488323669776
 20
-81.025694989979996
 30
0.0
 42
0.4007481754505778
 70
               2
 50
-75.872722478163439
  0
VERTEX
  5
312
100
AcDbEntity
  8
IMPORTED
  6
CONTINUOUS
 62
              30
100
AcDbVertex
100
AcDb2dVertex
 10
366.51463236697759
 20
-89.204694989980069
 30
0.0
  0
SEQEND
  5
313
100
AcDbEntity
  8
IMPORTED
  6
CONTINUOUS
 62
              30
  0
POLYLINE
  5
314
100
AcDbEntity
  8
IMPORTED
  6
CONTINUOUS
 62
              30
100
AcDb2dPolyline
 66
               1
 10
0.0
 20
0.0
 30
0.0
 70
             129
  0
VERTEX
  5
315
100
AcDbEntity
  8
IMPORTED
  6
CONTINUOUS
 62
              30
100
AcDbVertex
100
AcDb2dVertex
 10
420.68393236697761
 20
-169.62609498997978
 30
0.0
  0
VERTEX
  5
316
100
AcDbEntity
  8
IMPORTED
  6
CONTINUOUS
 62
              30
100
AcDbVertex
100
AcDb2dVertex
 10
459.87123236697767
 20
-239.98089498998002
 30
0.0
  0
VERTEX
  5
317
100
AcDbEntity
  8
IMPORTED
  6
CONTINUOUS
 62
              30
100
AcDbVertex
100
AcDb2dVertex
 10
459.87128139425977
 20
-239.98098300800285
 30
0.0
 42
0.4007422773008763
 70
               2
 50
31.914558557924469
  0
VERTEX
  5
318
100
AcDbEntity
  8
IMPORTED
  6
CONTINUOUS
 62
              30
100
AcDbVertex
100
AcDb2dVertex
 10
467.7872827257695
 20
-242.43221970846167
 30
0.0
  0
VERTEX
  5
319
100
AcDbEntity
  8
IMPORTED
  6
CONTINUOUS
 62
              30
100
AcDbVertex
100
AcDb2dVertex
 10
467.78733236697758
 20
-242.4321949899801
 30
0.0
  0
VERTEX
  5
31A
100
AcDbEntity
  8
IMPORTED
  6
CONTINUOUS
 62
              30
100
AcDbVertex
100
AcDb2dVertex
 10
467.78733236697758
 20
-242.4321949899801
 30
0.0
  0
VERTEX
  5
31B
100
AcDbEntity
  8
IMPORTED
  6
CONTINUOUS
 62
              30
100
AcDbVertex
100
AcDb2dVertex
 10
859.85823236697729
 20
-47.203994989979961
 30
0.0
  0
VERTEX
  5
31C
100
AcDbEntity
  8
IMPORTED
  6
CONTINUOUS
 62
              30
100
AcDbVertex
100
AcDb2dVertex
 10
859.85823236697729
 20
-47.203994989979961
 30
0.0
 42
0.4278124427894151
 70
               2
 50
-115.06614294015974
  0
VERTEX
  5
31D
100
AcDbEntity
  8
IMPORTED
  6
CONTINUOUS
 62
              30
100
AcDbVertex
100
AcDb2dVertex
 10
862.42553236697734
 20
-38.913394989980006
 30
0.0
  0
VERTEX
  5
31E
100
AcDbEntity
  8
IMPORTED
  6
CONTINUOUS
 62
              30
100
AcDbVertex
100
AcDb2dVertex
 10
862.42553236697734
 20
-38.913394989980006
 30
0.0
  0
VERTEX
  5
31F
100
AcDbEntity
  8
IMPORTED
  6
CONTINUOUS
 62
              30
100
AcDbVertex
100
AcDb2dVertex
 10
803.55243236697754
 20
66.784205010019718
 30
0.0
  0
VERTEX
  5
320
100
AcDbEntity
  8
IMPORTED
  6
CONTINUOUS
 62
              30
100
AcDbVertex
100
AcDb2dVertex
 10
803.55242197814175
 20
66.784223661204237
 30
0.0
 42
0.4278125900482685
 70
               2
 50
31.914136400005106
  0
VERTEX
  5
321
100
AcDbEntity
  8
IMPORTED
  6
CONTINUOUS
 62
              30
100
AcDbVertex
100
AcDb2dVertex
 10
795.15204736860619
 20
68.965814298921657
 30
0.0
  0
VERTEX
  5
322
100
AcDbEntity
  8
IMPORTED
  6
CONTINUOUS
 62
              30
100
AcDbVertex
100
AcDb2dVertex
 10
795.15203236697755
 20
68.965805010019722
 30
0.0
  0
VERTEX
  5
323
100
AcDbEntity
  8
IMPORTED
  6
CONTINUOUS
 62
              30
100
AcDbVertex
100
AcDb2dVertex
 10
795.15203236697755
 20
68.965805010019722
 30
0.0
  0
VERTEX
  5
324
100
AcDbEntity
  8
IMPORTED
  6
CONTINUOUS
 62
              30
100
AcDbVertex
100
AcDb2dVertex
 10
422.76703236697745
 20
-161.60509498997988
 30
0.0
  0
VERTEX
  5
325
100
AcDbEntity
  8
IMPORTED
  6
CONTINUOUS
 62
              30
100
AcDbVertex
100
AcDb2dVertex
 10
422.76698373130216
 20
-161.60512510457815
 30
0.0
 42
0.4007443741302366
 70
               2
 50
-92.533823750090733
  0
VERTEX
  5
326
100
AcDbEntity
  8
IMPORTED
  6
CONTINUOUS
 62
              30
100
AcDbVertex
100
AcDb2dVertex
 10
420.68390745997647
 20
-169.62605027388074
 30
0.0
  0
VERTEX
  5
327
100
AcDbEntity
  8
IMPORTED
  6
CONTINUOUS
 62
              30
100
AcDbVertex
100
AcDb2dVertex
 10
420.68393236697761
 20
-169.62609498997978
 30
0.0
  0
SEQEND
  5
328
100
AcDbEntity
  8
IMPORTED
  6
CONTINUOUS
 62
              30
  0
POLYLINE
  5
329
100
AcDbEntity
  8
IMPORTED
  6
STYLE_05
 62
              30
100
AcDb2dPolyline
 66
               1
 10
0.0
 20
0.0
 30
0.0
 70
             129
  0
VERTEX
  5
32A
100
AcDbEntity
  8
IMPORTED
  6
STYLE_05
 62
              30
100
AcDbVertex
100
AcDb2dVertex
 10
467.20173236697769
 20
-254.70259498998024
 30
0.0
  0
VERTEX
  5
32B
100
AcDbEntity
  8
IMPORTED
  6
STYLE_05
 62
              30
100
AcDbVertex
100
AcDb2dVertex
 10
499.73033236697756
 20
-328.37289498998075
 30
0.0
  0
VERTEX
  5
32C
100
AcDbEntity
  8
IMPORTED
  6
STYLE_05
 62
              30
100
AcDbVertex
100
AcDb2dVertex
 10
499.73033236697756
 20
-328.37289498998075
 30
0.0
 42
0.4007443729797973
 70
               2
 50
25.298739409495884
  0
VERTEX
  5
32D
100
AcDbEntity
  8
IMPORTED
  6
STYLE_05
 62
              30
100
AcDbVertex
100
AcDb2dVertex
 10
507.38653236697746
 20
-331.54419498998072
 30
0.0
  0
VERTEX
  5
32E
100
AcDbEntity
  8
IMPORTED
  6
STYLE_05
 62
              30
100
AcDbVertex
100
AcDb2dVertex
 10
507.38653236697746
 20
-331.54419498998072
 30
0.0
  0
VERTEX
  5
32F
100
AcDbEntity
  8
IMPORTED
  6
STYLE_05
 62
              30
100
AcDbVertex
100
AcDb2dVertex
 10
915.79843236697729
 20
-173.32459498997974
 30
0.0
  0
VERTEX
  5
330
100
AcDbEntity
  8
IMPORTED
  6
STYLE_05
 62
              30
100
AcDbVertex
100
AcDb2dVertex
 10
915.79843236697729
 20
-173.32459498997974
 30
0.0
 42
0.4278139680270938
 70
               2
 50
-147.90029978367187
  0
VERTEX
  5
331
100
AcDbEntity
  8
IMPORTED
  6
STYLE_05
 62
              30
100
AcDbVertex
100
AcDb2dVertex
 10
919.11973236697736
 20
-165.30629498997982
 30
0.0
  0
VERTEX
  5
332
100
AcDbEntity
  8
IMPORTED
  6
STYLE_05
 62
              30
100
AcDbVertex
100
AcDb2dVertex
 10
919.11973236697736
 20
-165.30629498997982
 30
0.0
  0
VERTEX
  5
333
100
AcDbEntity
  8
IMPORTED
  6
STYLE_05
 62
              30
100
AcDbVertex
100
AcDb2dVertex
 10
870.25013236697737
 20
-54.62739498997999
 30
0.0
  0
VERTEX
  5
334
100
AcDbEntity
  8
IMPORTED
  6
STYLE_05
 62
              30
100
AcDbVertex
100
AcDb2dVertex
 10
870.25013236697737
 20
-54.62739498997999
 30
0.0
 42
0.4278115997287379
 70
               2
 50
25.298891441115906
  0
VERTEX
  5
335
100
AcDbEntity
  8
IMPORTED
  6
STYLE_05
 62
              30
100
AcDbVertex
100
AcDb2dVertex
 10
862.08693236697729
 20
-51.679994989979974
 30
0.0
  0
VERTEX
  5
336
100
AcDbEntity
  8
IMPORTED
  6
STYLE_05
 62
              30
100
AcDbVertex
100
AcDb2dVertex
 10
862.08693236697729
 20
-51.679994989979974
 30
0.0
  0
VERTEX
  5
337
100
AcDbEntity
  8
IMPORTED
  6
STYLE_05
 62
              30
100
AcDbVertex
100
AcDb2dVertex
 10
470.01603236697747
 20
-246.90809498998016
 30
0.0
  0
VERTEX
  5
338
100
AcDbEntity
  8
IMPORTED
  6
STYLE_05
 62
              30
100
AcDbVertex
100
AcDb2dVertex
 10
470.01603236697747
 20
-246.90809498998016
 30
0.0
 42
0.4007423406817011
 70
               2
 50
-115.06272297250449
  0
VERTEX
  5
339
100
AcDbEntity
  8
IMPORTED
  6
STYLE_05
 62
              30
100
AcDbVertex
100
AcDb2dVertex
 10
467.20173236697769
 20
-254.70259498998024
 30
0.0
  0
SEQEND
  5
33A
100
AcDbEntity
  8
IMPORTED
  6
STYLE_05
 62
              30
  0
POLYLINE
  5
33B
100
AcDbEntity
  8
IMPORTED
  6
STYLE_05
 62
              30
100
AcDb2dPolyline
 66
               1
 10
0.0
 20
0.0
 30
0.0
 70
             129
  0
VERTEX
  5
33C
100
AcDbEntity
  8
IMPORTED
  6
STYLE_05
 62
              30
100
AcDbVertex
100
AcDb2dVertex
 10
505.67143236697757
 20
-343.70839498998066
 30
0.0
  0
VERTEX
  5
33D
100
AcDbEntity
  8
IMPORTED
  6
STYLE_05
 62
              30
100
AcDbVertex
100
AcDb2dVertex
 10
531.26403236697752
 20
-420.06589498998017
 30
0.0
  0
VERTEX
  5
33E
100
AcDbEntity
  8
IMPORTED
  6
STYLE_05
 62
              30
100
AcDbVertex
100
AcDb2dVertex
 10
531.26403236697752
 20
-420.06589498998017
 30
0.0
 42
0.4007469253189894
 70
               2
 50
19.203368221928784
  0
VERTEX
  5
33F
100
AcDbEntity
  8
IMPORTED
  6
STYLE_05
 62
              30
100
AcDbVertex
100
AcDb2dVertex
 10
538.59493236697767
 20
-423.93009498998015
 30
0.0
  0
VERTEX
  5
340
100
AcDbEntity
  8
IMPORTED
  6
STYLE_05
 62
              30
100
AcDbVertex
100
AcDb2dVertex
 10
538.59493236697767
 20
-423.93009498998015
 30
0.0
  0
VERTEX
  5
341
100
AcDbEntity
  8
IMPORTED
  6
STYLE_05
 62
              30
100
AcDbVertex
100
AcDb2dVertex
 10
959.86303236697722
 20
-304.06899498998064
 30
0.0
  0
VERTEX
  5
342
100
AcDbEntity
  8
IMPORTED
  6
STYLE_05
 62
              30
100
AcDbVertex
100
AcDb2dVertex
 10
959.86303236697722
 20
-304.06899498998064
 30
0.0
 42
0.42781335432032
 70
               2
 50
-201.37820527979031
  0
VERTEX
  5
343
100
AcDbEntity
  8
IMPORTED
  6
STYLE_05
 62
              30
100
AcDbVertex
100
AcDb2dVertex
 10
963.91003236697725
 20
-296.39129498998068
 30
0.0
  0
VERTEX
  5
344
100
AcDbEntity
  8
IMPORTED
  6
STYLE_05
 62
              30
100
AcDbVertex
100
AcDb2dVertex
 10
963.91003236697725
 20
-296.39129498998068
 30
0.0
  0
VERTEX
  5
345
100
AcDbEntity
  8
IMPORTED
  6
STYLE_05
 62
              30
100
AcDbVertex
100
AcDb2dVertex
 10
925.46103236697729
 20
-181.67539498997976
 30
0.0
  0
VERTEX
  5
346
100
AcDbEntity
  8
IMPORTED
  6
STYLE_05
 62
              30
100
AcDbVertex
100
AcDb2dVertex
 10
925.46103236697729
 20
-181.67539498997976
 30
0.0
 42
0.4278143238262199
 70
               2
 50
19.203091943685482
  0
VERTEX
  5
347
100
AcDbEntity
  8
IMPORTED
  6
STYLE_05
 62
              30
100
AcDbVertex
100
AcDb2dVertex
 10
917.60463236697728
 20
-177.9872949899798
 30
0.0
  0
VERTEX
  5
348
100
AcDbEntity
  8
IMPORTED
  6
STYLE_05
 62
              30
100
AcDbVertex
100
AcDb2dVertex
 10
917.60463236697728
 20
-177.9872949899798
 30
0.0
  0
VERTEX
  5
349
100
AcDbEntity
  8
IMPORTED
  6
STYLE_05
 62
              30
100
AcDbVertex
100
AcDb2dVertex
 10
509.1930323669776
 20
-336.2068949899807
 30
0.0
  0
VERTEX
  5
34A
100
AcDbEntity
  8
IMPORTED
  6
STYLE_05
 62
              30
100
AcDbVertex
100
AcDb2dVertex
 10
509.1930323669776
 20
-336.2068949899807
 30
0.0
 42
0.4007453556014817
 70
               2
 50
-147.90312312867272
  0
VERTEX
  5
34B
100
AcDbEntity
  8
IMPORTED
  6
STYLE_05
 62
              30
100
AcDbVertex
100
AcDb2dVertex
 10
505.67143236697757
 20
-343.70839498998066
 30
0.0
  0
SEQEND
  5
34C
100
AcDbEntity
  8
IMPORTED
  6
STYLE_05
 62
              30
  0
CIRCLE
  5
34D
100
AcDbEntity
  8
IMPORTED
  6
CONTINUOUS
 62
              30
100
AcDbCircle
 10
-446.51976763302241
 20
683.38950501001977
 30
0.0
 40
4.0
  0
CIRCLE
  5
34E
100
AcDbEntity
  8
IMPORTED
  6
CONTINUOUS
 62
              30
100
AcDbCircle
 10
-376.59446763302253
 20
680.1566050100198
 30
0.0
 40
4.0
  0
LINE
  5
34F
100
AcDbEntity
  8
IMPORTED
  6
CONTINUOUS
 62
              30
100
AcDbLine
 10
-378.59186763302228
 20
680.25620501001981
 30
0.0
 11
-374.59686763302238
 21
680.05700501001979
 31
0.0
  0
LINE
  5
350
100
AcDbEntity
  8
IMPORTED
  6
CONTINUOUS
 62
              30
100
AcDbLine
 10
-372.31366763302208
 20
679.94320501001971
 30
0.0
 11
-369.30136763302221
 21
679.79310501001964
 31
0.0
  0
LINE
  5
351
100
AcDbEntity
  8
IMPORTED
  6
CONTINUOUS
 62
              30
100
AcDbLine
 10
-376.95786763302226
 20
672.86360501001968
 30
0.0
 11
-376.80776763302242
 21
675.8758050100198
 31
0.0
  0
LINE
  5
352
100
AcDbEntity
  8
IMPORTED
  6
CONTINUOUS
 62
              30
100
AcDbLine
 10
-376.69406763302209
 20
678.15900501001965
 30
0.0
 11
-376.49486763302252
 21
682.15410501001975
 31
0.0
  0
LINE
  5
353
100
AcDbEntity
  8
IMPORTED
  6
CONTINUOUS
 62
              30
100
AcDbLine
 10
-376.38106763302244
 20
684.43710501001965
 30
0.0
 11
-376.23096763302215
 21
687.44950501001972
 31
0.0
  0
LINE
  5
354
100
AcDbEntity
  8
IMPORTED
  6
CONTINUOUS
 62
              30
100
AcDbLine
 10
-442.23906763302216
 20
683.17610501001968
 30
0.0
 11
-439.22676763302229
 21
683.02590501001964
 31
0.0
  0
LINE
  5
355
100
AcDbEntity
  8
IMPORTED
  6
CONTINUOUS
 62
              30
100
AcDbLine
 10
-383.88736763302245
 20
680.52010501001973
 30
0.0
 11
-380.87516763302233
 21
680.37000501001967
 31
0.0
  0
LINE
  5
356
100
AcDbEntity
  8
IMPORTED
  6
CONTINUOUS
 62
              30
100
AcDbLine
 10
-453.81266763302233
 20
683.75300501001971
 30
0.0
 11
-450.80046763302266
 21
683.60280501001967
 31
0.0
  0
LINE
  5
357
100
AcDbEntity
  8
IMPORTED
  6
CONTINUOUS
 62
              30
100
AcDbLine
 10
-448.5173676330221
 20
683.48890501001983
 30
0.0
 11
-444.52226763302201
 21
683.28990501001977
 31
0.0
  0
LINE
  5
358
100
AcDbEntity
  8
IMPORTED
  6
CONTINUOUS
 62
              30
100
AcDbLine
 10
-446.88326763302234
 20
676.09650501001965
 30
0.0
 11
-446.7330676330223
 21
679.10880501001975
 31
0.0
  0
LINE
  5
359
100
AcDbEntity
  8
IMPORTED
  6
CONTINUOUS
 62
              30
100
AcDbLine
 10
-446.61936763302242
 20
681.39180501001965
 30
0.0
 11
-446.4201676330224
 21
685.38700501001972
 31
0.0
  0
LINE
  5
35A
100
AcDbEntity
  8
IMPORTED
  6
CONTINUOUS
 62
              30
100
AcDbLine
 10
-446.30636763302232
 20
687.67000501001985
 30
0.0
 11
-446.15616763302228
 21
690.68240501001969
 31
0.0
  0
LINE
  5
35B
100
AcDbEntity
  8
IMPORTED
  6
CONTINUOUS
 62
              30
100
AcDbLine
 10
-443.77336763302242
 20
433.45960501001969
 30
0.0
 11
-440.76106763302209
 21
433.30960501001982
 31
0.0
  0
CIRCLE
  5
35C
100
AcDbEntity
  8
IMPORTED
  6
CONTINUOUS
 62
              30
100
AcDbCircle
 10
-398.10756763302265
 20
431.36390501001983
 30
0.0
 40
4.0
  0
LINE
  5
35D
100
AcDbEntity
  8
IMPORTED
  6
CONTINUOUS
 62
              30
100
AcDbLine
 10
-405.40046763302212
 20
431.72730501001979
 30
0.0
 11
-402.38826763302245
 21
431.57720501001972
 31
0.0
  0
LINE
  5
35E
100
AcDbEntity
  8
IMPORTED
  6
CONTINUOUS
 62
              30
100
AcDbLine
 10
-400.10516763302235
 20
431.46350501001984
 30
0.0
 11
-396.11006763302225
 21
431.2644050100198
 31
0.0
  0
LINE
  5
35F
100
AcDbEntity
  8
IMPORTED
  6
CONTINUOUS
 62
              30
100
AcDbLine
 10
-393.8268676330224
 20
431.15060501001972
 30
0.0
 11
-390.81466763302228
 21
431.00040501001968
 31
0.0
  0
LINE
  5
360
100
AcDbEntity
  8
IMPORTED
  6
CONTINUOUS
 62
              30
100
AcDbLine
 10
-398.47106763302213
 20
424.07100501001969
 30
0.0
 11
-398.32086763302209
 21
427.08320501001981
 31
0.0
  0
LINE
  5
361
100
AcDbEntity
  8
IMPORTED
  6
CONTINUOUS
 62
              30
100
AcDbLine
 10
-398.20706763302246
 20
429.36640501001966
 30
0.0
 11
-398.00786763302244
 21
433.36140501001978
 31
0.0
  0
LINE
  5
362
100
AcDbEntity
  8
IMPORTED
  6
CONTINUOUS
 62
              30
100
AcDbLine
 10
-397.89406763302236
 20
435.64450501001966
 30
0.0
 11
-397.74396763302207
 21
438.65680501001975
 31
0.0
  0
CIRCLE
  5
363
100
AcDbEntity
  8
IMPORTED
  6
CONTINUOUS
 62
              30
100
AcDbCircle
 10
-448.05416763302242
 20
433.67310501001975
 30
0.0
 40
4.0
  0
LINE
  5
364
100
AcDbEntity
  8
IMPORTED
  6
CONTINUOUS
 62
              30
100
AcDbLine
 10
-455.34706763302233
 20
434.03660501001968
 30
0.0
 11
-452.33486763302221
 21
433.88640501001987
 31
0.0
  0
LINE
  5
365
100
AcDbEntity
  8
IMPORTED
  6
CONTINUOUS
 62
              30
100
AcDbLine
 10
-450.05166763302236
 20
433.77250501001981
 30
0.0
 11
-446.05666763302247
 21
433.57350501001974
 31
0.0
  0
LINE
  5
366
100
AcDbEntity
  8
IMPORTED
  6
CONTINUOUS
 62
              30
100
AcDbLine
 10
-448.41766763302235
 20
426.38020501001984
 30
0.0
 11
-448.26746763302231
 21
429.39240501001973
 31
0.0
  0
LINE
  5
367
100
AcDbEntity
  8
IMPORTED
  6
CONTINUOUS
 62
              30
100
AcDbLine
 10
-448.15356763302202
 20
431.67560501001981
 30
0.0
 11
-447.95456763302241
 21
435.6706050100197
 31
0.0
  0
LINE
  5
368
100
AcDbEntity
  8
IMPORTED
  6
CONTINUOUS
 62
              30
100
AcDbLine
 10
-447.84076763302232
 20
437.95380501001978
 30
0.0
 11
-447.69056763302228
 21
440.96600501001967
 31
0.0
  0
LINE
  5
369
100
AcDbEntity
  8
IMPORTED
  6
CONTINUOUS
 62
              30
100
AcDbLine
 10
842.80573236697728
 20
-236.24999498998005
 30
0.0
 11
845.66193236697745
 21
-235.28119498997995
 31
0.0
  0
LINE
  5
36A
100
AcDbEntity
  8
IMPORTED
  6
CONTINUOUS
 62
              30
100
AcDbLine
 10
861.63463236697726
 20
-305.89209498998059
 30
0.0
 11
860.34983236697735
 21
-302.10389498998063
 31
0.0
  0
CIRCLE
  5
36B
100
AcDbEntity
  8
IMPORTED
  6
CONTINUOUS
 62
              30
100
AcDbCircle
 10
860.99233236697728
 20
-303.99789498998064
 30
0.0
 40
4.0
  0
LINE
  5
36C
100
AcDbEntity
  8
IMPORTED
  6
CONTINUOUS
 62
              30
100
AcDbLine
 10
865.0511323669773
 20
-302.62119498998061
 30
0.0
 11
867.90733236697724
 21
-301.65239498998062
 31
0.0
  0
LINE
  5
36D
100
AcDbEntity
  8
IMPORTED
  6
CONTINUOUS
 62
              30
100
AcDbLine
 10
859.0982323669773
 20
-304.64039498998068
 30
0.0
 11
862.88623236697731
 21
-303.3553949899806
 31
0.0
  0
LINE
  5
36E
100
AcDbEntity
  8
IMPORTED
  6
CONTINUOUS
 62
              30
100
AcDbLine
 10
854.07723236697734
 20
-306.34339498998071
 30
0.0
 11
856.93343236697729
 21
-305.37459498998066
 31
0.0
  0
LINE
  5
36F
100
AcDbEntity
  8
IMPORTED
  6
CONTINUOUS
 62
              30
100
AcDbLine
 10
863.33773236697732
 20
-310.91299498998069
 30
0.0
 11
862.36893236697733
 21
-308.05679498998069
 31
0.0
  0
LINE
  5
370
100
AcDbEntity
  8
IMPORTED
  6
CONTINUOUS
 62
              30
100
AcDbLine
 10
859.61563236697725
 20
-299.93909498998062
 30
0.0
 11
858.64683236697738
 21
-297.08289498998067
 31
0.0
  0
CIRCLE
  5
371
100
AcDbEntity
  8
IMPORTED
  6
CONTINUOUS
 62
              30
100
AcDbCircle
 10
838.7468323669774
 20
-237.62669498998002
 30
0.0
 40
3.9999999999999432
  0
LINE
  5
372
100
AcDbEntity
  8
IMPORTED
  6
CONTINUOUS
 62
              30
100
AcDbLine
 10
841.09223236697744
 20
-244.54169498998016
 30
0.0
 11
840.1236323669774
 21
-241.68549498998007
 31
0.0
  0
LINE
  5
373
100
AcDbEntity
  8
IMPORTED
  6
CONTINUOUS
 62
              30
100
AcDbLine
 10
836.8528323669774
 20
-238.26919498998006
 30
0.0
 11
840.64083236697741
 21
-236.9841949899801
 31
0.0
  0
LINE
  5
374
100
AcDbEntity
  8
IMPORTED
  6
CONTINUOUS
 62
              30
100
AcDbLine
 10
831.83173236697758
 20
-239.97209498998006
 30
0.0
 11
834.68793236697741
 21
-239.00329498998008
 31
0.0
  0
LINE
  5
375
100
AcDbEntity
  8
IMPORTED
  6
CONTINUOUS
 62
              30
100
AcDbLine
 10
839.38933236697744
 20
-239.52059498998005
 30
0.0
 11
838.10433236697747
 21
-235.73259498997999
 31
0.0
  0
LINE
  5
376
100
AcDbEntity
  8
IMPORTED
  6
CONTINUOUS
 62
              30
100
AcDbLine
 10
837.37023236697746
 20
-233.56769498998
 30
0.0
 11
836.40143236697747
 21
-230.71149498998
 31
0.0
  0
CIRCLE
  5
377
100
AcDbEntity
  8
IMPORTED
  6
CONTINUOUS
 62
              30
100
AcDbCircle
 10
817.34283236697752
 20
-182.37639498997976
 30
0.0
 40
4.0
  0
LINE
  5
378
100
AcDbEntity
  8
IMPORTED
  6
CONTINUOUS
 62
              30
100
AcDbLine
 10
816.54163236697752
 20
-180.54399498997978
 30
0.0
 11
818.14403236697751
 21
-184.20899498997971
 31
0.0
  0
LINE
  5
379
100
AcDbEntity
  8
IMPORTED
  6
CONTINUOUS
 62
              30
100
AcDbLine
 10
819.0598323669775
 20
-186.30349498997975
 30
0.0
 11
820.2682323669776
 21
-189.06689498997969
 31
0.0
  0
LINE
  5
37A
100
AcDbEntity
  8
IMPORTED
  6
CONTINUOUS
 62
              30
100
AcDbLine
 10
810.65243236697756
 20
-185.30179498997973
 30
0.0
 11
813.4158323669775
 21
-184.09339498997974
 31
0.0
  0
LINE
  5
37B
100
AcDbEntity
  8
IMPORTED
  6
CONTINUOUS
 62
              30
100
AcDbLine
 10
815.51033236697754
 20
-183.17759498997975
 30
0.0
 11
819.1753323669775
 21
-181.57519498997979
 31
0.0
  0
LINE
  5
37C
100
AcDbEntity
  8
IMPORTED
  6
CONTINUOUS
 62
              30
100
AcDbLine
 10
821.26983236697754
 20
-180.65949498997978
 30
0.0
 11
824.03323236697747
 21
-179.45109498997979
 31
0.0
  0
LINE
  5
37D
100
AcDbEntity
  8
IMPORTED
  6
CONTINUOUS
 62
              30
100
AcDbLine
 10
814.41753236697753
 20
-175.68599498997972
 30
0.0
 11
815.62573236697756
 21
-178.44939498997977
 31
0.0
  0
CIRCLE
  5
37E
100
AcDbEntity
  8
IMPORTED
  6
CONTINUOUS
 62
              30
100
AcDbCircle
 10
585.04363236697759
 20
-274.01509498998041
 30
0.0
 40
4.0
  0
LINE
  5
37F
100
AcDbEntity
  8
IMPORTED
  6
CONTINUOUS
 62
              30
100
AcDbLine
 10
583.21113236697761
 20
-274.81639498998038
 30
0.0
 11
586.87613236697757
 21
-273.21399498998039
 31
0.0
  0
LINE
  5
380
100
AcDbEntity
  8
IMPORTED
  6
CONTINUOUS
 62
              30
100
AcDbLine
 10
625.28753236697753
 20
-372.43509498998043
 30
0.0
 11
628.14373236697747
 21
-371.4662949899805
 31
0.0
  0
LINE
  5
381
100
AcDbEntity
  8
IMPORTED
  6
CONTINUOUS
 62
              30
100
AcDbLine
 10
619.33463236697753
 20
-374.45409498998043
 30
0.0
 11
623.12263236697754
 21
-373.16929498998047
 31
0.0
  0
LINE
  5
382
100
AcDbEntity
  8
IMPORTED
  6
CONTINUOUS
 62
              30
100
AcDbLine
 10
614.31363236697757
 20
-376.15719498998044
 30
0.0
 11
617.16983236697752
 21
-375.18839498998045
 31
0.0
  0
LINE
  5
383
100
AcDbEntity
  8
IMPORTED
  6
CONTINUOUS
 62
              30
100
AcDbLine
 10
621.87103236697749
 20
-375.70579498998046
 30
0.0
 11
620.58623236697758
 21
-371.91779498998045
 31
0.0
  0
LINE
  5
384
100
AcDbEntity
  8
IMPORTED
  6
CONTINUOUS
 62
              30
100
AcDbLine
 10
623.57403236697746
 20
-380.72679498998042
 30
0.0
 11
622.60523236697759
 21
-377.87059498998042
 31
0.0
  0
CIRCLE
  5
385
100
AcDbEntity
  8
IMPORTED
  6
CONTINUOUS
 62
              30
100
AcDbCircle
 10
621.22863236697754
 20
-373.81179498998046
 30
0.0
 40
4.0
  0
LINE
  5
386
100
AcDbEntity
  8
IMPORTED
  6
CONTINUOUS
 62
              30
100
AcDbLine
 10
619.85193236697751
 20
-369.75289498998052
 30
0.0
 11
618.88313236697763
 21
-366.89669498998052
 31
0.0
  0
LINE
  5
387
100
AcDbEntity
  8
IMPORTED
  6
CONTINUOUS
 62
              30
100
AcDbLine
 10
609.39793236697756
 20
-325.02709498998075
 30
0.0
 11
612.2541323669775
 21
-324.05829498998077
 31
0.0
  0
LINE
  5
388
100
AcDbEntity
  8
IMPORTED
  6
CONTINUOUS
 62
              30
100
AcDbLine
 10
603.44503236697756
 20
-327.0460949899807
 30
0.0
 11
607.23303236697757
 21
-325.76129498998074
 31
0.0
  0
LINE
  5
389
100
AcDbEntity
  8
IMPORTED
  6
CONTINUOUS
 62
              30
100
AcDbLine
 10
598.4240323669776
 20
-328.74919498998077
 30
0.0
 11
601.28023236697754
 21
-327.78039498998078
 31
0.0
  0
LINE
  5
38A
100
AcDbEntity
  8
IMPORTED
  6
CONTINUOUS
 62
              30
100
AcDbLine
 10
603.96243236697751
 20
-322.34499498998071
 30
0.0
 11
602.99363236697764
 21
-319.48879498998076
 31
0.0
  0
LINE
  5
38B
100
AcDbEntity
  8
IMPORTED
  6
CONTINUOUS
 62
              30
100
AcDbLine
 10
605.98153236697749
 20
-328.2978949899807
 30
0.0
 11
604.69673236697759
 21
-324.5096949899808
 31
0.0
  0
LINE
  5
38C
100
AcDbEntity
  8
IMPORTED
  6
CONTINUOUS
 62
              30
100
AcDbLine
 10
607.68453236697746
 20
-333.31889498998078
 30
0.0
 11
606.71573236697759
 21
-330.46269498998072
 31
0.0
  0
CIRCLE
  5
38D
100
AcDbEntity
  8
IMPORTED
  6
CONTINUOUS
 62
              30
100
AcDbCircle
 10
605.33903236697756
 20
-326.40379498998078
 30
0.0
 40
4.0
  0
LINE
  5
38E
100
AcDbEntity
  8
IMPORTED
  6
CONTINUOUS
 62
              30
100
AcDbLine
 10
586.76073236697766
 20
-277.94209498998049
 30
0.0
 11
587.96893236697747
 21
-280.70549498998048
 31
0.0
  0
LINE
  5
38F
100
AcDbEntity
  8
IMPORTED
  6
CONTINUOUS
 62
              30
100
AcDbLine
 10
588.9706323669775
 20
-272.29809498998043
 30
0.0
 11
591.73403236697754
 21
-271.08969498998044
 31
0.0
  0
LINE
  5
390
100
AcDbEntity
  8
IMPORTED
  6
CONTINUOUS
 62
              30
100
AcDbLine
 10
582.11823236697751
 20
-267.3246949899804
 30
0.0
 11
583.32663236697749
 21
-270.08809498998039
 31
0.0
  0
LINE
  5
391
100
AcDbEntity
  8
IMPORTED
  6
CONTINUOUS
 62
              30
100
AcDbLine
 10
584.24233236697751
 20
-272.18259498998043
 30
0.0
 11
585.84493236697767
 21
-275.84759498998039
 31
0.0
  0
CIRCLE
  5
392
100
AcDbEntity
  8
IMPORTED
  6
CONTINUOUS
 62
              30
100
AcDbCircle
 10
789.0684323669775
 20
-118.34079498997998
 30
0.0
 40
4.0
  0
LINE
  5
393
100
AcDbEntity
  8
IMPORTED
  6
CONTINUOUS
 62
              30
100
AcDbLine
 10
790.7854323669776
 20
-122.26779498997999
 30
0.0
 11
791.99383236697759
 21
-125.03119498998002
 31
0.0
  0
LINE
  5
394
100
AcDbEntity
  8
IMPORTED
  6
CONTINUOUS
 62
              30
100
AcDbLine
 10
786.14303236697754
 20
-111.65039498998004
 30
0.0
 11
787.35123236697757
 21
-114.41379498997996
 31
0.0
  0
LINE
  5
395
100
AcDbEntity
  8
IMPORTED
  6
CONTINUOUS
 62
              30
100
AcDbLine
 10
788.26703236697756
 20
-116.50829498998
 30
0.0
 11
789.8696323669775
 21
-120.17329498997996
 31
0.0
  0
LINE
  5
396
100
AcDbEntity
  8
IMPORTED
  6
CONTINUOUS
 62
              30
100
AcDbLine
 10
782.37793236697757
 20
-121.26619498997994
 30
0.0
 11
785.14133236697751
 21
-120.05779498997997
 31
0.0
  0
LINE
  5
397
100
AcDbEntity
  8
IMPORTED
  6
CONTINUOUS
 62
              30
100
AcDbLine
 10
787.23583236697755
 20
-119.14209498997995
 30
0.0
 11
790.90083236697751
 21
-117.53969498997995
 31
0.0
  0
LINE
  5
398
100
AcDbEntity
  8
IMPORTED
  6
CONTINUOUS
 62
              30
100
AcDbLine
 10
792.99543236697752
 20
-116.62389498997997
 30
0.0
 11
795.75883236697757
 21
-115.41549498997999
 31
0.0
  0
LINE
  5
399
100
AcDbEntity
  8
IMPORTED
  6
CONTINUOUS
 62
              30
100
AcDbLine
 10
764.73003236697753
 20
-69.053494989980052
 30
0.0
 11
766.18823236697756
 21
-71.693694989979988
 31
0.0
  0
LINE
  5
39A
100
AcDbEntity
  8
IMPORTED
  6
CONTINUOUS
 62
              30
100
AcDbLine
 10
761.69103236697754
 20
-63.550894989980009
 30
0.0
 11
763.62483236697756
 21
-67.052494989980062
 31
0.0
  0
LINE
  5
39B
100
AcDbEntity
  8
IMPORTED
  6
CONTINUOUS
 62
              30
100
AcDbLine
 10
756.26593236697749
 20
-68.831894989980086
 30
0.0
 11
758.90613236697754
 21
-67.373694989980052
 31
0.0
  0
LINE
  5
39C
100
AcDbEntity
  8
IMPORTED
  6
CONTINUOUS
 62
              30
100
AcDbLine
 10
760.90713236697752
 20
-66.268594989980045
 30
0.0
 11
764.40873236697757
 21
-64.334794989980026
 31
0.0
  0
LINE
  5
39D
100
AcDbEntity
  8
IMPORTED
  6
CONTINUOUS
 62
              30
100
AcDbLine
 10
766.40973236697755
 20
-63.229694989980032
 30
0.0
 11
769.0499323669776
 21
-61.771494989979999
 31
0.0
  0
LINE
  5
39E
100
AcDbEntity
  8
IMPORTED
  6
CONTINUOUS
 62
              30
100
AcDbLine
 10
759.12773236697751
 20
-58.909794989980057
 30
0.0
 11
760.58593236697754
 21
-61.549794989980057
 31
0.0
  0
CIRCLE
  5
39F
100
AcDbEntity
  8
IMPORTED
  6
CONTINUOUS
 62
              30
100
AcDbCircle
 10
762.65793236697755
 20
-65.30159498998006
 30
0.0
 40
4.0
  0
LINE
  5
3A0
100
AcDbEntity
  8
IMPORTED
  6
CONTINUOUS
 62
              30
100
AcDbLine
 10
730.6676323669775
 20
-7.8997949899800233
 30
0.0
 11
732.12583236697753
 21
-10.539994989979959
 31
0.0
  0
LINE
  5
3A1
100
AcDbEntity
  8
IMPORTED
  6
CONTINUOUS
 62
              30
100
AcDbLine
 10
722.20363236697756
 20
-7.6782949899799178
 30
0.0
 11
724.84383236697749
 21
-6.220094989979998
 31
0.0
  0
LINE
  5
3A2
100
AcDbEntity
  8
IMPORTED
  6
CONTINUOUS
 62
              30
100
AcDbLine
 10
726.84483236697758
 20
-5.1149949899800049
 30
0.0
 11
730.34643236697752
 21
-3.181194989980014
 31
0.0
  0
CIRCLE
  5
3A3
100
AcDbEntity
  8
IMPORTED
  6
CONTINUOUS
 62
              30
100
AcDbCircle
 10
728.5956323669775
 20
-4.1480949899799953
 30
0.0
 40
4.0
  0
LINE
  5
3A4
100
AcDbEntity
  8
IMPORTED
  6
CONTINUOUS
 62
              30
100
AcDbLine
 10
727.6287323669776
 20
-2.3971949899800222
 30
0.0
 11
729.56253236697751
 21
-5.8987949899799332
 31
0.0
  0
LINE
  5
3A5
100
AcDbEntity
  8
IMPORTED
  6
CONTINUOUS
 62
              30
100
AcDbLine
 10
725.06543236697757
 20
2.2439050100200006
 30
0.0
 11
726.52343236697754
 21
-0.3962949899800208
 31
0.0
  0
LINE
  5
3A6
100
AcDbEntity
  8
IMPORTED
  6
CONTINUOUS
 62
              30
100
AcDbLine
 10
732.3474323669775
 20
-2.076094989980021
 30
0.0
 11
734.98763236697755
 21
-0.6178949899799875
 31
0.0
  0
LINE
  5
3A7
100
AcDbEntity
  8
IMPORTED
  6
CONTINUOUS
 62
              30
100
AcDbLine
 10
651.83533236697758
 20
99.829405010019684
 30
0.0
 11
654.31733236697755
 21
101.54280501001978
 31
0.0
  0
CIRCLE
  5
3A8
100
AcDbEntity
  8
IMPORTED
  6
CONTINUOUS
 62
              30
100
AcDbCircle
 10
657.84463236697752
 20
103.97770501001978
 30
0.0
 40
4.0
  0
LINE
  5
3A9
100
AcDbEntity
  8
IMPORTED
  6
CONTINUOUS
 62
              30
100
AcDbLine
 10
698.54033236697751
 20
44.581905010019767
 30
0.0
 11
696.26793236697745
 21
47.873705010019705
 31
0.0
  0
CIRCLE
  5
3AA
100
AcDbEntity
  8
IMPORTED
  6
CONTINUOUS
 62
              30
100
AcDbCircle
 10
697.40413236697759
 20
46.227905010019697
 30
0.0
 40
4.0
  0
LINE
  5
3AB
100
AcDbEntity
  8
IMPORTED
  6
CONTINUOUS
 62
              30
100
AcDbLine
 10
700.93133236697759
 20
48.662805010019781
 30
0.0
 11
703.41333236697756
 21
50.37620501001976
 31
0.0
  0
LINE
  5
3AC
100
AcDbEntity
  8
IMPORTED
  6
CONTINUOUS
 62
              30
100
AcDbLine
 10
701.55243236697765
 20
40.218605010019814
 30
0.0
 11
699.83903236697756
 21
42.700605010019757
 31
0.0
  0
LINE
  5
3AD
100
AcDbEntity
  8
IMPORTED
  6
CONTINUOUS
 62
              30
100
AcDbLine
 10
695.75823236697761
 20
45.091605010019691
 30
0.0
 11
699.05003236697758
 21
47.364205010019703
 31
0.0
  0
LINE
  5
3AE
100
AcDbEntity
  8
IMPORTED
  6
CONTINUOUS
 62
              30
100
AcDbLine
 10
691.39493236697763
 20
42.079605010019776
 30
0.0
 11
693.8769323669776
 21
43.793005010019755
 31
0.0
  0
LINE
  5
3AF
100
AcDbEntity
  8
IMPORTED
  6
CONTINUOUS
 62
              30
100
AcDbLine
 10
694.9693323669776
 20
49.755005010019715
 30
0.0
 11
693.2559323669775
 21
52.237005010019658
 31
0.0
  0
LINE
  5
3B0
100
AcDbEntity
  8
IMPORTED
  6
CONTINUOUS
 62
              30
100
AcDbLine
 10
661.99293236697758
 20
97.968505010019783
 30
0.0
 11
660.27953236697749
 21
100.45050501001975
 31
0.0
  0
LINE
  5
3B1
100
AcDbEntity
  8
IMPORTED
  6
CONTINUOUS
 62
              30
100
AcDbLine
 10
661.37173236697754
 20
106.41260501001975
 30
0.0
 11
663.85373236697751
 21
108.12600501001978
 31
0.0
  0
LINE
  5
3B2
100
AcDbEntity
  8
IMPORTED
  6
CONTINUOUS
 62
              30
100
AcDbLine
 10
656.19863236697756
 20
102.84140501001977
 30
0.0
 11
659.49043236697753
 21
105.11400501001978
 31
0.0
  0
LINE
  5
3B3
100
AcDbEntity
  8
IMPORTED
  6
CONTINUOUS
 62
              30
100
AcDbLine
 10
655.40963236697758
 20
107.50490501001977
 30
0.0
 11
653.69623236697748
 21
109.9869050100198
 31
0.0
  0
LINE
  5
3B4
100
AcDbEntity
  8
IMPORTED
  6
CONTINUOUS
 62
              30
100
AcDbLine
 10
658.98083236697744
 20
102.33180501001976
 30
0.0
 11
656.70823236697765
 21
105.62360501001976
 31
0.0
  0
LINE
  5
3B5
100
AcDbEntity
  8
IMPORTED
  6
CONTINUOUS
 62
              30
100
AcDbLine
 10
566.56463236697755
 20
-232.20249498998001
 30
0.0
 11
567.77303236697753
 21
-234.96589498997997
 31
0.0
  0
LINE
  5
3B6
100
AcDbEntity
  8
IMPORTED
  6
CONTINUOUS
 62
              30
100
AcDbLine
 10
578.35323236697764
 20
-276.94049498998044
 30
0.0
 11
581.11663236697746
 21
-275.73229498998035
 31
0.0
  0
LINE
  5
3B7
100
AcDbEntity
  8
IMPORTED
  6
CONTINUOUS
 62
              30
100
AcDbLine
 10
561.92233236697757
 20
-221.58509498997995
 30
0.0
 11
563.1305323669776
 21
-224.34849498997991
 31
0.0
  0
LINE
  5
3B8
100
AcDbEntity
  8
IMPORTED
  6
CONTINUOUS
 62
              30
100
AcDbLine
 10
564.04643236697757
 20
-226.44299498997995
 30
0.0
 11
565.64883236697756
 21
-230.10799498997994
 31
0.0
  0
LINE
  5
3B9
100
AcDbEntity
  8
IMPORTED
  6
CONTINUOUS
 62
              30
100
AcDbLine
 10
558.1572323669775
 20
-231.20079498997995
 30
0.0
 11
560.92063236697754
 21
-229.99259498997992
 31
0.0
  0
LINE
  5
3BA
100
AcDbEntity
  8
IMPORTED
  6
CONTINUOUS
 62
              30
100
AcDbLine
 10
563.01513236697747
 20
-229.07669498997996
 30
0.0
 11
566.68013236697766
 21
-227.47429498997997
 31
0.0
  0
LINE
  5
3BB
100
AcDbEntity
  8
IMPORTED
  6
CONTINUOUS
 62
              30
100
AcDbLine
 10
568.77463236697758
 20
-226.55839498997997
 30
0.0
 11
571.53803236697763
 21
-225.34999498997988
 31
0.0
  0
CIRCLE
  5
3BC
100
AcDbEntity
  8
IMPORTED
  6
CONTINUOUS
 62
              30
100
AcDbCircle
 10
564.84763236697768
 20
-228.27549498997996
 30
0.0
 40
4.0
  0
LINE
  5
3BD
100
AcDbEntity
  8
IMPORTED
  6
CONTINUOUS
 62
              30
100
AcDbLine
 10
543.55693236697766
 20
-175.91139498997975
 30
0.0
 11
546.19713236697748
 21
-174.45319498997972
 31
0.0
  0
LINE
  5
3BE
100
AcDbEntity
  8
IMPORTED
  6
CONTINUOUS
 62
              30
100
AcDbLine
 10
536.27483236697753
 20
-171.59139498997973
 30
0.0
 11
537.73303236697757
 21
-174.23159498997975
 31
0.0
  0
LINE
  5
3BF
100
AcDbEntity
  8
IMPORTED
  6
CONTINUOUS
 62
              30
100
AcDbLine
 10
538.83823236697754
 20
-176.23249498997976
 30
0.0
 11
540.77203236697756
 21
-179.73409498997981
 31
0.0
  0
LINE
  5
3C0
100
AcDbEntity
  8
IMPORTED
  6
CONTINUOUS
 62
              30
100
AcDbLine
 10
533.41323236697758
 20
-181.51359498997979
 30
0.0
 11
536.05323236697745
 21
-180.05559498997971
 31
0.0
  0
LINE
  5
3C1
100
AcDbEntity
  8
IMPORTED
  6
CONTINUOUS
 62
              30
100
AcDbLine
 10
538.05443236697761
 20
-178.95029498997977
 30
0.0
 11
541.55583236697748
 21
-177.01649498997975
 31
0.0
  0
CIRCLE
  5
3C2
100
AcDbEntity
  8
IMPORTED
  6
CONTINUOUS
 62
              30
100
AcDbCircle
 10
539.80503236697746
 20
-177.98339498997976
 30
0.0
 40
4.0
  0
LINE
  5
3C3
100
AcDbEntity
  8
IMPORTED
  6
CONTINUOUS
 62
              30
100
AcDbLine
 10
541.87723236697752
 20
-181.73509498997979
 30
0.0
 11
543.33523236697761
 21
-184.37529498997969
 31
0.0
  0
LINE
  5
3C4
100
AcDbEntity
  8
IMPORTED
  6
CONTINUOUS
 62
              30
100
AcDbLine
 10
517.54693236697744
 20
-138.05409498997992
 30
0.0
 11
519.00513236697748
 21
-140.69429498997997
 31
0.0
  0
CIRCLE
  5
3C5
100
AcDbEntity
  8
IMPORTED
  6
CONTINUOUS
 62
              30
100
AcDbCircle
 10
515.47493236697755
 20
-134.30229498997994
 30
0.0
 40
4.0
  0
LINE
  5
3C6
100
AcDbEntity
  8
IMPORTED
  6
CONTINUOUS
 62
              30
100
AcDbLine
 10
511.94473236697763
 20
-127.91039498998001
 30
0.0
 11
513.40273236697749
 21
-130.55039498997996
 31
0.0
  0
LINE
  5
3C7
100
AcDbEntity
  8
IMPORTED
  6
CONTINUOUS
 62
              30
100
AcDbLine
 10
514.50793236697768
 20
-132.55159498998
 30
0.0
 11
516.44173236697748
 21
-136.05299498997999
 31
0.0
  0
LINE
  5
3C8
100
AcDbEntity
  8
IMPORTED
  6
CONTINUOUS
 62
              30
100
AcDbLine
 10
509.08303236697748
 20
-137.83249498997995
 30
0.0
 11
511.72303236697758
 21
-136.37449498998001
 31
0.0
  0
LINE
  5
3C9
100
AcDbEntity
  8
IMPORTED
  6
CONTINUOUS
 62
              30
100
AcDbLine
 10
513.7242323669775
 20
-135.26919498997995
 30
0.0
 11
517.22563236697761
 21
-133.33539498997993
 31
0.0
  0
LINE
  5
3CA
100
AcDbEntity
  8
IMPORTED
  6
CONTINUOUS
 62
              30
100
AcDbLine
 10
519.22673236697756
 20
-132.23029498997994
 30
0.0
 11
521.86693236697761
 21
-130.77209498997991
 31
0.0
  0
LINE
  5
3CB
100
AcDbEntity
  8
IMPORTED
  6
CONTINUOUS
 62
              30
100
AcDbLine
 10
455.99603236697749
 20
-46.421694989979997
 30
0.0
 11
459.28783236697768
 21
-44.149294989979921
 31
0.0
  0
LINE
  5
3CC
100
AcDbEntity
  8
IMPORTED
  6
CONTINUOUS
 62
              30
100
AcDbLine
 10
458.77823236697759
 20
-46.931494989980038
 30
0.0
 11
456.50583236697753
 21
-43.639694989979944
 31
0.0
  0
CIRCLE
  5
3CD
100
AcDbEntity
  8
IMPORTED
  6
CONTINUOUS
 62
              30
100
AcDbCircle
 10
457.64203236697745
 20
-45.285494989979966
 30
0.0
 40
4.0
  0
CIRCLE
  5
3CE
100
AcDbEntity
  8
IMPORTED
  6
CONTINUOUS
 62
              30
100
AcDbCircle
 10
485.89883236697756
 20
-86.535394989980063
 30
0.0
 40
4.0
  0
LINE
  5
3CF
100
AcDbEntity
  8
IMPORTED
  6
CONTINUOUS
 62
              30
100
AcDbLine
 10
490.04713236697762
 20
-92.544594989980013
 30
0.0
 11
488.33373236697753
 21
-90.062594989980056
 31
0.0
  0
LINE
  5
3D0
100
AcDbEntity
  8
IMPORTED
  6
CONTINUOUS
 62
              30
100
AcDbLine
 10
489.42603236697755
 20
-84.100394989979989
 30
0.0
 11
491.90803236697752
 21
-82.386994989980025
 31
0.0
  0
LINE
  5
3D1
100
AcDbEntity
  8
IMPORTED
  6
CONTINUOUS
 62
              30
100
AcDbLine
 10
484.25293236697757
 20
-87.671494989980005
 30
0.0
 11
487.54473236697754
 21
-85.399094989980043
 31
0.0
  0
LINE
  5
3D2
100
AcDbEntity
  8
IMPORTED
  6
CONTINUOUS
 62
              30
100
AcDbLine
 10
479.88963236697759
 20
-90.683594989980037
 30
0.0
 11
482.37163236697756
 21
-88.970194989980044
 31
0.0
  0
LINE
  5
3D3
100
AcDbEntity
  8
IMPORTED
  6
CONTINUOUS
 62
              30
100
AcDbLine
 10
487.0349323669775
 20
-88.181294989980032
 30
0.0
 11
484.76253236697767
 21
-84.889494989980065
 31
0.0
  0
LINE
  5
3D4
100
AcDbEntity
  8
IMPORTED
  6
CONTINUOUS
 62
              30
100
AcDbLine
 10
461.16923236697767
 20
-42.850594989979982
 30
0.0
 11
463.65123236697764
 21
-41.137194989980003
 31
0.0
  0
LINE
  5
3D5
100
AcDbEntity
  8
IMPORTED
  6
CONTINUOUS
 62
              30
100
AcDbLine
 10
461.79033236697751
 20
-51.294794989980034
 30
0.0
 11
460.07693236697764
 21
-48.812794989979935
 31
0.0
  0
LINE
  5
3D6
100
AcDbEntity
  8
IMPORTED
  6
CONTINUOUS
 62
              30
100
AcDbLine
 10
483.46393236697759
 20
-83.008094989980094
 30
0.0
 11
481.7505323669775
 21
-80.52609498998001
 31
0.0
  0
LINE
  5
3D7
100
AcDbEntity
  8
IMPORTED
  6
CONTINUOUS
 62
              30
100
AcDbLine
 10
451.63283236697748
 20
-49.433794989980029
 30
0.0
 11
454.11483236697745
 21
-47.720394989979937
 31
0.0
  0
LINE
  5
3D8
100
AcDbEntity
  8
IMPORTED
  6
CONTINUOUS
 62
              30
100
AcDbLine
 10
455.20713236697748
 20
-41.758394989979934
 30
0.0
 11
453.49373236697761
 21
-39.276394989979948
 31
0.0
  0
LINE
  5
3D9
100
AcDbEntity
  8
IMPORTED
  6
CONTINUOUS
 62
              30
100
AcDbLine
 10
427.07223236697769
 20
2.2989050100199506
 30
0.0
 11
429.38563236697769
 21
4.2339050100200097
 31
0.0
  0
LINE
  5
3DA
100
AcDbEntity
  8
IMPORTED
  6
CONTINUOUS
 62
              30
100
AcDbLine
 10
422.25073236697767
 20
-1.7342949899799862
 30
0.0
 11
425.31873236697766
 21
0.8321050100199443
 31
0.0
  0
LINE
  5
3DB
100
AcDbEntity
  8
IMPORTED
  6
CONTINUOUS
 62
              30
100
AcDbLine
 10
418.18393236697761
 20
-5.1361949899800265
 30
0.0
 11
420.49713236697767
 21
-3.2009949899800461
 31
0.0
  0
LINE
  5
3DC
100
AcDbEntity
  8
IMPORTED
  6
CONTINUOUS
 62
              30
100
AcDbLine
 10
425.06793236697763
 20
-1.9851949899799877
 30
0.0
 11
422.50153236697747
 21
1.082805010019996
 31
0.0
  0
LINE
  5
3DD
100
AcDbEntity
  8
IMPORTED
  6
CONTINUOUS
 62
              30
100
AcDbLine
 10
428.46983236697747
 20
-6.0518949899799281
 30
0.0
 11
426.53463236697758
 21
-3.7386949899800186
 31
0.0
  0
CIRCLE
  5
3DE
100
AcDbEntity
  8
IMPORTED
  6
CONTINUOUS
 62
              30
100
AcDbCircle
 10
423.78473236697755
 20
-0.4511949899799959
 30
0.0
 40
4.0
  0
LINE
  5
3DF
100
AcDbEntity
  8
IMPORTED
  6
CONTINUOUS
 62
              30
100
AcDbLine
 10
421.03463236697758
 20
2.8363050100199985
 30
0.0
 11
419.09963236697763
 21
5.1497050100199999
 31
0.0
  0
LINE
  5
3E0
100
AcDbEntity
  8
IMPORTED
  6
CONTINUOUS
 62
              30
100
AcDbLine
 10
623.42123236697762
 20
149.72680501002023
 30
0.0
 11
620.85483236697746
 21
152.79500501002022
 31
0.0
  0
LINE
  5
3E1
100
AcDbEntity
  8
IMPORTED
  6
CONTINUOUS
 62
              30
100
AcDbLine
 10
620.60393236697746
 20
149.97770501002023
 30
0.0
 11
623.67213236697762
 21
152.54430501002022
 31
0.0
  0
LINE
  5
3E2
100
AcDbEntity
  8
IMPORTED
  6
CONTINUOUS
 62
              30
100
AcDbLine
 10
616.53723236697761
 20
146.57600501002017
 30
0.0
 11
618.85063236697761
 21
148.51100501002011
 31
0.0
  0
LINE
  5
3E3
100
AcDbEntity
  8
IMPORTED
  6
CONTINUOUS
 62
              30
100
AcDbLine
 10
626.82313236697746
 20
145.6601050100202
 30
0.0
 11
624.88793236697757
 21
147.9735050100202
 31
0.0
  0
LINE
  5
3E4
100
AcDbEntity
  8
IMPORTED
  6
CONTINUOUS
 62
              30
100
AcDbLine
 10
619.38813236697752
 20
154.54840501002028
 30
0.0
 11
617.45313236697757
 21
156.86180501002016
 31
0.0
  0
CIRCLE
  5
3E5
100
AcDbEntity
  8
IMPORTED
  6
CONTINUOUS
 62
              30
100
AcDbCircle
 10
622.13803236697754
 20
151.26100501002017
 30
0.0
 40
4.0
  0
LINE
  5
3E6
100
AcDbEntity
  8
IMPORTED
  6
CONTINUOUS
 62
              30
100
AcDbLine
 10
625.42543236697747
 20
154.01100501002023
 30
0.0
 11
627.73883236697748
 21
155.94600501002029
 31
0.0
  0
LINE
  5
3E7
100
AcDbEntity
  8
IMPORTED
  6
CONTINUOUS
 62
              30
100
AcDbLine
 10
491.02363236697761
 20
301.44060501001968
 30
0.0
 11
493.14863236697761
 21
303.58080501001973
 31
0.0
  0
LINE
  5
3E8
100
AcDbEntity
  8
IMPORTED
  6
CONTINUOUS
 62
              30
100
AcDbLine
 10
484.96233236697753
 20
301.4188050100197
 30
0.0
 11
482.82213236697748
 21
303.5438050100197
 31
0.0
  0
CIRCLE
  5
3E9
100
AcDbEntity
  8
IMPORTED
  6
CONTINUOUS
 62
              30
100
AcDbCircle
 10
577.41873236697757
 20
205.11440501002042
 30
0.0
 40
4.0
  0
LINE
  5
3EA
100
AcDbEntity
  8
IMPORTED
  6
CONTINUOUS
 62
              30
100
AcDbLine
 10
582.10383236697749
 20
199.51350501002051
 30
0.0
 11
580.16883236697754
 21
201.82690501002051
 31
0.0
  0
LINE
  5
3EB
100
AcDbEntity
  8
IMPORTED
  6
CONTINUOUS
 62
              30
100
AcDbLine
 10
580.7061323669775
 20
207.86430501002039
 30
0.0
 11
583.0195323669775
 21
209.79930501002033
 31
0.0
  0
LINE
  5
3EC
100
AcDbEntity
  8
IMPORTED
  6
CONTINUOUS
 62
              30
100
AcDbLine
 10
575.88463236697748
 20
203.83100501002039
 30
0.0
 11
578.95283236697765
 21
206.39760501002044
 31
0.0
  0
LINE
  5
3ED
100
AcDbEntity
  8
IMPORTED
  6
CONTINUOUS
 62
              30
100
AcDbLine
 10
571.81793236697763
 20
200.4293050100205
 30
0.0
 11
574.13133236697763
 21
202.36430501002044
 31
0.0
  0
LINE
  5
3EE
100
AcDbEntity
  8
IMPORTED
  6
CONTINUOUS
 62
              30
100
AcDbLine
 10
574.66873236697757
 20
208.40180501002052
 30
0.0
 11
572.73373236697762
 21
210.71520501002053
 31
0.0
  0
LINE
  5
3EF
100
AcDbEntity
  8
IMPORTED
  6
CONTINUOUS
 62
              30
100
AcDbLine
 10
578.70203236697762
 20
203.58030501002057
 30
0.0
 11
576.13543236697751
 21
206.64850501002044
 31
0.0
  0
LINE
  5
3F0
100
AcDbEntity
  8
IMPORTED
  6
CONTINUOUS
 62
              30
100
AcDbLine
 10
540.52113236697755
 20
251.94320501002008
 30
0.0
 11
542.64613236697755
 21
254.08340501002013
 31
0.0
  0
LINE
  5
3F1
100
AcDbEntity
  8
IMPORTED
  6
CONTINUOUS
 62
              30
100
AcDbLine
 10
536.09233236697764
 20
247.48230501002004
 30
0.0
 11
538.91053236697758
 21
250.32090501002008
 31
0.0
  0
LINE
  5
3F2
100
AcDbEntity
  8
IMPORTED
  6
CONTINUOUS
 62
              30
100
AcDbLine
 10
532.35683236697764
 20
243.71980501002028
 30
0.0
 11
534.48183236697764
 21
245.8600050100201
 31
0.0
  0
LINE
  5
3F3
100
AcDbEntity
  8
IMPORTED
  6
CONTINUOUS
 62
              30
100
AcDbLine
 10
538.92083236697749
 20
247.49240501002024
 30
0.0
 11
536.08223236697745
 21
250.31060501002017
 31
0.0
  0
LINE
  5
3F4
100
AcDbEntity
  8
IMPORTED
  6
CONTINUOUS
 62
              30
100
AcDbLine
 10
542.68343236697751
 20
243.75690501002029
 30
0.0
 11
540.54303236697751
 21
245.88190501002029
 31
0.0
  0
LINE
  5
3F5
100
AcDbEntity
  8
IMPORTED
  6
CONTINUOUS
 62
              30
100
AcDbLine
 10
534.45993236697745
 20
251.92130501002012
 30
0.0
 11
532.31973236697763
 21
254.04630501002012
 31
0.0
  0
CIRCLE
  5
3F6
100
AcDbEntity
  8
IMPORTED
  6
CONTINUOUS
 62
              30
100
AcDbCircle
 10
537.50153236697747
 20
248.90160501002006
 30
0.0
 40
4.0
  0
LINE
  5
3F7
100
AcDbEntity
  8
IMPORTED
  6
CONTINUOUS
 62
              30
100
AcDbLine
 10
493.18583236697759
 20
293.25440501001992
 30
0.0
 11
491.04563236697754
 21
295.37940501001992
 31
0.0
  0
LINE
  5
3F8
100
AcDbEntity
  8
IMPORTED
  6
CONTINUOUS
 62
              30
100
AcDbLine
 10
486.59483236697747
 20
296.97970501001987
 30
0.0
 11
489.41303236697763
 21
299.81830501001969
 31
0.0
  0
LINE
  5
3F9
100
AcDbEntity
  8
IMPORTED
  6
CONTINUOUS
 62
              30
100
AcDbLine
 10
482.85923236697749
 20
293.21720501001994
 30
0.0
 11
484.98423236697749
 21
295.35740501001999
 31
0.0
  0
LINE
  5
3FA
100
AcDbEntity
  8
IMPORTED
  6
CONTINUOUS
 62
              30
100
AcDbLine
 10
489.42323236697757
 20
296.99000501001979
 30
0.0
 11
486.58463236697753
 21
299.80820501001972
 31
0.0
  0
CIRCLE
  5
3FB
100
AcDbEntity
  8
IMPORTED
  6
CONTINUOUS
 62
              30
100
AcDbCircle
 10
488.00403236697753
 20
298.39910501001987
 30
0.0
 40
4.0
  0
CIRCLE
  5
3FC
100
AcDbEntity
  8
IMPORTED
  6
CONTINUOUS
 62
              30
100
AcDbCircle
 10
391.84243236697762
 20
38.015505010019751
 30
0.0
 40
4.0
  0
LINE
  5
3FD
100
AcDbEntity
  8
IMPORTED
  6
CONTINUOUS
 62
              30
100
AcDbLine
 10
395.12983236697755
 20
40.765505010019751
 30
0.0
 11
397.44323236697755
 21
42.700505010019782
 31
0.0
  0
LINE
  5
3FE
100
AcDbEntity
  8
IMPORTED
  6
CONTINUOUS
 62
              30
100
AcDbLine
 10
396.52743236697756
 20
32.414605010019869
 30
0.0
 11
394.59243236697762
 21
34.728005010019842
 31
0.0
  0
LINE
  5
3FF
100
AcDbEntity
  8
IMPORTED
  6
CONTINUOUS
 62
              30
100
AcDbLine
 10
390.30833236697754
 20
36.732305010019786
 30
0.0
 11
393.37633236697752
 21
39.29870501001983
 31
0.0
  0
LINE
  5
400
100
AcDbEntity
  8
IMPORTED
  6
CONTINUOUS
 62
              30
100
AcDbLine
 10
386.24163236697746
 20
33.330405010019859
 30
0.0
 11
388.55483236697751
 21
35.26560501001984
 31
0.0
  0
LINE
  5
401
100
AcDbEntity
  8
IMPORTED
  6
CONTINUOUS
 62
              30
100
AcDbLine
 10
389.09253236697759
 20
41.302905010019771
 30
0.0
 11
387.15733236697747
 21
43.616305010019772
 31
0.0
  0
LINE
  5
402
100
AcDbEntity
  8
IMPORTED
  6
CONTINUOUS
 62
              30
100
AcDbLine
 10
393.12563236697747
 20
36.481405010019785
 30
0.0
 11
390.55923236697754
 21
39.549605010019832
 31
0.0
  0
LINE
  5
403
100
AcDbEntity
  8
IMPORTED
  6
CONTINUOUS
 62
              30
100
AcDbLine
 10
357.01223236697751
 20
82.576505010019702
 30
0.0
 11
359.13723236697751
 21
84.716705010019751
 31
0.0
  0
LINE
  5
404
100
AcDbEntity
  8
IMPORTED
  6
CONTINUOUS
 62
              30
100
AcDbLine
 10
352.5834323669776
 20
78.115605010019664
 30
0.0
 11
355.40163236697754
 21
80.954205010019706
 31
0.0
  0
LINE
  5
405
100
AcDbEntity
  8
IMPORTED
  6
CONTINUOUS
 62
              30
100
AcDbLine
 10
348.8479323669776
 20
74.353005010019757
 30
0.0
 11
350.97273236697765
 21
76.493405010019757
 31
0.0
  0
LINE
  5
406
100
AcDbEntity
  8
IMPORTED
  6
CONTINUOUS
 62
              30
100
AcDbLine
 10
355.41183236697748
 20
78.125705010019743
 30
0.0
 11
352.57323236697766
 21
80.943905010019677
 31
0.0
  0
LINE
  5
407
100
AcDbEntity
  8
IMPORTED
  6
CONTINUOUS
 62
              30
100
AcDbLine
 10
359.1744323669775
 20
74.390205010019741
 30
0.0
 11
357.0340323669775
 21
76.515005010019678
 31
0.0
  0
CIRCLE
  5
408
100
AcDbEntity
  8
IMPORTED
  6
CONTINUOUS
 62
              30
100
AcDbCircle
 10
353.99253236697746
 20
79.53480501001971
 30
0.0
 40
4.0
  0
LINE
  5
409
100
AcDbEntity
  8
IMPORTED
  6
CONTINUOUS
 62
              30
100
AcDbLine
 10
350.95093236697744
 20
82.554505010019653
 30
0.0
 11
348.81073236697762
 21
84.679505010019653
 31
0.0
  0
LINE
  5
40A
100
AcDbEntity
  8
IMPORTED
  6
CONTINUOUS
 62
              30
100
AcDbLine
 10
321.65693236697757
 20
117.93180501001993
 30
0.0
 11
323.78193236697757
 21
120.07200501001992
 31
0.0
  0
LINE
  5
40B
100
AcDbEntity
  8
IMPORTED
  6
CONTINUOUS
 62
              30
100
AcDbLine
 10
317.22813236697766
 20
113.47080501001986
 30
0.0
 11
320.04633236697759
 21
116.30940501001984
 31
0.0
  0
LINE
  5
40C
100
AcDbEntity
  8
IMPORTED
  6
CONTINUOUS
 62
              30
100
AcDbLine
 10
313.49263236697766
 20
109.70820501001984
 30
0.0
 11
315.61743236697771
 21
111.84860501001984
 31
0.0
  0
LINE
  5
40D
100
AcDbEntity
  8
IMPORTED
  6
CONTINUOUS
 62
              30
100
AcDbLine
 10
315.59583236697767
 20
117.90980501001988
 30
0.0
 11
313.45543236697745
 21
120.03480501001994
 31
0.0
  0
LINE
  5
40E
100
AcDbEntity
  8
IMPORTED
  6
CONTINUOUS
 62
              30
100
AcDbLine
 10
320.05663236697751
 20
113.4810050100198
 30
0.0
 11
317.21803236697747
 21
116.2992050100199
 31
0.0
  0
LINE
  5
40F
100
AcDbEntity
  8
IMPORTED
  6
CONTINUOUS
 62
              30
100
AcDbLine
 10
323.81903236697758
 20
109.74540501001982
 30
0.0
 11
321.67883236697753
 21
111.87040501001982
 31
0.0
  0
CIRCLE
  5
410
100
AcDbEntity
  8
IMPORTED
  6
CONTINUOUS
 62
              30
100
AcDbCircle
 10
318.63723236697751
 20
114.89010501001977
 30
0.0
 40
4.0
  0
CIRCLE
  5
411
100
AcDbEntity
  8
IMPORTED
  6
CONTINUOUS
 62
              30
100
AcDbCircle
 10
277.11783236697761
 20
152.74000501002027
 30
0.0
 40
4.0
  0
LINE
  5
412
100
AcDbEntity
  8
IMPORTED
  6
CONTINUOUS
 62
              30
100
AcDbLine
 10
271.5169323669777
 20
157.42510501002019
 30
0.0
 11
273.8303323669777
 21
155.49010501002024
 31
0.0
  0
LINE
  5
413
100
AcDbEntity
  8
IMPORTED
  6
CONTINUOUS
 62
              30
100
AcDbLine
 10
275.58373236697753
 20
154.02330501002032
 30
0.0
 11
278.65193236697746
 21
151.45690501002022
 31
0.0
  0
LINE
  5
414
100
AcDbEntity
  8
IMPORTED
  6
CONTINUOUS
 62
              30
100
AcDbLine
 10
280.40523236697754
 20
149.99020501002016
 30
0.0
 11
282.71863236697754
 21
148.05500501002021
 31
0.0
  0
LINE
  5
415
100
AcDbEntity
  8
IMPORTED
  6
CONTINUOUS
 62
              30
100
AcDbLine
 10
272.43273236697746
 20
147.13930501002019
 30
0.0
 11
274.36793236697758
 21
149.45250501002019
 31
0.0
  0
LINE
  5
416
100
AcDbEntity
  8
IMPORTED
  6
CONTINUOUS
 62
              30
100
AcDbLine
 10
275.83463236697753
 20
151.20600501002022
 30
0.0
 11
278.40103236697746
 21
154.27400501002026
 31
0.0
  0
LINE
  5
417
100
AcDbEntity
  8
IMPORTED
  6
CONTINUOUS
 62
              30
100
AcDbLine
 10
279.86783236697761
 20
156.02750501002029
 30
0.0
 11
281.80283236697755
 21
158.34090501002018
 31
0.0
  0
LINE
  5
418
100
AcDbEntity
  8
IMPORTED
  6
CONTINUOUS
 62
              30
100
AcDbLine
 10
393.1133323669776
 20
386.32310501001984
 30
0.0
 11
395.04833236697755
 21
388.63650501001985
 31
0.0
  0
CIRCLE
  5
419
100
AcDbEntity
  8
IMPORTED
  6
CONTINUOUS
 62
              30
100
AcDbCircle
 10
390.3633323669776
 20
383.03570501001968
 30
0.0
 40
4.0
  0
LINE
  5
41A
100
AcDbEntity
  8
IMPORTED
  6
CONTINUOUS
 62
              30
100
AcDbLine
 10
442.68263236697749
 20
339.59970501001976
 30
0.0
 11
445.75083236697765
 21
337.03310501001988
 31
0.0
  0
LINE
  5
41B
100
AcDbEntity
  8
IMPORTED
  6
CONTINUOUS
 62
              30
100
AcDbLine
 10
447.50423236697748
 20
335.56640501001971
 30
0.0
 11
449.81763236697748
 21
333.63140501001976
 31
0.0
  0
LINE
  5
41C
100
AcDbEntity
  8
IMPORTED
  6
CONTINUOUS
 62
              30
100
AcDbLine
 10
439.53163236697765
 20
332.7155050100198
 30
0.0
 11
441.46663236697759
 21
335.0289050100198
 31
0.0
  0
LINE
  5
41D
100
AcDbEntity
  8
IMPORTED
  6
CONTINUOUS
 62
              30
100
AcDbLine
 10
442.93343236697751
 20
336.78230501001985
 30
0.0
 11
445.50003236697762
 21
339.85050501001979
 31
0.0
  0
LINE
  5
41E
100
AcDbEntity
  8
IMPORTED
  6
CONTINUOUS
 62
              30
100
AcDbLine
 10
446.96673236697757
 20
341.60380501001987
 30
0.0
 11
448.90173236697751
 21
343.91720501001987
 31
0.0
  0
LINE
  5
41F
100
AcDbEntity
  8
IMPORTED
  6
CONTINUOUS
 62
              30
100
AcDbLine
 10
393.65073236697754
 20
380.28570501001968
 30
0.0
 11
395.96413236697754
 21
378.35070501001974
 31
0.0
  0
LINE
  5
420
100
AcDbEntity
  8
IMPORTED
  6
CONTINUOUS
 62
              30
100
AcDbLine
 10
438.61583236697766
 20
343.00140501001988
 30
0.0
 11
440.92923236697766
 21
341.06640501001971
 31
0.0
  0
CIRCLE
  5
421
100
AcDbEntity
  8
IMPORTED
  6
CONTINUOUS
 62
              30
100
AcDbCircle
 10
444.21673236697757
 20
338.31640501001971
 30
0.0
 40
4.0
  0
LINE
  5
422
100
AcDbEntity
  8
IMPORTED
  6
CONTINUOUS
 62
              30
100
AcDbLine
 10
384.76243236697769
 20
387.72080501001983
 30
0.0
 11
387.07583236697769
 21
385.78560501001971
 31
0.0
  0
LINE
  5
423
100
AcDbEntity
  8
IMPORTED
  6
CONTINUOUS
 62
              30
100
AcDbLine
 10
385.67833236697766
 20
377.43480501001977
 30
0.0
 11
387.6133323669776
 21
379.74820501001977
 31
0.0
  0
LINE
  5
424
100
AcDbEntity
  8
IMPORTED
  6
CONTINUOUS
 62
              30
100
AcDbLine
 10
389.08003236697755
 20
381.50160501001983
 30
0.0
 11
391.64663236697766
 21
384.56980501001976
 31
0.0
  0
LINE
  5
425
100
AcDbEntity
  8
IMPORTED
  6
CONTINUOUS
 62
              30
100
AcDbLine
 10
388.82923236697752
 20
384.31890501001976
 30
0.0
 11
391.89743236697745
 21
381.75250501001983
 31
0.0
  0
CIRCLE
  5
426
100
AcDbEntity
  8
IMPORTED
  6
CONTINUOUS
 62
              30
100
AcDbCircle
 10
343.08003236697755
 20
418.74230501001966
 30
0.0
 40
4.0
  0
LINE
  5
427
100
AcDbEntity
  8
IMPORTED
  6
CONTINUOUS
 62
              30
100
AcDbLine
 10
341.43423236697754
 20
419.87860501001978
 30
0.0
 11
344.72603236697751
 21
417.60600501001977
 31
0.0
  0
LINE
  5
428
100
AcDbEntity
  8
IMPORTED
  6
CONTINUOUS
 62
              30
100
AcDbLine
 10
346.60733236697752
 20
416.30740501001969
 30
0.0
 11
349.08933236697771
 21
414.59400501001983
 31
0.0
  0
LINE
  5
429
100
AcDbEntity
  8
IMPORTED
  6
CONTINUOUS
 62
              30
100
AcDbLine
 10
338.93173236697771
 20
412.7331050100197
 30
0.0
 11
340.64513236697758
 21
415.21510501001967
 31
0.0
  0
LINE
  5
42A
100
AcDbEntity
  8
IMPORTED
  6
CONTINUOUS
 62
              30
100
AcDbLine
 10
341.94373236697766
 20
417.09640501001968
 30
0.0
 11
344.21633236697767
 21
420.38820501001987
 31
0.0
  0
LINE
  5
42B
100
AcDbEntity
  8
IMPORTED
  6
CONTINUOUS
 62
              30
100
AcDbLine
 10
345.51493236697752
 20
422.26950501001966
 30
0.0
 11
347.22833236697761
 21
424.75150501001986
 31
0.0
  0
LINE
  5
42C
100
AcDbEntity
  8
IMPORTED
  6
CONTINUOUS
 62
              30
100
AcDbLine
 10
337.07083236697758
 20
422.89060501001973
 30
0.0
 11
339.55283236697755
 21
421.17720501001986
 31
0.0
  0
LINE
  5
42D
100
AcDbEntity
  8
IMPORTED
  6
CONTINUOUS
 62
              30
100
AcDbLine
 10
288.85743236697749
 20
455.86700501001974
 30
0.0
 11
291.33943236697746
 21
454.15360501001987
 31
0.0
  0
LINE
  5
42E
100
AcDbEntity
  8
IMPORTED
  6
CONTINUOUS
 62
              30
100
AcDbLine
 10
281.18193236697766
 20
452.29270501001974
 30
0.0
 11
282.89533236697753
 21
454.77470501001972
 31
0.0
  0
LINE
  5
42F
100
AcDbEntity
  8
IMPORTED
  6
CONTINUOUS
 62
              30
100
AcDbLine
 10
284.19393236697761
 20
456.65600501001973
 30
0.0
 11
286.46653236697762
 21
459.94780501001969
 31
0.0
  0
LINE
  5
430
100
AcDbEntity
  8
IMPORTED
  6
CONTINUOUS
 62
              30
100
AcDbLine
 10
279.32103236697753
 20
462.45020501001977
 30
0.0
 11
281.8030323669775
 21
460.73680501001968
 31
0.0
  0
LINE
  5
431
100
AcDbEntity
  8
IMPORTED
  6
CONTINUOUS
 62
              30
100
AcDbLine
 10
287.7651323669777
 20
461.82900501001973
 30
0.0
 11
289.47853236697756
 21
464.3110050100197
 31
0.0
  0
CIRCLE
  5
432
100
AcDbEntity
  8
IMPORTED
  6
CONTINUOUS
 62
              30
100
AcDbCircle
 10
285.3302323669775
 20
458.30190501001971
 30
0.0
 40
4.0
  0
LINE
  5
433
100
AcDbEntity
  8
IMPORTED
  6
CONTINUOUS
 62
              30
100
AcDbLine
 10
283.68423236697754
 20
459.43810501001985
 30
0.0
 11
286.97603236697751
 21
457.16570501001979
 31
0.0
  0
LINE
  5
434
100
AcDbEntity
  8
IMPORTED
  6
CONTINUOUS
 62
              30
100
AcDbLine
 10
236.70513236697752
 20
488.52640501001974
 30
0.0
 11
233.2035323669777
 21
490.46020501001976
 31
0.0
  0
CIRCLE
  5
435
100
AcDbEntity
  8
IMPORTED
  6
CONTINUOUS
 62
              30
100
AcDbCircle
 10
234.9543323669775
 20
489.49340501001984
 30
0.0
 40
4.0
  0
LINE
  5
436
100
AcDbEntity
  8
IMPORTED
  6
CONTINUOUS
 62
              30
100
AcDbLine
 10
237.02633236697761
 20
493.24510501001987
 30
0.0
 11
238.48453236697765
 21
495.88530501001969
 31
0.0
  0
LINE
  5
437
100
AcDbEntity
  8
IMPORTED
  6
CONTINUOUS
 62
              30
100
AcDbLine
 10
233.98733236697763
 20
487.74260501001982
 30
0.0
 11
235.92113236697764
 21
491.24420501001987
 31
0.0
  0
LINE
  5
438
100
AcDbEntity
  8
IMPORTED
  6
CONTINUOUS
 62
              30
100
AcDbLine
 10
231.4240323669776
 20
483.10140501001979
 30
0.0
 11
232.88223236697763
 21
485.74160501001984
 31
0.0
  0
LINE
  5
439
100
AcDbEntity
  8
IMPORTED
  6
CONTINUOUS
 62
              30
100
AcDbLine
 10
241.34633236697755
 20
485.96320501001969
 30
0.0
 11
238.7061323669775
 21
487.42120501001978
 31
0.0
  0
LINE
  5
43A
100
AcDbEntity
  8
IMPORTED
  6
CONTINUOUS
 62
              30
100
AcDbLine
 10
231.20253236697749
 20
491.56540501001973
 30
0.0
 11
228.56233236697767
 21
493.02360501001976
 31
0.0
  0
LINE
  5
43B
100
AcDbEntity
  8
IMPORTED
  6
CONTINUOUS
 62
              30
100
AcDbLine
 10
241.93863236697757
 20
181.93230501002049
 30
0.0
 11
244.25203236697757
 21
179.99730501002048
 31
0.0
  0
CIRCLE
  5
43C
100
AcDbEntity
  8
IMPORTED
  6
CONTINUOUS
 62
              30
100
AcDbCircle
 10
238.65123236697764
 20
184.68240501002046
 30
0.0
 40
4.0
  0
LINE
  5
43D
100
AcDbEntity
  8
IMPORTED
  6
CONTINUOUS
 62
              30
100
AcDbLine
 10
233.0504323669777
 20
189.36740501002063
 30
0.0
 11
235.36363236697753
 21
187.43220501002051
 31
0.0
  0
LINE
  5
43E
100
AcDbEntity
  8
IMPORTED
  6
CONTINUOUS
 62
              30
100
AcDbLine
 10
237.11713236697756
 20
185.96550501002056
 30
0.0
 11
240.18513236697754
 21
183.39910501002063
 31
0.0
  0
LINE
  5
43F
100
AcDbEntity
  8
IMPORTED
  6
CONTINUOUS
 62
              30
100
AcDbLine
 10
233.96613236697772
 20
179.08160501002047
 30
0.0
 11
235.90133236697761
 21
181.39480501002058
 31
0.0
  0
LINE
  5
440
100
AcDbEntity
  8
IMPORTED
  6
CONTINUOUS
 62
              30
100
AcDbLine
 10
237.36803236697756
 20
183.14830501002061
 30
0.0
 11
239.93443236697772
 21
186.21630501002059
 31
0.0
  0
LINE
  5
441
100
AcDbEntity
  8
IMPORTED
  6
CONTINUOUS
 62
              30
100
AcDbLine
 10
241.40123236697764
 20
187.96980501002062
 30
0.0
 11
243.33623236697758
 21
190.28320501002062
 31
0.0
  0
LINE
  5
442
100
AcDbEntity
  8
IMPORTED
  6
CONTINUOUS
 62
              30
100
AcDbLine
 10
156.09423236697762
 20
244.36150501002018
 30
0.0
 11
158.57623236697759
 21
242.64810501002032
 31
0.0
  0
CIRCLE
  5
443
100
AcDbEntity
  8
IMPORTED
  6
CONTINUOUS
 62
              30
100
AcDbCircle
 10
193.81683236697768
 20
218.53960501002044
 30
0.0
 40
4.0
  0
LINE
  5
444
100
AcDbEntity
  8
IMPORTED
  6
CONTINUOUS
 62
              30
100
AcDbLine
 10
187.80753236697751
 20
222.68800501002042
 30
0.0
 11
190.28953236697748
 21
220.97460501002038
 31
0.0
  0
LINE
  5
445
100
AcDbEntity
  8
IMPORTED
  6
CONTINUOUS
 62
              30
100
AcDbLine
 10
192.17093236697769
 20
219.67590501002033
 30
0.0
 11
195.46273236697766
 21
217.40350501002027
 31
0.0
  0
LINE
  5
446
100
AcDbEntity
  8
IMPORTED
  6
CONTINUOUS
 62
              30
100
AcDbLine
 10
197.34403236697767
 20
216.10480501002044
 30
0.0
 11
199.82603236697764
 21
214.39140501002035
 31
0.0
  0
LINE
  5
447
100
AcDbEntity
  8
IMPORTED
  6
CONTINUOUS
 62
              30
100
AcDbLine
 10
189.66853236697762
 20
212.53040501002053
 30
0.0
 11
191.38193236697748
 21
215.01240501002044
 31
0.0
  0
LINE
  5
448
100
AcDbEntity
  8
IMPORTED
  6
CONTINUOUS
 62
              30
100
AcDbLine
 10
192.68063236697753
 20
216.89370501002045
 30
0.0
 11
194.9530323669776
 21
220.18550501002042
 31
0.0
  0
LINE
  5
449
100
AcDbEntity
  8
IMPORTED
  6
CONTINUOUS
 62
              30
100
AcDbLine
 10
196.25173236697765
 20
222.06690501002041
 30
0.0
 11
197.96513236697751
 21
224.54890501002032
 31
0.0
  0
LINE
  5
44A
100
AcDbEntity
  8
IMPORTED
  6
CONTINUOUS
 62
              30
100
AcDbLine
 10
150.92103236697767
 20
247.93260501002024
 30
0.0
 11
154.21283236697764
 21
245.66020501002023
 31
0.0
  0
LINE
  5
44B
100
AcDbEntity
  8
IMPORTED
  6
CONTINUOUS
 62
              30
100
AcDbLine
 10
148.41873236697757
 20
240.78730501002016
 30
0.0
 11
150.13213236697766
 21
243.26930501002013
 31
0.0
  0
LINE
  5
44C
100
AcDbEntity
  8
IMPORTED
  6
CONTINUOUS
 62
              30
100
AcDbLine
 10
151.43083236697771
 20
245.15050501002017
 30
0.0
 11
153.70323236697755
 21
248.44230501002008
 31
0.0
  0
LINE
  5
44D
100
AcDbEntity
  8
IMPORTED
  6
CONTINUOUS
 62
              30
100
AcDbLine
 10
155.0019323669776
 20
250.32370501002006
 30
0.0
 11
156.71533236697746
 21
252.80570501002026
 31
0.0
  0
LINE
  5
44E
100
AcDbEntity
  8
IMPORTED
  6
CONTINUOUS
 62
              30
100
AcDbLine
 10
146.55783236697766
 20
250.94470501002016
 30
0.0
 11
149.03983236697763
 21
249.23130501002007
 31
0.0
  0
CIRCLE
  5
44F
100
AcDbEntity
  8
IMPORTED
  6
CONTINUOUS
 62
              30
100
AcDbCircle
 10
152.56703236697763
 20
246.79650501002013
 30
0.0
 40
4.0
  0
LINE
  5
450
100
AcDbEntity
  8
IMPORTED
  6
CONTINUOUS
 62
              30
100
AcDbLine
 10
106.87213236697767
 20
280.12440501001981
 30
0.0
 11
108.3303323669777
 21
282.76460501001986
 31
0.0
  0
LINE
  5
451
100
AcDbEntity
  8
IMPORTED
  6
CONTINUOUS
 62
              30
100
AcDbLine
 10
103.83313236697745
 20
274.6219050100201
 30
0.0
 11
105.7669323669777
 21
278.12330501001998
 31
0.0
  0
LINE
  5
452
100
AcDbEntity
  8
IMPORTED
  6
CONTINUOUS
 62
              30
100
AcDbLine
 10
101.26993236697763
 20
269.98070501002007
 30
0.0
 11
102.72793236697748
 21
272.62070501001995
 31
0.0
  0
LINE
  5
453
100
AcDbEntity
  8
IMPORTED
  6
CONTINUOUS
 62
              30
100
AcDbLine
 10
106.55073236697763
 20
275.40560501002005
 30
0.0
 11
103.04933236697775
 21
277.33940501002007
 31
0.0
  0
LINE
  5
454
100
AcDbEntity
  8
IMPORTED
  6
CONTINUOUS
 62
              30
100
AcDbLine
 10
111.19193236697765
 20
272.84240501002
 30
0.0
 11
108.55193236697755
 21
274.30040501002009
 31
0.0
  0
CIRCLE
  5
455
100
AcDbEntity
  8
IMPORTED
  6
CONTINUOUS
 62
              30
100
AcDbCircle
 10
104.80003236697758
 20
276.37250501001995
 30
0.0
 40
4.0
  0
LINE
  5
456
100
AcDbEntity
  8
IMPORTED
  6
CONTINUOUS
 62
              30
100
AcDbLine
 10
101.04823236697757
 20
278.44460501002004
 30
0.0
 11
98.408032366977523
 21
279.90280501001996
 31
0.0
  0
LINE
  5
457
100
AcDbEntity
  8
IMPORTED
  6
CONTINUOUS
 62
              30
100
AcDbLine
 10
57.36723236697776
 20
302.77480501001969
 30
0.0
 11
54.727032366977483
 21
304.23280501001977
 31
0.0
  0
CIRCLE
  5
458
100
AcDbEntity
  8
IMPORTED
  6
CONTINUOUS
 62
              30
100
AcDbCircle
 10
61.11893236697756
 20
300.70270501001983
 30
0.0
 40
4.0
  0
LINE
  5
459
100
AcDbEntity
  8
IMPORTED
  6
CONTINUOUS
 62
              30
100
AcDbLine
 10
60.152032366977664
 20
298.95200501001977
 30
0.0
 11
62.085832366977456
 21
302.45340501001988
 31
0.0
  0
LINE
  5
45A
100
AcDbEntity
  8
IMPORTED
  6
CONTINUOUS
 62
              30
100
AcDbLine
 10
57.588832366977613
 20
294.31080501001986
 30
0.0
 11
59.046832366977696
 21
296.95080501001985
 31
0.0
  0
LINE
  5
45B
100
AcDbEntity
  8
IMPORTED
  6
CONTINUOUS
 62
              30
100
AcDbLine
 10
62.869832366977562
 20
299.7358050100197
 30
0.0
 11
59.368232366977509
 21
301.66960501001972
 31
0.0
  0
LINE
  5
45C
100
AcDbEntity
  8
IMPORTED
  6
CONTINUOUS
 62
              30
100
AcDbLine
 10
67.511032366977588
 20
297.17250501001968
 30
0.0
 11
64.870832366977766
 21
298.63070501001971
 31
0.0
  0
LINE
  5
45D
100
AcDbEntity
  8
IMPORTED
  6
CONTINUOUS
 62
              30
100
AcDbLine
 10
63.191032366977652
 20
304.45450501001983
 30
0.0
 11
64.649232366977458
 21
307.09470501001988
 31
0.0
  0
CIRCLE
  5
45E
100
AcDbEntity
  8
IMPORTED
  6
CONTINUOUS
 62
              30
100
AcDbCircle
 10
173.80073236697763
 20
523.55570501001966
 30
0.0
 40
4.0
  0
LINE
  5
45F
100
AcDbEntity
  8
IMPORTED
  6
CONTINUOUS
 62
              30
100
AcDbLine
 10
180.19263236697748
 20
520.02550501001974
 30
0.0
 11
177.5526323669776
 21
521.48370501001978
 31
0.0
  0
LINE
  5
460
100
AcDbEntity
  8
IMPORTED
  6
CONTINUOUS
 62
              30
100
AcDbLine
 10
175.87273236697752
 20
527.30740501001969
 30
0.0
 11
177.33093236697755
 21
529.94760501001974
 31
0.0
  0
LINE
  5
461
100
AcDbEntity
  8
IMPORTED
  6
CONTINUOUS
 62
              30
100
AcDbLine
 10
172.8338323669775
 20
521.80480501001966
 30
0.0
 11
174.76763236697752
 21
525.30640501001972
 31
0.0
  0
LINE
  5
462
100
AcDbEntity
  8
IMPORTED
  6
CONTINUOUS
 62
              30
100
AcDbLine
 10
170.2704323669775
 20
517.16370501001984
 30
0.0
 11
171.72863236697754
 21
519.80390501001966
 31
0.0
  0
LINE
  5
463
100
AcDbEntity
  8
IMPORTED
  6
CONTINUOUS
 62
              30
100
AcDbLine
 10
175.55143236697768
 20
522.58880501001977
 30
0.0
 11
172.04983236697763
 21
524.52260501001979
 31
0.0
  0
LINE
  5
464
100
AcDbEntity
  8
IMPORTED
  6
CONTINUOUS
 62
              30
100
AcDbLine
 10
170.04893236697762
 20
525.62770501001978
 30
0.0
 11
167.40873236697757
 21
527.08590501001981
 31
0.0
  0
LINE
  5
465
100
AcDbEntity
  8
IMPORTED
  6
CONTINUOUS
 62
              30
100
AcDbLine
 10
122.47853236697756
 20
553.89310501001978
 30
0.0
 11
123.68693236697754
 21
556.65650501001983
 31
0.0
  0
LINE
  5
466
100
AcDbEntity
  8
IMPORTED
  6
CONTINUOUS
 62
              30
100
AcDbLine
 10
119.96033236697758
 20
548.13360501001966
 30
0.0
 11
121.56273236697757
 21
551.79860501001986
 31
0.0
  0
LINE
  5
467
100
AcDbEntity
  8
IMPORTED
  6
CONTINUOUS
 62
              30
100
AcDbLine
 10
117.83613236697761
 20
543.27570501001969
 30
0.0
 11
119.04453236697759
 21
546.03910501001974
 31
0.0
  0
LINE
  5
468
100
AcDbEntity
  8
IMPORTED
  6
CONTINUOUS
 62
              30
100
AcDbLine
 10
122.59403236697767
 20
549.16480501001979
 30
0.0
 11
118.92903236697771
 21
550.76740501001973
 31
0.0
  0
LINE
  5
469
100
AcDbEntity
  8
IMPORTED
  6
CONTINUOUS
 62
              30
100
AcDbLine
 10
127.45193236697764
 20
547.04080501001977
 30
0.0
 11
124.6885323669776
 21
548.2490050100198
 31
0.0
  0
LINE
  5
46A
100
AcDbEntity
  8
IMPORTED
  6
CONTINUOUS
 62
              30
100
AcDbLine
 10
116.83453236697756
 20
551.68310501001974
 30
0.0
 11
114.07113236697774
 21
552.89150501001973
 31
0.0
  0
CIRCLE
  5
46B
100
AcDbEntity
  8
IMPORTED
  6
CONTINUOUS
 62
              30
100
AcDbCircle
 10
120.76153236697769
 20
549.96620501001985
 30
0.0
 40
4.0
  0
LINE
  5
46C
100
AcDbEntity
  8
IMPORTED
  6
CONTINUOUS
 62
              30
100
AcDbLine
 10
5.5346323669775757
 20
598.26790501001983
 30
0.0
 11
8.3908323669777474
 21
597.29910501001973
 31
0.0
  0
LINE
  5
46D
100
AcDbEntity
  8
IMPORTED
  6
CONTINUOUS
 62
              30
100
AcDbLine
 10
63.416332366977485
 20
575.31530501001976
 30
0.0
 11
60.652932366977666
 21
576.52350501001979
 31
0.0
  0
LINE
  5
46E
100
AcDbEntity
  8
IMPORTED
  6
CONTINUOUS
 62
              30
100
AcDbLine
 10
58.442932366977629
 20
582.1675050100198
 30
0.0
 11
59.651332366977613
 21
584.93090501001984
 31
0.0
  0
LINE
  5
46F
100
AcDbEntity
  8
IMPORTED
  6
CONTINUOUS
 62
              30
100
AcDbLine
 10
55.924732366977651
 20
576.40800501001968
 30
0.0
 11
57.527132366977639
 21
580.07300501001964
 31
0.0
  0
LINE
  5
470
100
AcDbEntity
  8
IMPORTED
  6
CONTINUOUS
 62
              30
100
AcDbLine
 10
53.80053236697745
 20
571.55010501001971
 30
0.0
 11
55.00893236697766
 21
574.31350501001975
 31
0.0
  0
LINE
  5
471
100
AcDbEntity
  8
IMPORTED
  6
CONTINUOUS
 62
              30
100
AcDbLine
 10
52.798832366977649
 20
579.95760501001973
 30
0.0
 11
50.035432366977602
 21
581.16600501001972
 31
0.0
  0
LINE
  5
472
100
AcDbEntity
  8
IMPORTED
  6
CONTINUOUS
 62
              30
100
AcDbLine
 10
58.558432366977513
 20
577.43940501001975
 30
0.0
 11
54.893432366977549
 21
579.04180501001974
 31
0.0
  0
CIRCLE
  5
473
100
AcDbEntity
  8
IMPORTED
  6
CONTINUOUS
 62
              30
100
AcDbCircle
 10
56.725932366977531
 20
578.24060501001986
 30
0.0
 40
4.0
  0
LINE
  5
474
100
AcDbEntity
  8
IMPORTED
  6
CONTINUOUS
 62
              30
100
AcDbLine
 10
-0.418267633022424
 20
600.28710501001979
 30
0.0
 11
3.3697323669775869
 21
599.0021050100197
 31
0.0
  0
LINE
  5
475
100
AcDbEntity
  8
IMPORTED
  6
CONTINUOUS
 62
              30
100
AcDbLine
 10
-0.8697676330223203
 20
592.72950501001969
 30
0.0
 11
0.0990323669775535
 21
595.58570501001964
 31
0.0
  0
LINE
  5
476
100
AcDbEntity
  8
IMPORTED
  6
CONTINUOUS
 62
              30
100
AcDbLine
 10
0.8332323669776542
 20
597.75060501001985
 30
0.0
 11
2.1182323669775087
 21
601.53860501001964
 31
0.0
  0
LINE
  5
477
100
AcDbEntity
  8
IMPORTED
  6
CONTINUOUS
 62
              30
100
AcDbLine
 10
2.8523323669776346
 20
603.70340501001965
 30
0.0
 11
3.8211323669777357
 21
606.55960501001982
 31
0.0
  0
LINE
  5
478
100
AcDbEntity
  8
IMPORTED
  6
CONTINUOUS
 62
              30
100
AcDbLine
 10
-5.439367633022357
 20
601.99000501001979
 30
0.0
 11
-2.5831676330224127
 21
601.02140501001986
 31
0.0
  0
CIRCLE
  5
479
100
AcDbEntity
  8
IMPORTED
  6
CONTINUOUS
 62
              30
100
AcDbCircle
 10
1.4757323669775815
 20
599.64460501001986
 30
0.0
 40
4.0
  0
LINE
  5
47A
100
AcDbEntity
  8
IMPORTED
  6
CONTINUOUS
 62
              30
100
AcDbLine
 10
-119.93586763302233
 20
637.65380501001982
 30
0.0
 11
-123.83286763302226
 21
638.55560501001969
 31
0.0
  0
CIRCLE
  5
47B
100
AcDbEntity
  8
IMPORTED
  6
CONTINUOUS
 62
              30
100
AcDbCircle
 10
-121.88436763302229
 20
638.10470501001964
 30
0.0
 40
4.0
  0
LINE
  5
47C
100
AcDbEntity
  8
IMPORTED
  6
CONTINUOUS
 62
              30
100
AcDbLine
 10
-60.836767633022419
 20
620.51340501001982
 30
0.0
 11
-57.980567633022247
 21
619.54460501001972
 31
0.0
  0
LINE
  5
47D
100
AcDbEntity
  8
IMPORTED
  6
CONTINUOUS
 62
              30
100
AcDbLine
 10
-71.810667633022376
 20
624.23550501001978
 30
0.0
 11
-68.954467633022432
 21
623.26670501001968
 31
0.0
  0
LINE
  5
47E
100
AcDbEntity
  8
IMPORTED
  6
CONTINUOUS
 62
              30
100
AcDbLine
 10
-67.24106763302234
 20
614.97490501001971
 30
0.0
 11
-66.272267633022466
 21
617.83110501001966
 31
0.0
  0
LINE
  5
47F
100
AcDbEntity
  8
IMPORTED
  6
CONTINUOUS
 62
              30
100
AcDbLine
 10
-65.538067633022365
 20
619.99600501001964
 30
0.0
 11
-64.253067633022283
 21
623.78400501001965
 31
0.0
  0
LINE
  5
480
100
AcDbEntity
  8
IMPORTED
  6
CONTINUOUS
 62
              30
100
AcDbLine
 10
-63.51886763302241
 20
625.94890501001964
 30
0.0
 11
-62.550067633022309
 21
628.80510501001982
 31
0.0
  0
CIRCLE
  5
481
100
AcDbEntity
  8
IMPORTED
  6
CONTINUOUS
 62
              30
100
AcDbCircle
 10
-64.895567633022438
 20
621.89000501001965
 30
0.0
 40
4.0
  0
LINE
  5
482
100
AcDbEntity
  8
IMPORTED
  6
CONTINUOUS
 62
              30
100
AcDbLine
 10
-66.789667633022418
 20
622.53240501001983
 30
0.0
 11
-63.00146763302223
 21
621.2476050100197
 31
0.0
  0
LINE
  5
483
100
AcDbEntity
  8
IMPORTED
  6
CONTINUOUS
 62
              30
100
AcDbLine
 10
-120.91816763302245
 20
642.28030501001967
 30
0.0
 11
-120.23816763302239
 21
645.21870501001968
 31
0.0
  0
LINE
  5
484
100
AcDbEntity
  8
IMPORTED
  6
CONTINUOUS
 62
              30
100
AcDbLine
 10
-114.77036763302226
 20
636.45860501001971
 30
0.0
 11
-117.70876763302226
 21
637.13840501001982
 31
0.0
  0
LINE
  5
485
100
AcDbEntity
  8
IMPORTED
  6
CONTINUOUS
 62
              30
100
AcDbLine
 10
-122.33526763302234
 20
636.1561050100197
 30
0.0
 11
-121.43346763302247
 21
640.05330501001981
 31
0.0
  0
LINE
  5
486
100
AcDbEntity
  8
IMPORTED
  6
CONTINUOUS
 62
              30
100
AcDbLine
 10
-123.53056763302243
 20
630.99070501001984
 30
0.0
 11
-122.85056763302237
 21
633.92910501001984
 31
0.0
  0
LINE
  5
487
100
AcDbEntity
  8
IMPORTED
  6
CONTINUOUS
 62
              30
100
AcDbLine
 10
-126.05996763302232
 20
639.07090501001971
 30
0.0
 11
-128.99836763302233
 21
639.75090501001978
 31
0.0
  0
CIRCLE
  5
488
100
AcDbEntity
  8
IMPORTED
  6
CONTINUOUS
 62
              30
100
AcDbCircle
 10
-188.74676763302227
 20
397.5012050100197
 30
0.0
 40
4.0
  0
CIRCLE
  5
489
100
AcDbEntity
  8
IMPORTED
  6
CONTINUOUS
 62
              30
100
AcDbCircle
 10
10.826932366977644
 20
325.74530501001982
 30
0.0
 40
4.0
  0
LINE
  5
48A
100
AcDbEntity
  8
IMPORTED
  6
CONTINUOUS
 62
              30
100
AcDbLine
 10
12.543932366977742
 20
329.67230501001973
 30
0.0
 11
13.752332366977726
 21
332.43570501001977
 31
0.0
  0
LINE
  5
48B
100
AcDbEntity
  8
IMPORTED
  6
CONTINUOUS
 62
              30
100
AcDbLine
 10
10.025632366977561
 20
323.91280501001984
 30
0.0
 11
11.628032366977777
 21
327.5778050100198
 31
0.0
  0
LINE
  5
48C
100
AcDbEntity
  8
IMPORTED
  6
CONTINUOUS
 62
              30
100
AcDbLine
 10
7.9015323669775626
 20
319.05490501001987
 30
0.0
 11
9.109732366977596
 21
321.81830501001969
 31
0.0
  0
LINE
  5
48D
100
AcDbEntity
  8
IMPORTED
  6
CONTINUOUS
 62
              30
100
AcDbLine
 10
12.659332366977651
 20
324.94400501001974
 30
0.0
 11
8.99433236697746
 21
326.54640501001973
 31
0.0
  0
LINE
  5
48E
100
AcDbEntity
  8
IMPORTED
  6
CONTINUOUS
 62
              30
100
AcDbLine
 10
17.517332366977598
 20
322.81990501001974
 30
0.0
 11
14.753932366977779
 21
324.02810501001977
 31
0.0
  0
LINE
  5
48F
100
AcDbEntity
  8
IMPORTED
  6
CONTINUOUS
 62
              30
100
AcDbLine
 10
-33.195767633022342
 20
349.86830501001987
 30
0.0
 11
-31.987367633022359
 21
352.63170501001969
 31
0.0
  0
LINE
  5
490
100
AcDbEntity
  8
IMPORTED
  6
CONTINUOUS
 62
              30
100
AcDbLine
 10
-35.713967633022321
 20
344.10880501001975
 30
0.0
 11
-34.111567633022332
 21
347.77380501001971
 31
0.0
  0
LINE
  5
491
100
AcDbEntity
  8
IMPORTED
  6
CONTINUOUS
 62
              30
100
AcDbLine
 10
-37.83806763302232
 20
339.25090501001978
 30
0.0
 11
-36.629867633022286
 21
342.01430501001983
 31
0.0
  0
LINE
  5
492
100
AcDbEntity
  8
IMPORTED
  6
CONTINUOUS
 62
              30
100
AcDbLine
 10
-38.839667633022373
 20
347.65840501001981
 30
0.0
 11
-41.60306763302242
 21
348.86660501001984
 31
0.0
  0
LINE
  5
493
100
AcDbEntity
  8
IMPORTED
  6
CONTINUOUS
 62
              30
100
AcDbLine
 10
-33.080167633022256
 20
345.14000501001988
 30
0.0
 11
-36.74516763302222
 21
346.74260501001982
 31
0.0
  0
LINE
  5
494
100
AcDbEntity
  8
IMPORTED
  6
CONTINUOUS
 62
              30
100
AcDbLine
 10
-28.222267633022284
 20
343.01580501001968
 30
0.0
 11
-30.985667633022331
 21
344.22420501001966
 31
0.0
  0
CIRCLE
  5
495
100
AcDbEntity
  8
IMPORTED
  6
CONTINUOUS
 62
              30
100
AcDbCircle
 10
-34.91276763302244
 20
345.94130501001973
 30
0.0
 40
4.0
  0
LINE
  5
496
100
AcDbEntity
  8
IMPORTED
  6
CONTINUOUS
 62
              30
100
AcDbLine
 10
6.8998323669777619
 20
327.46230501001969
 30
0.0
 11
4.1364323669774876
 21
328.67070501001967
 31
0.0
  0
CIRCLE
  5
497
100
AcDbEntity
  8
IMPORTED
  6
CONTINUOUS
 62
              30
100
AcDbCircle
 10
-87.301467633022412
 20
366.2367050100197
 30
0.0
 40
4.0
  0
LINE
  5
498
100
AcDbEntity
  8
IMPORTED
  6
CONTINUOUS
 62
              30
100
AcDbLine
 10
-94.21656763302235
 20
368.58220501001983
 30
0.0
 11
-91.360367633022406
 21
367.61340501001973
 31
0.0
  0
LINE
  5
499
100
AcDbEntity
  8
IMPORTED
  6
CONTINUOUS
 62
              30
100
AcDbLine
 10
-89.195567633022392
 20
366.87920501001986
 30
0.0
 11
-85.407367633022432
 21
365.59440501001973
 31
0.0
  0
LINE
  5
49A
100
AcDbEntity
  8
IMPORTED
  6
CONTINUOUS
 62
              30
100
AcDbLine
 10
-83.242567633022418
 20
364.86010501001988
 30
0.0
 11
-80.386367633022246
 21
363.89130501001978
 31
0.0
  0
LINE
  5
49B
100
AcDbEntity
  8
IMPORTED
  6
CONTINUOUS
 62
              30
100
AcDbLine
 10
-89.646867633022339
 20
359.32160501001977
 30
0.0
 11
-88.678067633022465
 21
362.17780501001971
 31
0.0
  0
LINE
  5
49C
100
AcDbEntity
  8
IMPORTED
  6
CONTINUOUS
 62
              30
100
AcDbLine
 10
-87.943767633022389
 20
364.3427050100197
 30
0.0
 11
-86.658967633022485
 21
368.13070501001971
 31
0.0
  0
LINE
  5
49D
100
AcDbEntity
  8
IMPORTED
  6
CONTINUOUS
 62
              30
100
AcDbLine
 10
-85.924767633022384
 20
370.2956050100197
 30
0.0
 11
-84.95596763302251
 21
373.15180501001987
 31
0.0
  0
LINE
  5
49E
100
AcDbEntity
  8
IMPORTED
  6
CONTINUOUS
 62
              30
100
AcDbLine
 10
-130.65046763302234
 20
380.74960501001988
 30
0.0
 11
-127.7942676330224
 21
379.78080501001978
 31
0.0
  0
CIRCLE
  5
49F
100
AcDbEntity
  8
IMPORTED
  6
CONTINUOUS
 62
              30
100
AcDbCircle
 10
-134.70936763302234
 20
382.12630501001968
 30
0.0
 40
4.0
  0
LINE
  5
4A0
100
AcDbEntity
  8
IMPORTED
  6
CONTINUOUS
 62
              30
100
AcDbLine
 10
-141.62446763302228
 20
384.47170501001983
 30
0.0
 11
-138.76826763302233
 21
383.50290501001973
 31
0.0
  0
LINE
  5
4A1
100
AcDbEntity
  8
IMPORTED
  6
CONTINUOUS
 62
              30
100
AcDbLine
 10
-136.60336763302234
 20
382.76860501001966
 30
0.0
 11
-132.81536763302233
 21
381.48380501001975
 31
0.0
  0
LINE
  5
4A2
100
AcDbEntity
  8
IMPORTED
  6
CONTINUOUS
 62
              30
100
AcDbLine
 10
-137.05486763302247
 20
375.21120501001974
 30
0.0
 11
-136.08606763302237
 21
378.06740501001968
 31
0.0
  0
LINE
  5
4A3
100
AcDbEntity
  8
IMPORTED
  6
CONTINUOUS
 62
              30
100
AcDbLine
 10
-135.35176763302229
 20
380.23230501001967
 30
0.0
 11
-134.06696763302239
 21
384.02030501001968
 31
0.0
  0
LINE
  5
4A4
100
AcDbEntity
  8
IMPORTED
  6
CONTINUOUS
 62
              30
100
AcDbLine
 10
-133.33266763302231
 20
386.18520501001967
 30
0.0
 11
-132.36386763302221
 21
389.04140501001984
 31
0.0
  0
LINE
  5
4A5
100
AcDbEntity
  8
IMPORTED
  6
CONTINUOUS
 62
              30
100
AcDbLine
 10
-181.63276763302224
 20
395.85510501001977
 30
0.0
 11
-184.57116763302224
 21
396.53490501001966
 31
0.0
  0
LINE
  5
4A6
100
AcDbEntity
  8
IMPORTED
  6
CONTINUOUS
 62
              30
100
AcDbLine
 10
-187.78056763302243
 20
401.67690501001971
 30
0.0
 11
-187.10056763302237
 21
404.61530501001971
 31
0.0
  0
LINE
  5
4A7
100
AcDbEntity
  8
IMPORTED
  6
CONTINUOUS
 62
              30
100
AcDbLine
 10
-189.19766763302232
 20
395.55270501001974
 30
0.0
 11
-188.29586763302245
 21
399.44970501001967
 31
0.0
  0
LINE
  5
4A8
100
AcDbEntity
  8
IMPORTED
  6
CONTINUOUS
 62
              30
100
AcDbLine
 10
-190.39286763302221
 20
390.38720501001967
 30
0.0
 11
-189.71306763302232
 21
393.32560501001967
 31
0.0
  0
LINE
  5
4A9
100
AcDbEntity
  8
IMPORTED
  6
CONTINUOUS
 62
              30
100
AcDbLine
 10
-186.79826763302231
 20
397.05030501001966
 30
0.0
 11
-190.69526763302224
 21
397.95210501001975
 31
0.0
  0
LINE
  5
4AA
100
AcDbEntity
  8
IMPORTED
  6
CONTINUOUS
 62
              30
100
AcDbLine
 10
-236.4523676330225
 20
413.1244050100197
 30
0.0
 11
-235.77236763302221
 21
416.0628050100197
 31
0.0
  0
LINE
  5
4AB
100
AcDbEntity
  8
IMPORTED
  6
CONTINUOUS
 62
              30
100
AcDbLine
 10
-237.86956763302237
 20
407.00020501001973
 30
0.0
 11
-236.96776763302228
 21
410.89720501001966
 31
0.0
  0
LINE
  5
4AC
100
AcDbEntity
  8
IMPORTED
  6
CONTINUOUS
 62
              30
100
AcDbLine
 10
-239.06476763302248
 20
401.83470501001966
 30
0.0
 11
-238.38496763302237
 21
404.77310501001966
 31
0.0
  0
LINE
  5
4AD
100
AcDbEntity
  8
IMPORTED
  6
CONTINUOUS
 62
              30
100
AcDbLine
 10
-241.59416763302238
 20
409.91500501001974
 30
0.0
 11
-244.53256763302238
 21
410.59480501001985
 31
0.0
  0
LINE
  5
4AE
100
AcDbEntity
  8
IMPORTED
  6
CONTINUOUS
 62
              30
100
AcDbLine
 10
-235.47006763302238
 20
408.49780501001987
 30
0.0
 11
-239.36706763302232
 21
409.39960501001974
 31
0.0
  0
LINE
  5
4AF
100
AcDbEntity
  8
IMPORTED
  6
CONTINUOUS
 62
              30
100
AcDbLine
 10
-230.30456763302232
 20
407.30250501001979
 30
0.0
 11
-233.24296763302232
 21
407.98250501001985
 31
0.0
  0
CIRCLE
  5
4B0
100
AcDbEntity
  8
IMPORTED
  6
CONTINUOUS
 62
              30
100
AcDbCircle
 10
-237.41866763302232
 20
408.94870501001969
 30
0.0
 40
4.0
  0
LINE
  5
4B1
100
AcDbEntity
  8
IMPORTED
  6
CONTINUOUS
 62
              30
100
AcDbLine
 10
-192.92246763302251
 20
398.46740501001977
 30
0.0
 11
-195.86086763302251
 21
399.14740501001984
 31
0.0
  0
LINE
  5
4B2
100
AcDbEntity
  8
IMPORTED
  6
CONTINUOUS
 62
              30
100
AcDbLine
 10
-292.06736763302229
 20
423.51920501001973
 30
0.0
 11
-291.66136763302234
 21
426.50780501001987
 31
0.0
  0
LINE
  5
4B3
100
AcDbEntity
  8
IMPORTED
  6
CONTINUOUS
 62
              30
100
AcDbLine
 10
-292.91346763302249
 20
417.29040501001987
 30
0.0
 11
-292.37506763302235
 21
421.25400501001968
 31
0.0
  0
LINE
  5
4B4
100
AcDbEntity
  8
IMPORTED
  6
CONTINUOUS
 62
              30
100
AcDbLine
 10
-293.62696763302233
 20
412.03670501001966
 30
0.0
 11
-293.22116763302233
 21
415.02530501001979
 31
0.0
  0
LINE
  5
4B5
100
AcDbEntity
  8
IMPORTED
  6
CONTINUOUS
 62
              30
100
AcDbLine
 10
-290.66236763302231
 20
419.00300501001971
 30
0.0
 11
-294.62596763302236
 21
419.54140501001984
 31
0.0
  0
LINE
  5
4B6
100
AcDbEntity
  8
IMPORTED
  6
CONTINUOUS
 62
              30
100
AcDbLine
 10
-285.40866763302233
 20
418.28950501001987
 30
0.0
 11
-288.39726763302247
 21
418.69530501001987
 31
0.0
  0
LINE
  5
4B7
100
AcDbEntity
  8
IMPORTED
  6
CONTINUOUS
 62
              30
100
AcDbLine
 10
-182.91116763302239
 20
652.48510501001965
 30
0.0
 11
-185.84936763302244
 21
653.16510501001972
 31
0.0
  0
CIRCLE
  5
4B8
100
AcDbEntity
  8
IMPORTED
  6
CONTINUOUS
 62
              30
100
AcDbCircle
 10
-317.59586763302241
 20
674.6896050100197
 30
0.0
 40
4.0
  0
LINE
  5
4B9
100
AcDbEntity
  8
IMPORTED
  6
CONTINUOUS
 62
              30
100
AcDbLine
 10
-246.28526763302239
 20
664.7494050100197
 30
0.0
 11
-250.24886763302243
 21
665.28780501001984
 31
0.0
  0
CIRCLE
  5
4BA
100
AcDbEntity
  8
IMPORTED
  6
CONTINUOUS
 62
              30
100
AcDbCircle
 10
-248.26716763302238
 20
665.01860501001966
 30
0.0
 40
4.0
  0
LINE
  5
4BB
100
AcDbEntity
  8
IMPORTED
  6
CONTINUOUS
 62
              30
100
AcDbLine
 10
-189.05886763302237
 20
658.30680501001984
 30
0.0
 11
-188.37886763302254
 21
661.24520501001984
 31
0.0
  0
LINE
  5
4BC
100
AcDbEntity
  8
IMPORTED
  6
CONTINUOUS
 62
              30
100
AcDbLine
 10
-190.47596763302249
 20
652.18260501001964
 30
0.0
 11
-189.5741676330224
 21
656.07980501001975
 31
0.0
  0
LINE
  5
4BD
100
AcDbEntity
  8
IMPORTED
  6
CONTINUOUS
 62
              30
100
AcDbLine
 10
-191.67126763302235
 20
647.01720501001978
 30
0.0
 11
-190.99126763302252
 21
649.95560501001978
 31
0.0
  0
LINE
  5
4BE
100
AcDbEntity
  8
IMPORTED
  6
CONTINUOUS
 62
              30
100
AcDbLine
 10
-194.20076763302245
 20
655.09750501001963
 30
0.0
 11
-197.13916763302245
 21
655.77750501001969
 31
0.0
  0
LINE
  5
4BF
100
AcDbEntity
  8
IMPORTED
  6
CONTINUOUS
 62
              30
100
AcDbLine
 10
-188.0764676330225
 20
653.68040501001974
 30
0.0
 11
-191.97366763302239
 21
654.58220501001983
 31
0.0
  0
CIRCLE
  5
4C0
100
AcDbEntity
  8
IMPORTED
  6
CONTINUOUS
 62
              30
100
AcDbCircle
 10
-190.02506763302222
 20
654.13120501001981
 30
0.0
 40
4.0
  0
LINE
  5
4C1
100
AcDbEntity
  8
IMPORTED
  6
CONTINUOUS
 62
              30
100
AcDbLine
 10
-247.69036763302233
 20
669.26560501001973
 30
0.0
 11
-247.28436763302238
 21
672.25420501001963
 31
0.0
  0
LINE
  5
4C2
100
AcDbEntity
  8
IMPORTED
  6
CONTINUOUS
 62
              30
100
AcDbLine
 10
-248.53626763302236
 20
663.03680501001963
 30
0.0
 11
-247.9980676330224
 21
667.00040501001968
 31
0.0
  0
LINE
  5
4C3
100
AcDbEntity
  8
IMPORTED
  6
CONTINUOUS
 62
              30
100
AcDbLine
 10
-249.24996763302238
 20
657.78300501001968
 30
0.0
 11
-248.84396763302243
 21
660.77160501001981
 31
0.0
  0
LINE
  5
4C4
100
AcDbEntity
  8
IMPORTED
  6
CONTINUOUS
 62
              30
100
AcDbLine
 10
-241.03146763302243
 20
664.03590501001963
 30
0.0
 11
-244.02006763302234
 21
664.44170501001963
 31
0.0
  0
LINE
  5
4C5
100
AcDbEntity
  8
IMPORTED
  6
CONTINUOUS
 62
              30
100
AcDbLine
 10
-310.36036763302241
 20
673.70680501001971
 30
0.0
 11
-313.34876763302236
 21
674.11280501001966
 31
0.0
  0
LINE
  5
4C6
100
AcDbEntity
  8
IMPORTED
  6
CONTINUOUS
 62
              30
100
AcDbLine
 10
-252.51406763302225
 20
665.5954050100197
 30
0.0
 11
-255.50266763302238
 21
666.00140501001965
 31
0.0
  0
LINE
  5
4C7
100
AcDbEntity
  8
IMPORTED
  6
CONTINUOUS
 62
              30
100
AcDbLine
 10
-317.01906763302236
 20
678.9365050100198
 30
0.0
 11
-316.61306763302241
 21
681.92510501001971
 31
0.0
  0
LINE
  5
4C8
100
AcDbEntity
  8
IMPORTED
  6
CONTINUOUS
 62
              30
100
AcDbLine
 10
-317.86496763302239
 20
672.70770501001971
 30
0.0
 11
-317.3267676330222
 21
676.67130501001975
 31
0.0
  0
LINE
  5
4C9
100
AcDbEntity
  8
IMPORTED
  6
CONTINUOUS
 62
              30
100
AcDbLine
 10
-318.57866763302241
 20
667.45390501001975
 30
0.0
 11
-318.17266763302246
 21
670.44250501001966
 31
0.0
  0
LINE
  5
4CA
100
AcDbEntity
  8
IMPORTED
  6
CONTINUOUS
 62
              30
100
AcDbLine
 10
-321.84286763302248
 20
675.26630501001978
 30
0.0
 11
-324.83146763302261
 21
675.67230501001973
 31
0.0
  0
LINE
  5
4CB
100
AcDbEntity
  8
IMPORTED
  6
CONTINUOUS
 62
              30
100
AcDbLine
 10
-315.61406763302239
 20
674.42050501001972
 30
0.0
 11
-319.5776676330222
 21
674.95870501001968
 31
0.0
  0
CIRCLE
  5
4CC
100
AcDbEntity
  8
IMPORTED
  6
CONTINUOUS
 62
              30
100
AcDbCircle
 10
-292.64416763302233
 20
419.27220501001966
 30
0.0
 40
4.0
  0
LINE
  5
4CD
100
AcDbEntity
  8
IMPORTED
  6
CONTINUOUS
 62
              30
100
AcDbLine
 10
-296.89116763302241
 20
419.84900501001971
 30
0.0
 11
-299.87976763302231
 21
420.25500501001966
 31
0.0
  0
LINE
  5
4CE
100
AcDbEntity
  8
IMPORTED
  6
CONTINUOUS
 62
              30
100
AcDbLine
 10
-341.58786763302237
 20
430.42700501001968
 30
0.0
 11
-341.18186763302242
 21
433.41560501001982
 31
0.0
  0
LINE
  5
4CF
100
AcDbEntity
  8
IMPORTED
  6
CONTINUOUS
 62
              30
100
AcDbLine
 10
-342.43386763302237
 20
424.19820501001982
 30
0.0
 11
-341.89546763302246
 21
428.16180501001986
 31
0.0
  0
LINE
  5
4D0
100
AcDbEntity
  8
IMPORTED
  6
CONTINUOUS
 62
              30
100
AcDbLine
 10
-343.14736763302221
 20
418.94440501001986
 30
0.0
 11
-342.74156763302221
 21
421.93300501001977
 31
0.0
  0
LINE
  5
4D1
100
AcDbEntity
  8
IMPORTED
  6
CONTINUOUS
 62
              30
100
AcDbLine
 10
-346.41156763302229
 20
426.75690501001986
 30
0.0
 11
-349.40016763302242
 21
427.16270501001986
 31
0.0
  0
LINE
  5
4D2
100
AcDbEntity
  8
IMPORTED
  6
CONTINUOUS
 62
              30
100
AcDbLine
 10
-340.18276763302242
 20
425.91080501001966
 30
0.0
 11
-344.14636763302246
 21
426.4492050100198
 31
0.0
  0
LINE
  5
4D3
100
AcDbEntity
  8
IMPORTED
  6
CONTINUOUS
 62
              30
100
AcDbLine
 10
-334.92906763302221
 20
425.19720501001984
 30
0.0
 11
-337.91766763302235
 21
425.60320501001979
 31
0.0
  0
CIRCLE
  5
4D4
100
AcDbEntity
  8
IMPORTED
  6
CONTINUOUS
 62
              30
100
AcDbCircle
 10
-342.16466763302219
 20
426.18000501001984
 30
0.0
 40
4.0
  0
LINE
  5
4D5
100
AcDbEntity
  8
IMPORTED
  6
CONTINUOUS
 62
              30
100
AcDbLine
 10
897.40243236697734
 20
-428.1318949899802
 30
0.0
 11
900.33583236697723
 21
-427.43089498998017
 31
0.0
  0
LINE
  5
4D6
100
AcDbEntity
  8
IMPORTED
  6
CONTINUOUS
 62
              30
100
AcDbLine
 10
891.28863236697725
 20
-429.59319498998013
 30
0.0
 11
895.17903236697725
 21
-428.66319498998018
 31
0.0
  0
LINE
  5
4D7
100
AcDbEntity
  8
IMPORTED
  6
CONTINUOUS
 62
              30
100
AcDbLine
 10
886.13183236697728
 20
-430.82559498998023
 30
0.0
 11
889.06523236697728
 21
-430.12459498998021
 31
0.0
  0
LINE
  5
4D8
100
AcDbEntity
  8
IMPORTED
  6
CONTINUOUS
 62
              30
100
AcDbLine
 10
893.69873236697731
 20
-431.07349498998019
 30
0.0
 11
892.76893236697731
 21
-427.18309498998019
 31
0.0
  0
LINE
  5
4D9
100
AcDbEntity
  8
IMPORTED
  6
CONTINUOUS
 62
              30
100
AcDbLine
 10
894.93133236697736
 20
-436.23019498998019
 30
0.0
 11
894.23013236697739
 21
-433.29679498998019
 31
0.0
  0
LINE
  5
4DA
100
AcDbEntity
  8
IMPORTED
  6
CONTINUOUS
 62
              30
100
AcDbLine
 10
892.23753236697735
 20
-424.95969498998022
 30
0.0
 11
891.53653236697733
 21
-422.02629498998022
 31
0.0
  0
CIRCLE
  5
4DB
100
AcDbEntity
  8
IMPORTED
  6
CONTINUOUS
 62
              30
100
AcDbCircle
 10
893.23393236697734
 20
-429.12819498998022
 30
0.0
 40
4.0
  0
LINE
  5
4DC
100
AcDbEntity
  8
IMPORTED
  6
CONTINUOUS
 62
              30
100
AcDbLine
 10
878.90463236697724
 20
-368.08949498998049
 30
0.0
 11
878.20363236697733
 21
-365.15609498998049
 31
0.0
  0
LINE
  5
4DD
100
AcDbEntity
  8
IMPORTED
  6
CONTINUOUS
 62
              30
100
AcDbLine
 10
881.37583236697731
 20
-359.9911949899805
 30
0.0
 11
884.30923236697731
 21
-359.29019498998059
 31
0.0
  0
LINE
  5
4DE
100
AcDbEntity
  8
IMPORTED
  6
CONTINUOUS
 62
              30
100
AcDbLine
 10
875.26203236697734
 20
-361.45259498998053
 30
0.0
 11
879.15243236697734
 21
-360.52259498998058
 31
0.0
  0
LINE
  5
4DF
100
AcDbEntity
  8
IMPORTED
  6
CONTINUOUS
 62
              30
100
AcDbLine
 10
870.10523236697736
 20
-362.68489498998053
 30
0.0
 11
873.03863236697725
 21
-361.98389498998051
 31
0.0
  0
LINE
  5
4E0
100
AcDbEntity
  8
IMPORTED
  6
CONTINUOUS
 62
              30
100
AcDbLine
 10
876.21093236697732
 20
-356.81899498998058
 30
0.0
 11
875.5099323669773
 21
-353.88559498998063
 31
0.0
  0
LINE
  5
4E1
100
AcDbEntity
  8
IMPORTED
  6
CONTINUOUS
 62
              30
100
AcDbLine
 10
877.67223236697737
 20
-362.93269498998052
 30
0.0
 11
876.7422323669773
 21
-359.04229498998058
 31
0.0
  0
CIRCLE
  5
4E2
100
AcDbEntity
  8
IMPORTED
  6
CONTINUOUS
 62
              30
100
AcDbCircle
 10
877.20733236697731
 20
-360.98759498998049
 30
0.0
 40
4.0
  0
LINE
  5
4E3
100
AcDbEntity
  8
IMPORTED
  6
CONTINUOUS
 62
              30
100
AcDbLine
 10
657.7673323669776
 20
-527.50459498998021
 30
0.0
 11
657.33993236697756
 21
-524.51899498998023
 31
0.0
  0
CIRCLE
  5
4E4
100
AcDbEntity
  8
IMPORTED
  6
CONTINUOUS
 62
              30
100
AcDbCircle
 10
648.05133236697748
 20
-476.52179498998021
 30
0.0
 40
4.0
  0
LINE
  5
4E5
100
AcDbEntity
  8
IMPORTED
  6
CONTINUOUS
 62
              30
100
AcDbLine
 10
652.21993236697745
 20
-475.52549498998019
 30
0.0
 11
655.15333236697757
 21
-474.82449498998017
 31
0.0
  0
LINE
  5
4E6
100
AcDbEntity
  8
IMPORTED
  6
CONTINUOUS
 62
              30
100
AcDbLine
 10
646.10613236697759
 20
-476.98669498998015
 30
0.0
 11
649.99653236697759
 21
-476.05689498998015
 31
0.0
  0
LINE
  5
4E7
100
AcDbEntity
  8
IMPORTED
  6
CONTINUOUS
 62
              30
100
AcDbLine
 10
640.94933236697761
 20
-478.21919498998022
 30
0.0
 11
643.88273236697751
 21
-477.51799498998014
 31
0.0
  0
LINE
  5
4E8
100
AcDbEntity
  8
IMPORTED
  6
CONTINUOUS
 62
              30
100
AcDbLine
 10
648.51623236697765
 20
-478.46699498998009
 30
0.0
 11
647.58643236697753
 21
-474.57659498998009
 31
0.0
  0
LINE
  5
4E9
100
AcDbEntity
  8
IMPORTED
  6
CONTINUOUS
 62
              30
100
AcDbLine
 10
649.74873236697749
 20
-483.62379498998018
 30
0.0
 11
649.04753236697752
 21
-480.69039498998018
 31
0.0
  0
LINE
  5
4EA
100
AcDbEntity
  8
IMPORTED
  6
CONTINUOUS
 62
              30
100
AcDbLine
 10
629.5019323669776
 20
-429.54739498998015
 30
0.0
 11
632.43533236697749
 21
-428.84619498998018
 31
0.0
  0
LINE
  5
4EB
100
AcDbEntity
  8
IMPORTED
  6
CONTINUOUS
 62
              30
100
AcDbLine
 10
637.06873236697766
 20
-429.79519498998025
 30
0.0
 11
636.13893236697754
 21
-425.90479498998025
 31
0.0
  0
LINE
  5
4EC
100
AcDbEntity
  8
IMPORTED
  6
CONTINUOUS
 62
              30
100
AcDbLine
 10
638.30113236697753
 20
-434.95199498998022
 30
0.0
 11
637.6001323669775
 21
-432.01859498998022
 31
0.0
  0
LINE
  5
4ED
100
AcDbEntity
  8
IMPORTED
  6
CONTINUOUS
 62
              30
100
AcDbLine
 10
647.05503236697746
 20
-472.35319498998024
 30
0.0
 11
646.35403236697766
 21
-469.41979498998012
 31
0.0
  0
LINE
  5
4EE
100
AcDbEntity
  8
IMPORTED
  6
CONTINUOUS
 62
              30
100
AcDbLine
 10
640.77243236697745
 20
-426.85359498998014
 30
0.0
 11
643.70583236697757
 21
-426.15259498998023
 31
0.0
  0
LINE
  5
4EF
100
AcDbEntity
  8
IMPORTED
  6
CONTINUOUS
 62
              30
100
AcDbLine
 10
635.60753236697747
 20
-423.68149498998014
 30
0.0
 11
634.90633236697749
 21
-420.74809498998025
 31
0.0
  0
LINE
  5
4F0
100
AcDbEntity
  8
IMPORTED
  6
CONTINUOUS
 62
              30
100
AcDbLine
 10
634.65853236697762
 20
-428.31479498998021
 30
0.0
 11
638.54893236697762
 21
-427.38499498998021
 31
0.0
  0
CIRCLE
  5
4F1
100
AcDbEntity
  8
IMPORTED
  6
CONTINUOUS
 62
              30
100
AcDbCircle
 10
636.60373236697751
 20
-427.84999498998025
 30
0.0
 40
4.0
  0
LINE
  5
4F2
100
AcDbEntity
  8
IMPORTED
  6
CONTINUOUS
 62
              30
100
AcDbLine
 10
906.56373236697732
 20
-557.73389498998017
 30
0.0
 11
909.5493323669773
 21
-557.30649498998014
 31
0.0
  0
LINE
  5
4F3
100
AcDbEntity
  8
IMPORTED
  6
CONTINUOUS
 62
              30
100
AcDbLine
 10
918.03473236697732
 20
-556.09149498998022
 30
0.0
 11
921.0203323669773
 21
-555.66409498998019
 31
0.0
  0
LINE
  5
4F4
100
AcDbEntity
  8
IMPORTED
  6
CONTINUOUS
 62
              30
100
AcDbLine
 10
914.8269323669773
 20
-563.92729498998017
 30
0.0
 11
914.39953236697738
 21
-560.94169498998008
 31
0.0
  0
LINE
  5
4F5
100
AcDbEntity
  8
IMPORTED
  6
CONTINUOUS
 62
              30
100
AcDbLine
 10
914.07553236697731
 20
-558.67889498998011
 30
0.0
 11
913.50873236697726
 21
-554.7192949899802
 31
0.0
  0
CIRCLE
  5
4F6
100
AcDbEntity
  8
IMPORTED
  6
CONTINUOUS
 62
              30
100
AcDbCircle
 10
913.79213236697728
 20
-556.69899498998006
 30
0.0
 40
4.0
  0
LINE
  5
4F7
100
AcDbEntity
  8
IMPORTED
  6
CONTINUOUS
 62
              30
100
AcDbLine
 10
911.81223236697724
 20
-556.98249498998007
 30
0.0
 11
915.77183236697738
 21
-556.41549498998017
 31
0.0
  0
LINE
  5
4F8
100
AcDbEntity
  8
IMPORTED
  6
CONTINUOUS
 62
              30
100
AcDbLine
 10
913.18463236697733
 20
-552.45629498998017
 30
0.0
 11
912.75723236697729
 21
-549.47069498998007
 31
0.0
  0
LINE
  5
4F9
100
AcDbEntity
  8
IMPORTED
  6
CONTINUOUS
 62
              30
100
AcDbLine
 10
908.36383236697725
 20
-486.76279498998019
 30
0.0
 11
911.34943236697723
 21
-486.33539498998016
 31
0.0
  0
CIRCLE
  5
4FA
100
AcDbEntity
  8
IMPORTED
  6
CONTINUOUS
 62
              30
100
AcDbCircle
 10
904.12113236697724
 20
-487.37029498998015
 30
0.0
 40
4.0
  0
LINE
  5
4FB
100
AcDbEntity
  8
IMPORTED
  6
CONTINUOUS
 62
              30
100
AcDbLine
 10
905.15603236697734
 20
-494.59859498998014
 30
0.0
 11
904.72863236697731
 21
-491.61299498998017
 31
0.0
  0
LINE
  5
4FC
100
AcDbEntity
  8
IMPORTED
  6
CONTINUOUS
 62
              30
100
AcDbLine
 10
902.14133236697728
 20
-487.65379498998016
 30
0.0
 11
906.1009323669773
 21
-487.08679498998015
 31
0.0
  0
LINE
  5
4FD
100
AcDbEntity
  8
IMPORTED
  6
CONTINUOUS
 62
              30
100
AcDbLine
 10
896.89283236697725
 20
-488.40509498998017
 30
0.0
 11
899.87843236697722
 21
-487.97769498998014
 31
0.0
  0
LINE
  5
4FE
100
AcDbEntity
  8
IMPORTED
  6
CONTINUOUS
 62
              30
100
AcDbLine
 10
904.40463236697724
 20
-489.34999498998013
 30
0.0
 11
903.83763236697723
 21
-485.39039498998022
 31
0.0
  0
LINE
  5
4FF
100
AcDbEntity
  8
IMPORTED
  6
CONTINUOUS
 62
              30
100
AcDbLine
 10
903.51363236697728
 20
-483.12749498998016
 30
0.0
 11
903.08623236697736
 21
-480.14189498998007
 31
0.0
  0
LINE
  5
500
100
AcDbEntity
  8
IMPORTED
  6
CONTINUOUS
 62
              30
100
AcDbLine
 10
669.52533236697764
 20
-580.66029498998023
 30
0.0
 11
672.51093236697761
 21
-580.2328949899802
 31
0.0
  0
LINE
  5
501
100
AcDbEntity
  8
IMPORTED
  6
CONTINUOUS
 62
              30
100
AcDbLine
 10
663.30273236697758
 20
-581.55109498998013
 30
0.0
 11
667.26233236697749
 21
-580.98429498998007
 31
0.0
  0
LINE
  5
502
100
AcDbEntity
  8
IMPORTED
  6
CONTINUOUS
 62
              30
100
AcDbLine
 10
658.05433236697763
 20
-582.30249498998023
 30
0.0
 11
661.03973236697766
 21
-581.8750949899802
 31
0.0
  0
LINE
  5
503
100
AcDbEntity
  8
IMPORTED
  6
CONTINUOUS
 62
              30
100
AcDbLine
 10
665.56593236697745
 20
-583.24749498998017
 30
0.0
 11
664.99913236697762
 21
-579.28789498998015
 31
0.0
  0
LINE
  5
504
100
AcDbEntity
  8
IMPORTED
  6
CONTINUOUS
 62
              30
100
AcDbLine
 10
666.31733236697755
 20
-588.49589498998012
 30
0.0
 11
665.88993236697752
 21
-585.51049498998009
 31
0.0
  0
CIRCLE
  5
505
100
AcDbEntity
  8
IMPORTED
  6
CONTINUOUS
 62
              30
100
AcDbCircle
 10
665.28253236697765
 20
-581.2676949899801
 30
0.0
 40
4.0
  0
LINE
  5
506
100
AcDbEntity
  8
IMPORTED
  6
CONTINUOUS
 62
              30
100
AcDbLine
 10
664.67513236697755
 20
-577.02499498998009
 30
0.0
 11
664.24773236697752
 21
-574.03939498998011
 31
0.0
  0
CIRCLE
  5
507
100
AcDbEntity
  8
IMPORTED
  6
CONTINUOUS
 62
              30
100
AcDbCircle
 10
658.37473236697747
 20
-531.74729498998022
 30
0.0
 40
4.0
  0
LINE
  5
508
100
AcDbEntity
  8
IMPORTED
  6
CONTINUOUS
 62
              30
100
AcDbLine
 10
656.39493236697763
 20
-532.03059498998016
 30
0.0
 11
660.35453236697754
 21
-531.46379498998022
 31
0.0
  0
LINE
  5
509
100
AcDbEntity
  8
IMPORTED
  6
CONTINUOUS
 62
              30
100
AcDbLine
 10
651.14653236697745
 20
-532.78209498998012
 30
0.0
 11
654.13193236697748
 21
-532.35469498998009
 31
0.0
  0
LINE
  5
50A
100
AcDbEntity
  8
IMPORTED
  6
CONTINUOUS
 62
              30
100
AcDbLine
 10
658.6581323669775
 20
-533.72709498998017
 30
0.0
 11
658.09133236697767
 21
-529.76749498998015
 31
0.0
  0
LINE
  5
50B
100
AcDbEntity
  8
IMPORTED
  6
CONTINUOUS
 62
              30
100
AcDbLine
 10
659.4095323669776
 20
-538.97559498998021
 30
0.0
 11
658.98213236697757
 21
-535.98999498998023
 31
0.0
  0
LINE
  5
50C
100
AcDbEntity
  8
IMPORTED
  6
CONTINUOUS
 62
              30
100
AcDbLine
 10
662.61743236697748
 20
-531.13979498998015
 30
0.0
 11
665.60303236697746
 21
-530.71239498998011
 31
0.0
  0
CIRCLE
  5
50D
100
AcDbEntity
  8
IMPORTED
  6
CONTINUOUS
 62
              30
100
AcDbCircle
 10
922.49183236697729
 20
-685.62179498998012
 30
0.0
 40
4.0
  0
LINE
  5
50E
100
AcDbEntity
  8
IMPORTED
  6
CONTINUOUS
 62
              30
100
AcDbLine
 10
922.40673236697728
 20
-683.62359498998012
 30
0.0
 11
922.5769323669773
 21
-687.61999498998011
 31
0.0
  0
LINE
  5
50F
100
AcDbEntity
  8
IMPORTED
  6
CONTINUOUS
 62
              30
100
AcDbLine
 10
922.67443236697727
 20
-689.90399498998011
 30
0.0
 11
922.80283236697733
 21
-692.91719498998009
 31
0.0
  0
LINE
  5
510
100
AcDbEntity
  8
IMPORTED
  6
CONTINUOUS
 62
              30
100
AcDbLine
 10
915.19653236697729
 20
-685.93269498998018
 30
0.0
 11
918.20973236697728
 21
-685.80429498998012
 31
0.0
  0
LINE
  5
511
100
AcDbEntity
  8
IMPORTED
  6
CONTINUOUS
 62
              30
100
AcDbLine
 10
920.49363236697729
 20
-685.70689498998013
 30
0.0
 11
924.49003236697729
 21
-685.53669498998011
 31
0.0
  0
LINE
  5
512
100
AcDbEntity
  8
IMPORTED
  6
CONTINUOUS
 62
              30
100
AcDbLine
 10
926.77393236697731
 20
-685.43929498998011
 30
0.0
 11
929.78713236697729
 21
-685.31089498998017
 31
0.0
  0
LINE
  5
513
100
AcDbEntity
  8
IMPORTED
  6
CONTINUOUS
 62
              30
100
AcDbLine
 10
922.18093236697723
 20
-678.32639498998014
 30
0.0
 11
922.30933236697729
 21
-681.33959498998013
 31
0.0
  0
CIRCLE
  5
514
100
AcDbEntity
  8
IMPORTED
  6
CONTINUOUS
 62
              30
100
AcDbCircle
 10
919.25903236697729
 20
-615.69649498998012
 30
0.0
 40
4.0
  0
LINE
  5
515
100
AcDbEntity
  8
IMPORTED
  6
CONTINUOUS
 62
              30
100
AcDbLine
 10
919.44163236697727
 20
-619.97849498998016
 30
0.0
 11
919.57003236697733
 21
-622.99169498998015
 31
0.0
  0
LINE
  5
516
100
AcDbEntity
  8
IMPORTED
  6
CONTINUOUS
 62
              30
100
AcDbLine
 10
918.94813236697723
 20
-608.40099498998006
 30
0.0
 11
919.07653236697729
 21
-611.41439498998011
 31
0.0
  0
LINE
  5
517
100
AcDbEntity
  8
IMPORTED
  6
CONTINUOUS
 62
              30
100
AcDbLine
 10
919.17383236697731
 20
-613.69819498998015
 30
0.0
 11
919.34423236697728
 21
-617.69459498998015
 31
0.0
  0
LINE
  5
518
100
AcDbEntity
  8
IMPORTED
  6
CONTINUOUS
 62
              30
100
AcDbLine
 10
911.9637323669773
 20
-616.00739498998018
 30
0.0
 11
914.97693236697728
 21
-615.87899498998013
 31
0.0
  0
LINE
  5
519
100
AcDbEntity
  8
IMPORTED
  6
CONTINUOUS
 62
              30
100
AcDbLine
 10
917.2608323669773
 20
-615.78159498998014
 30
0.0
 11
921.25723236697729
 21
-615.61139498998011
 31
0.0
  0
LINE
  5
51A
100
AcDbEntity
  8
IMPORTED
  6
CONTINUOUS
 62
              30
100
AcDbLine
 10
923.54113236697731
 20
-615.51399498998012
 30
0.0
 11
926.55433236697729
 21
-615.38559498998018
 31
0.0
  0
CIRCLE
  5
51B
100
AcDbEntity
  8
IMPORTED
  6
CONTINUOUS
 62
              30
100
AcDbCircle
 10
672.77543236697761
 20
-687.15609498998015
 30
0.0
 40
4.0
  0
LINE
  5
51C
100
AcDbEntity
  8
IMPORTED
  6
CONTINUOUS
 62
              30
100
AcDbLine
 10
670.77733236697759
 20
-687.24139498998011
 30
0.0
 11
674.77373236697758
 21
-687.07099498998014
 31
0.0
  0
LINE
  5
51D
100
AcDbEntity
  8
IMPORTED
  6
CONTINUOUS
 62
              30
100
AcDbLine
 10
672.95803236697748
 20
-691.43809498998007
 30
0.0
 11
673.08643236697753
 21
-694.45149498998012
 31
0.0
  0
LINE
  5
51E
100
AcDbEntity
  8
IMPORTED
  6
CONTINUOUS
 62
              30
100
AcDbLine
 10
677.05763236697749
 20
-686.97359498998014
 30
0.0
 11
680.07083236697758
 21
-686.8451949899802
 31
0.0
  0
LINE
  5
51F
100
AcDbEntity
  8
IMPORTED
  6
CONTINUOUS
 62
              30
100
AcDbLine
 10
670.64883236697756
 20
-641.49169498998015
 30
0.0
 11
670.77723236697761
 21
-644.50489498998013
 31
0.0
  0
LINE
  5
520
100
AcDbEntity
  8
IMPORTED
  6
CONTINUOUS
 62
              30
100
AcDbLine
 10
672.46453236697766
 20
-679.86079498998015
 30
0.0
 11
672.59293236697749
 21
-682.87399498998013
 31
0.0
  0
LINE
  5
521
100
AcDbEntity
  8
IMPORTED
  6
CONTINUOUS
 62
              30
100
AcDbLine
 10
672.6903323669776
 20
-685.15789498998015
 30
0.0
 11
672.86073236697757
 21
-689.15429498998014
 31
0.0
  0
LINE
  5
522
100
AcDbEntity
  8
IMPORTED
  6
CONTINUOUS
 62
              30
100
AcDbLine
 10
665.48013236697761
 20
-687.46709498998007
 30
0.0
 11
668.49333236697748
 21
-687.33869498998013
 31
0.0
  0
LINE
  5
523
100
AcDbEntity
  8
IMPORTED
  6
CONTINUOUS
 62
              30
100
AcDbLine
 10
670.15543236697749
 20
-629.91419498998016
 30
0.0
 11
670.28383236697755
 21
-632.92739498998014
 31
0.0
  0
LINE
  5
524
100
AcDbEntity
  8
IMPORTED
  6
CONTINUOUS
 62
              30
100
AcDbLine
 10
670.38113236697745
 20
-635.21129498998016
 30
0.0
 11
670.55153236697765
 21
-639.20769498998015
 31
0.0
  0
LINE
  5
525
100
AcDbEntity
  8
IMPORTED
  6
CONTINUOUS
 62
              30
100
AcDbLine
 10
663.17103236697744
 20
-637.52049498998008
 30
0.0
 11
666.18423236697754
 21
-637.39209498998014
 31
0.0
  0
LINE
  5
526
100
AcDbEntity
  8
IMPORTED
  6
CONTINUOUS
 62
              30
100
AcDbLine
 10
668.46813236697744
 20
-637.29479498998012
 30
0.0
 11
672.46453236697766
 21
-637.12439498998015
 31
0.0
  0
LINE
  5
527
100
AcDbEntity
  8
IMPORTED
  6
CONTINUOUS
 62
              30
100
AcDbLine
 10
674.74853236697754
 20
-637.02699498998015
 30
0.0
 11
677.76173236697764
 21
-636.89859498998021
 31
0.0
  0
CIRCLE
  5
528
100
AcDbEntity
  8
IMPORTED
  6
CONTINUOUS
 62
              30
100
AcDbCircle
 10
670.46633236697767
 20
-637.20949498998016
 30
0.0
 40
4.0
  0
LINE
  5
529
100
AcDbEntity
  8
IMPORTED
  6
CONTINUOUS
 62
               1
100
AcDbLine
 10
454.58453236697756
 20
793.31630501001973
 30
0.0
 11
226.56313236697747
 21
563.31630501001973
 31
0.0
  0
MTEXT
  5
52A
100
AcDbEntity
  8
IMPORTED
 62
               1
100
AcDbMText
 10
1598.5310999999997
 20
197.34121718749989
 30
0.0
 40
24.432617187500004
 41
0.0
 71
               1
 72
               1
  1
座板 ESW(134×93)×25M塗装
  7
_______
  0
POLYLINE
  5
52B
100
AcDbEntity
  8
IMPORTED
  6
STYLE_05
 62
              30
100
AcDb2dPolyline
 66
               1
 10
0.0
 20
0.0
 30
0.0
 70
             129
  0
VERTEX
  5
52C
100
AcDbEntity
  8
IMPORTED
  6
STYLE_05
 62
              30
100
AcDbVertex
100
AcDb2dVertex
 10
950.6605897141543
 20
-18.647407626669946
 30
0.0
  0
VERTEX
  5
52D
100
AcDbEntity
  8
IMPORTED
  6
STYLE_05
 62
              30
100
AcDbVertex
100
AcDb2dVertex
 10
1079.2362129063677
 20
-397.4194997539862
 30
0.0
  0
VERTEX
  5
52E
100
AcDbEntity
  8
IMPORTED
  6
STYLE_05
 62
              30
100
AcDbVertex
100
AcDb2dVertex
 10
511.07802471540003
 20
-590.28303454230922
 30
0.0
  0
VERTEX
  5
52F
100
AcDbEntity
  8
IMPORTED
  6
STYLE_05
 62
              30
100
AcDbVertex
100
AcDb2dVertex
 10
382.50240152318679
 20
-211.51094241499283
 30
0.0
  0
VERTEX
  5
530
100
AcDbEntity
  8
IMPORTED
  6
STYLE_05
 62
              30
100
AcDbVertex
100
AcDb2dVertex
 10
950.6605897141543
 20
-18.647407626669946
 30
0.0
  0
SEQEND
  5
531
100
AcDbEntity
  8
IMPORTED
  6
STYLE_05
 62
              30
  0
POLYLINE
  5
532
100
AcDbEntity
  8
IMPORTED
  6
STYLE_05
 62
              30
100
AcDb2dPolyline
 66
               1
 10
0.0
 20
0.0
 30
0.0
 70
             129
  0
VERTEX
  5
533
100
AcDbEntity
  8
IMPORTED
  6
STYLE_05
 62
              30
100
AcDbVertex
100
AcDb2dVertex
 10
919.38599359726902
 20
-82.065909541613422
 30
0.0
  0
VERTEX
  5
534
100
AcDbEntity
  8
IMPORTED
  6
STYLE_05
 62
              30
100
AcDbVertex
100
AcDb2dVertex
 10
1015.8177109914304
 20
-366.1450036371009
 30
0.0
  0
VERTEX
  5
535
100
AcDbEntity
  8
IMPORTED
  6
STYLE_05
 62
              30
100
AcDbVertex
100
AcDb2dVertex
 10
542.35262083228577
 20
-526.86453262736575
 30
0.0
  0
VERTEX
  5
536
100
AcDbEntity
  8
IMPORTED
  6
STYLE_05
 62
              30
100
AcDbVertex
100
AcDb2dVertex
 10
445.92090343812401
 20
-242.78543853187867
 30
0.0
  0
VERTEX
  5
537
100
AcDbEntity
  8
IMPORTED
  6
STYLE_05
 62
              30
100
AcDbVertex
100
AcDb2dVertex
 10
919.38599359726902
 20
-82.065909541613422
 30
0.0
  0
SEQEND
  5
538
100
AcDbEntity
  8
IMPORTED
  6
STYLE_05
 62
              30
  0
POLYLINE
  5
539
100
AcDbEntity
  8
IMPORTED
  6
STYLE_05
 62
              30
100
AcDb2dPolyline
 66
               1
 10
0.0
 20
0.0
 30
0.0
 70
             129
  0
VERTEX
  5
53A
100
AcDbEntity
  8
IMPORTED
  6
STYLE_05
 62
              30
100
AcDbVertex
100
AcDb2dVertex
 10
-3.6830240911194778
 20
206.81843393887672
 30
0.0
  0
VERTEX
  5
53B
100
AcDbEntity
  8
IMPORTED
  6
STYLE_05
 62
              30
100
AcDbVertex
100
AcDb2dVertex
 10
-287.76212999563131
 20
303.25011654471405
 30
0.0
  0
VERTEX
  5
53C
100
AcDbEntity
  8
IMPORTED
  6
STYLE_05
 62
              30
100
AcDbVertex
100
AcDb2dVertex
 10
-127.04265898589711
 20
776.71522638556735
 30
0.0
  0
VERTEX
  5
53D
100
AcDbEntity
  8
IMPORTED
  6
STYLE_05
 62
              30
100
AcDbVertex
100
AcDb2dVertex
 10
157.03644691861473
 20
680.28354377972914
 30
0.0
  0
VERTEX
  5
53E
100
AcDbEntity
  8
IMPORTED
  6
STYLE_05
 62
              30
100
AcDbVertex
100
AcDb2dVertex
 10
-3.6830240911194778
 20
206.81843393887672
 30
0.0
  0
SEQEND
  5
53F
100
AcDbEntity
  8
IMPORTED
  6
STYLE_05
 62
              30
  0
POLYLINE
  5
540
100
AcDbEntity
  8
IMPORTED
  6
STYLE_05
 62
              30
100
AcDb2dPolyline
 66
               1
 10
0.0
 20
0.0
 30
0.0
 70
             129
  0
VERTEX
  5
541
100
AcDbEntity
  8
IMPORTED
  6
STYLE_05
 62
              30
100
AcDbVertex
100
AcDb2dVertex
 10
27.591479791994971
 20
143.39993585381384
 30
0.0
  0
VERTEX
  5
542
100
AcDbEntity
  8
IMPORTED
  6
STYLE_05
 62
              30
100
AcDbVertex
100
AcDb2dVertex
 10
-351.18062808068748
 20
271.97551266159985
 30
0.0
  0
VERTEX
  5
543
100
AcDbEntity
  8
IMPORTED
  6
STYLE_05
 62
              30
100
AcDbVertex
100
AcDb2dVertex
 10
-158.31716286901133
 20
840.13372447062966
 30
0.0
  0
VERTEX
  5
544
100
AcDbEntity
  8
IMPORTED
  6
STYLE_05
 62
              30
100
AcDbVertex
100
AcDb2dVertex
 10
220.45494500367113
 20
711.55814766284357
 30
0.0
  0
VERTEX
  5
545
100
AcDbEntity
  8
IMPORTED
  6
STYLE_05
 62
              30
100
AcDbVertex
100
AcDb2dVertex
 10
27.591479791994971
 20
143.39993585381384
 30
0.0
  0
SEQEND
  5
546
100
AcDbEntity
  8
IMPORTED
  6
STYLE_05
 62
              30
  0
POLYLINE
  5
547
100
AcDbEntity
  8
IMPORTED
  6
STYLE_05
 62
              30
100
AcDb2dPolyline
 66
               1
 10
0.0
 20
0.0
 30
0.0
 70
             129
  0
VERTEX
  5
548
100
AcDbEntity
  8
IMPORTED
  6
STYLE_05
 62
              30
100
AcDbVertex
100
AcDb2dVertex
 10
-16.183536313324339
 20
406.42983317347012
 30
0.0
  0
VERTEX
  5
549
100
AcDbEntity
  8
IMPORTED
  6
STYLE_05
 62
              30
100
AcDbVertex
100
AcDb2dVertex
 10
-16.183536313324339
 20
406.42983317347012
 30
0.0
 42
-0.4142143019716482
 70
               2
 50
-19.449260487808505
  0
VERTEX
  5
54A
100
AcDbEntity
  8
IMPORTED
  6
STYLE_05
 62
              30
100
AcDbVertex
100
AcDb2dVertex
 10
-111.31123344092089
 20
359.5181273488015
 30
0.0
  0
VERTEX
  5
54B
100
AcDbEntity
  8
IMPORTED
  6
STYLE_05
 62
              30
100
AcDbVertex
100
AcDb2dVertex
 10
-111.31123344092089
 20
359.5181273488015
 30
0.0
  0
VERTEX
  5
54C
100
AcDbEntity
  8
IMPORTED
  6
STYLE_05
 62
              30
100
AcDbVertex
100
AcDb2dVertex
 10
-111.31123344092089
 20
359.5181273488015
 30
0.0
  0
VERTEX
  5
54D
100
AcDbEntity
  8
IMPORTED
  6
STYLE_05
 62
              30
100
AcDbVertex
100
AcDb2dVertex
 10
-111.31123344092089
 20
359.5181273488015
 30
0.0
 42
-0.4142138066430194
 70
               2
 50
168.78893515111415
  0
VERTEX
  5
54E
100
AcDbEntity
  8
IMPORTED
  6
STYLE_05
 62
              30
100
AcDbVertex
100
AcDb2dVertex
 10
-158.22313926558331
 20
454.64572447638602
 30
0.0
  0
VERTEX
  5
54F
100
AcDbEntity
  8
IMPORTED
  6
STYLE_05
 62
              30
100
AcDbVertex
100
AcDb2dVertex
 10
-158.22313926558331
 20
454.64572447638602
 30
0.0
  0
VERTEX
  5
550
100
AcDbEntity
  8
IMPORTED
  6
STYLE_05
 62
              30
100
AcDbVertex
100
AcDb2dVertex
 10
-116.436146803057
 20
577.74672703500346
 30
0.0
  0
VERTEX
  5
551
100
AcDbEntity
  8
IMPORTED
  6
STYLE_05
 62
              30
100
AcDbVertex
100
AcDb2dVertex
 10
-116.436146803057
 20
577.74672703500346
 30
0.0
  0
VERTEX
  5
552
100
AcDbEntity
  8
IMPORTED
  6
STYLE_05
 62
              30
100
AcDbVertex
100
AcDb2dVertex
 10
-116.436146803057
 20
577.74672703500346
 30
0.0
 42
-0.414211594635817
 70
               2
 50
-19.449528420189797
  0
VERTEX
  5
553
100
AcDbEntity
  8
IMPORTED
  6
STYLE_05
 62
              30
100
AcDbVertex
100
AcDb2dVertex
 10
-21.308349675466388
 20
624.65853285967819
 30
0.0
  0
VERTEX
  5
554
100
AcDbEntity
  8
IMPORTED
  6
STYLE_05
 62
              30
100
AcDbVertex
100
AcDb2dVertex
 10
-21.308349675466388
 20
624.65853285967819
 30
0.0
  0
VERTEX
  5
555
100
AcDbEntity
  8
IMPORTED
  6
STYLE_05
 62
              30
100
AcDbVertex
100
AcDb2dVertex
 10
-21.308349675466388
 20
624.65853285967819
 30
0.0
  0
VERTEX
  5
556
100
AcDbEntity
  8
IMPORTED
  6
STYLE_05
 62
              30
100
AcDbVertex
100
AcDb2dVertex
 10
-21.308349675466388
 20
624.65853285967819
 30
0.0
 42
-0.414214301971455
 70
               2
 50
168.78917281589287
  0
VERTEX
  5
557
100
AcDbEntity
  8
IMPORTED
  6
STYLE_05
 62
              30
100
AcDbVertex
100
AcDb2dVertex
 10
25.60355614920195
 20
529.53083573209369
 30
0.0
  0
VERTEX
  5
558
100
AcDbEntity
  8
IMPORTED
  6
STYLE_05
 62
              30
100
AcDbVertex
100
AcDb2dVertex
 10
25.60355614920195
 20
529.53083573209369
 30
0.0
  0
VERTEX
  5
559
100
AcDbEntity
  8
IMPORTED
  6
STYLE_05
 62
              30
100
AcDbVertex
100
AcDb2dVertex
 10
-16.183536313324339
 20
406.42983317347012
 30
0.0
  0
VERTEX
  5
55A
100
AcDbEntity
  8
IMPORTED
  6
STYLE_05
 62
              30
100
AcDbVertex
100
AcDb2dVertex
 10
-16.183536313324339
 20
406.42983317347012
 30
0.0
  0
SEQEND
  5
55B
100
AcDbEntity
  8
IMPORTED
  6
STYLE_05
 62
              30
  0
CIRCLE
  5
55C
100
AcDbEntity
  8
IMPORTED
  6
STYLE_05
 62
              30
100
AcDbCircle
 10
645.96690904410934
 20
-334.34162628306365
 30
0.0
 40
7.4999999999999858
  0
CIRCLE
  5
55D
100
AcDbEntity
  8
IMPORTED
  6
STYLE_05
 62
              30
100
AcDbCircle
 10
816.09280544341789
 20
-275.53561586625551
 30
0.0
 40
7.5000000000000995
  0
LINE
  5
55E
100
AcDbEntity
  8
IMPORTED
  6
STYLE_06
 62
               1
100
AcDbLine
 10
-476.14516763302231
 20
-715.24749498998017
 30
0.0
 11
-476.14516763302231
 21
850.0
 31
0.0
  0
LINE
  5
55F
100
AcDbEntity
  8
IMPORTED
  6
STYLE_06
 62
               1
100
AcDbLine
 10
-476.14516763302231
 20
-715.24749498998017
 30
0.0
 11
1135.0
 21
-715.24749498998017
 31
0.0
  0
POLYLINE
  5
560
100
AcDbEntity
  8
IMPORTED
  6
STYLE_05
 62
              30
100
AcDb2dPolyline
 66
               1
 10
0.0
 20
0.0
 30
0.0
 70
             129
  0
VERTEX
  5
561
100
AcDbEntity
  8
IMPORTED
  6
STYLE_05
 62
              30
100
AcDbVertex
100
AcDb2dVertex
 10
573.58713289485399
 20
-707.02476237960832
 30
0.0
  0
VERTEX
  5
562
100
AcDbEntity
  8
IMPORTED
  6
STYLE_05
 62
              30
100
AcDbVertex
100
AcDb2dVertex
 10
569.86783805926234
 20
-626.57846214084066
 30
0.0
  0
VERTEX
  5
563
100
AcDbEntity
  8
IMPORTED
  6
STYLE_05
 62
              30
100
AcDbVertex
100
AcDb2dVertex
 10
569.86783805926234
 20
-626.57846214084066
 30
0.0
 42
-0.4007503513890758
 70
               2
 50
2.649758391628513
  0
VERTEX
  5
564
100
AcDbEntity
  8
IMPORTED
  6
STYLE_05
 62
              30
100
AcDbVertex
100
AcDb2dVertex
 10
575.30783846059603
 20
-620.32686249007202
 30
0.0
  0
VERTEX
  5
565
100
AcDbEntity
  8
IMPORTED
  6
STYLE_05
 62
              30
100
AcDbVertex
100
AcDb2dVertex
 10
575.30783846059603
 20
-620.32686249007202
 30
0.0
  0
VERTEX
  5
566
100
AcDbEntity
  8
IMPORTED
  6
STYLE_05
 62
              30
100
AcDbVertex
100
AcDb2dVertex
 10
1011.4276410549486
 20
-579.9144904876398
 30
0.0
  0
VERTEX
  5
567
100
AcDbEntity
  8
IMPORTED
  6
STYLE_05
 62
              30
100
AcDbVertex
100
AcDb2dVertex
 10
1011.4277199737007
 20
-579.91448317596189
 30
0.0
 42
-0.4278067031305371
 70
               2
 50
-618.42322400221326
  0
VERTEX
  5
568
100
AcDbEntity
  8
IMPORTED
  6
STYLE_05
 62
              30
100
AcDbVertex
100
AcDb2dVertex
 10
1017.9748366638281
 20
-585.61180383817111
 30
0.0
  0
VERTEX
  5
569
100
AcDbEntity
  8
IMPORTED
  6
STYLE_05
 62
              30
100
AcDbVertex
100
AcDb2dVertex
 10
1017.9748406891925
 20
-585.61189090795028
 30
0.0
  0
VERTEX
  5
56A
100
AcDbEntity
  8
IMPORTED
  6
STYLE_05
 62
              30
100
AcDbVertex
100
AcDb2dVertex
 10
1017.9748406891925
 20
-585.61189090795028
 30
0.0
  0
VERTEX
  5
56B
100
AcDbEntity
  8
IMPORTED
  6
STYLE_05
 62
              30
100
AcDbVertex
100
AcDb2dVertex
 10
1023.5624329304309
 20
-706.47059126665681
 30
0.0
  0
VERTEX
  5
56C
100
AcDbEntity
  8
IMPORTED
  6
STYLE_05
 62
              30
100
AcDbVertex
100
AcDb2dVertex
 10
1023.562433241341
 20
-706.47059799173053
 30
0.0
 42
-0.4278104846829869
 70
               2
 50
2.6488684387407817
  0
VERTEX
  5
56D
100
AcDbEntity
  8
IMPORTED
  6
STYLE_05
 62
              30
100
AcDbVertex
100
AcDb2dVertex
 10
1017.5688346438809
 20
-712.74769088188611
 30
0.0
  0
VERTEX
  5
56E
100
AcDbEntity
  8
IMPORTED
  6
STYLE_05
 62
              30
100
AcDbVertex
100
AcDb2dVertex
 10
1017.5688325274601
 20
-712.747690881886
 30
0.0
  0
VERTEX
  5
56F
100
AcDbEntity
  8
IMPORTED
  6
STYLE_05
 62
              30
100
AcDbVertex
100
AcDb2dVertex
 10
1017.5688325274601
 20
-712.747690881886
 30
0.0
  0
VERTEX
  5
570
100
AcDbEntity
  8
IMPORTED
  6
STYLE_05
 62
              30
100
AcDbVertex
100
AcDb2dVertex
 10
579.58073252746112
 20
-712.74766276437936
 30
0.0
  0
VERTEX
  5
571
100
AcDbEntity
  8
IMPORTED
  6
STYLE_05
 62
              30
100
AcDbVertex
100
AcDb2dVertex
 10
579.5807304110574
 20
-712.74766276437924
 30
0.0
 42
-0.4007450337363923
 70
               2
 50
892500035.61418974
  0
VERTEX
  5
572
100
AcDbEntity
  8
IMPORTED
  6
STYLE_05
 62
              30
100
AcDbVertex
100
AcDb2dVertex
 10
573.58713362371714
 20
-707.02477814384372
 30
0.0
  0
VERTEX
  5
573
100
AcDbEntity
  8
IMPORTED
  6
STYLE_05
 62
              30
100
AcDbVertex
100
AcDb2dVertex
 10
573.58713289485399
 20
-707.02476237960832
 30
0.0
  0
SEQEND
  5
574
100
AcDbEntity
  8
IMPORTED
  6
STYLE_05
 62
              30
  0
POLYLINE
  5
575
100
AcDbEntity
  8
IMPORTED
  6
STYLE_05
 62
              30
100
AcDb2dPolyline
 66
               1
 10
0.0
 20
0.0
 30
0.0
 70
             129
  0
VERTEX
  5
576
100
AcDbEntity
  8
IMPORTED
  6
STYLE_05
 62
              30
100
AcDbVertex
100
AcDb2dVertex
 10
568.3504391105389
 20
-610.20266204342829
 30
0.0
  0
VERTEX
  5
577
100
AcDbEntity
  8
IMPORTED
  6
STYLE_05
 62
              30
100
AcDbVertex
100
AcDb2dVertex
 10
557.22444423088245
 20
-530.44276132917298
 30
0.0
  0
VERTEX
  5
578
100
AcDbEntity
  8
IMPORTED
  6
STYLE_05
 62
              30
100
AcDbVertex
100
AcDb2dVertex
 10
557.22444423088245
 20
-530.44276132917298
 30
0.0
 42
-0.4007495480772651
 70
               2
 50
7.9932678418849861
  0
VERTEX
  5
579
100
AcDbEntity
  8
IMPORTED
  6
STYLE_05
 62
              30
100
AcDbVertex
100
AcDb2dVertex
 10
562.06434466272253
 20
-523.71596163988011
 30
0.0
  0
VERTEX
  5
57A
100
AcDbEntity
  8
IMPORTED
  6
STYLE_05
 62
              30
100
AcDbVertex
100
AcDb2dVertex
 10
562.06434466272253
 20
-523.71596163988011
 30
0.0
  0
VERTEX
  5
57B
100
AcDbEntity
  8
IMPORTED
  6
STYLE_05
 62
              30
100
AcDbVertex
100
AcDb2dVertex
 10
992.59494982930607
 20
-443.23578927863787
 30
0.0
  0
VERTEX
  5
57C
100
AcDbEntity
  8
IMPORTED
  6
STYLE_05
 62
              30
100
AcDbVertex
100
AcDb2dVertex
 10
992.59494982930607
 20
-443.23578927863787
 30
0.0
 42
-0.4278123422565504
 70
               2
 50
-306.50792897923026
  0
VERTEX
  5
57D
100
AcDbEntity
  8
IMPORTED
  6
STYLE_05
 62
              30
100
AcDbVertex
100
AcDb2dVertex
 10
999.63984950389806
 20
-448.3046897308991
 30
0.0
  0
VERTEX
  5
57E
100
AcDbEntity
  8
IMPORTED
  6
STYLE_05
 62
              30
100
AcDbVertex
100
AcDb2dVertex
 10
999.63984950389806
 20
-448.3046897308991
 30
0.0
  0
VERTEX
  5
57F
100
AcDbEntity
  8
IMPORTED
  6
STYLE_05
 62
              30
100
AcDbVertex
100
AcDb2dVertex
 10
1016.3550418113299
 20
-568.132290803964
 30
0.0
  0
VERTEX
  5
580
100
AcDbEntity
  8
IMPORTED
  6
STYLE_05
 62
              30
100
AcDbVertex
100
AcDb2dVertex
 10
1016.3550426186486
 20
-568.13229659105241
 30
0.0
 42
-0.4278087421423948
 70
               2
 50
7.9929577306009625
  0
VERTEX
  5
581
100
AcDbEntity
  8
IMPORTED
  6
STYLE_05
 62
              30
100
AcDbVertex
100
AcDb2dVertex
 10
1010.9662954851897
 20
-574.93568544304026
 30
0.0
  0
VERTEX
  5
582
100
AcDbEntity
  8
IMPORTED
  6
STYLE_05
 62
              30
100
AcDbVertex
100
AcDb2dVertex
 10
1010.9662413745724
 20
-574.93569045801951
 30
0.0
  0
VERTEX
  5
583
100
AcDbEntity
  8
IMPORTED
  6
STYLE_05
 62
              30
100
AcDbVertex
100
AcDb2dVertex
 10
1010.9662413745724
 20
-574.93569045801951
 30
0.0
  0
VERTEX
  5
584
100
AcDbEntity
  8
IMPORTED
  6
STYLE_05
 62
              30
100
AcDbVertex
100
AcDb2dVertex
 10
574.84653878021345
 20
-615.3481624604583
 30
0.0
  0
VERTEX
  5
585
100
AcDbEntity
  8
IMPORTED
  6
STYLE_05
 62
              30
100
AcDbVertex
100
AcDb2dVertex
 10
574.8465070413597
 20
-615.34816540144391
 30
0.0
 42
-0.4007454626772599
 70
               2
 50
-618.33093491945874
  0
VERTEX
  5
586
100
AcDbEntity
  8
IMPORTED
  6
STYLE_05
 62
              30
100
AcDbVertex
100
AcDb2dVertex
 10
568.35044356173546
 20
-610.20269395315165
 30
0.0
  0
VERTEX
  5
587
100
AcDbEntity
  8
IMPORTED
  6
STYLE_05
 62
              30
100
AcDbVertex
100
AcDb2dVertex
 10
568.3504391105389
 20
-610.20266204342829
 30
0.0
  0
SEQEND
  5
588
100
AcDbEntity
  8
IMPORTED
  6
STYLE_05
 62
              30
  0
POLYLINE
  5
589
100
AcDbEntity
  8
IMPORTED
  6
STYLE_05
 62
              30
100
AcDb2dPolyline
 66
               1
 10
0.0
 20
0.0
 30
0.0
 70
             129
  0
VERTEX
  5
58A
100
AcDbEntity
  8
IMPORTED
  6
STYLE_05
 62
              30
100
AcDbVertex
100
AcDb2dVertex
 10
554.20244526869055
 20
-514.27676113516941
 30
0.0
  0
VERTEX
  5
58B
100
AcDbEntity
  8
IMPORTED
  6
STYLE_05
 62
              30
100
AcDbVertex
100
AcDb2dVertex
 10
535.7644503012898
 20
-435.88365995150616
 30
0.0
  0
VERTEX
  5
58C
100
AcDbEntity
  8
IMPORTED
  6
STYLE_05
 62
              30
100
AcDbVertex
100
AcDb2dVertex
 10
535.7644503012898
 20
-435.88365995150616
 30
0.0
 42
-0.4007422496256097
 70
               2
 50
13.47495178522863
  0
VERTEX
  5
58D
100
AcDbEntity
  8
IMPORTED
  6
STYLE_05
 62
              30
100
AcDbVertex
100
AcDb2dVertex
 10
539.9631507599513
 20
-428.73906022104984
 30
0.0
  0
VERTEX
  5
58E
100
AcDbEntity
  8
IMPORTED
  6
STYLE_05
 62
              30
100
AcDbVertex
100
AcDb2dVertex
 10
539.9631507599513
 20
-428.73906022104984
 30
0.0
  0
VERTEX
  5
58F
100
AcDbEntity
  8
IMPORTED
  6
STYLE_05
 62
              30
100
AcDbVertex
100
AcDb2dVertex
 10
961.23135845466891
 20
-308.8779872651906
 30
0.0
  0
VERTEX
  5
590
100
AcDbEntity
  8
IMPORTED
  6
STYLE_05
 62
              30
100
AcDbVertex
100
AcDb2dVertex
 10
961.23137508360946
 20
-308.87798253395431
 30
0.0
 42
-0.4278083083050885
 70
               2
 50
-201.37825439576798
  0
VERTEX
  5
591
100
AcDbEntity
  8
IMPORTED
  6
STYLE_05
 62
              30
100
AcDbVertex
100
AcDb2dVertex
 10
968.71394379474077
 20
-313.27522661635055
 30
0.0
  0
VERTEX
  5
592
100
AcDbEntity
  8
IMPORTED
  6
STYLE_05
 62
              30
100
AcDbVertex
100
AcDb2dVertex
 10
968.71395817237567
 20
-313.27528774555083
 30
0.0
  0
VERTEX
  5
593
100
AcDbEntity
  8
IMPORTED
  6
STYLE_05
 62
              30
100
AcDbVertex
100
AcDb2dVertex
 10
968.71395817237567
 20
-313.27528774555083
 30
0.0
  0
VERTEX
  5
594
100
AcDbEntity
  8
IMPORTED
  6
STYLE_05
 62
              30
100
AcDbVertex
100
AcDb2dVertex
 10
996.41425061164239
 20
-431.04928952382511
 30
0.0
  0
VERTEX
  5
595
100
AcDbEntity
  8
IMPORTED
  6
STYLE_05
 62
              30
100
AcDbVertex
100
AcDb2dVertex
 10
996.41425568432794
 20
-431.04931109279437
 30
0.0
 42
-0.4278091426214679
 70
               2
 50
13.475074737820647
  0
VERTEX
  5
596
100
AcDbEntity
  8
IMPORTED
  6
STYLE_05
 62
              30
100
AcDbVertex
100
AcDb2dVertex
 10
991.67606596739472
 20
-438.32078626201189
 30
0.0
  0
VERTEX
  5
597
100
AcDbEntity
  8
IMPORTED
  6
STYLE_05
 62
              30
100
AcDbVertex
100
AcDb2dVertex
 10
991.67605014483422
 20
-438.32078921964717
 30
0.0
  0
VERTEX
  5
598
100
AcDbEntity
  8
IMPORTED
  6
STYLE_05
 62
              30
100
AcDbVertex
100
AcDb2dVertex
 10
991.67605014483422
 20
-438.32078921964717
 30
0.0
  0
VERTEX
  5
599
100
AcDbEntity
  8
IMPORTED
  6
STYLE_05
 62
              30
100
AcDbVertex
100
AcDb2dVertex
 10
561.14554497825065
 20
-518.80096158089555
 30
0.0
  0
VERTEX
  5
59A
100
AcDbEntity
  8
IMPORTED
  6
STYLE_05
 62
              30
100
AcDbVertex
100
AcDb2dVertex
 10
561.14554497825065
 20
-518.80096158089555
 30
0.0
 42
-0.4007483833892581
 70
               2
 50
-306.51173110405608
  0
VERTEX
  5
59B
100
AcDbEntity
  8
IMPORTED
  6
STYLE_05
 62
              30
100
AcDbVertex
100
AcDb2dVertex
 10
554.20244526869055
 20
-514.27676113516941
 30
0.0
  0
SEQEND
  5
59C
100
AcDbEntity
  8
IMPORTED
  6
STYLE_05
 62
              30
  0
LINE
  5
59D
100
AcDbEntity
  8
IMPORTED
  6
CONTINUOUS
 62
               1
100
AcDbLine
 10
413.27883501377823
 20
-412.82827129410691
 30
0.0
 11
1048.6127307218417
 21
-198.26101093974978
 31
0.0
  0
LINE
  5
59E
100
AcDbEntity
  8
IMPORTED
  6
CONTINUOUS
 62
               1
100
AcDbLine
 10
1048.6127307218417
 20
-198.26101093974978
 30
0.0
 11
1016.6158256092616
 21
-103.51824013676692
 31
0.0
  0
LINE
  5
59F
100
AcDbEntity
  8
IMPORTED
  6
CONTINUOUS
 62
               1
100
AcDbLine
 10
1016.6158256092616
 20
-103.51824013676692
 30
0.0
 11
1034.996506818921
 21
-130.76872067288349
 31
0.0
  0
LINE
  5
5A0
100
AcDbEntity
  8
IMPORTED
  6
CONTINUOUS
 62
               1
100
AcDbLine
 10
1016.6158256092616
 20
-103.51824013676692
 30
0.0
 11
1018.9087222076316
 21
-136.30818915120696
 31
0.0
  0
LINE
  5
5A1
100
AcDbEntity
  8
IMPORTED
  6
CONTINUOUS
 62
               1
100
AcDbLine
 10
1034.996506818921
 20
-130.76872067288349
 30
0.0
 11
1018.9087222076316
 21
-136.30818915120696
 31
0.0
  0
LINE
  5
5A2
100
AcDbEntity
  8
IMPORTED
  6
CONTINUOUS
 62
               1
100
AcDbLine
 10
413.27883501377823
 20
-412.82827129410691
 30
0.0
 11
381.28192990119805
 21
-318.08550049112455
 31
0.0
  0
LINE
  5
5A3
100
AcDbEntity
  8
IMPORTED
  6
CONTINUOUS
 62
               1
100
AcDbLine
 10
381.28192990119805
 20
-318.08550049112455
 30
0.0
 11
399.66261111085748
 21
-345.33598102724113
 31
0.0
  0
LINE
  5
5A4
100
AcDbEntity
  8
IMPORTED
  6
CONTINUOUS
 62
               1
100
AcDbLine
 10
381.28192990119805
 20
-318.08550049112455
 30
0.0
 11
383.57482649956808
 21
-350.87544950556457
 31
0.0
  0
LINE
  5
5A5
100
AcDbEntity
  8
IMPORTED
  6
CONTINUOUS
 62
               1
100
AcDbLine
 10
399.66261111085748
 20
-345.33598102724113
 30
0.0
 11
383.57482649956808
 21
-350.87544950556457
 31
0.0
  0
MTEXT
  5
5A6
100
AcDbEntity
  8
IMPORTED
 62
               1
100
AcDbMText
 10
343.98596613302084
 20
-271.61893538551783
 30
0.0
 40
24.4326171875
 41
0.0
 71
               1
 72
               1
  1
A
  7
_______
  0
LINE
  5
5A7
100
AcDbEntity
  8
IMPORTED
  6
STYLE_05
 62
              30
100
AcDbLine
 10
-466.14536700427993
 20
709.71729460542156
 30
0.0
 11
-466.14556695661008
 21
409.70798110640612
 31
0.0
  0
MTEXT
  5
5A8
100
AcDbEntity
  8
IMPORTED
 62
              30
100
AcDbMText
 10
199.74999327129785
 20
-1090.2395118742379
 30
0.0
 40
48.865234375
 41
0.0
 71
               1
 72
               1
  1
平面図
  7
_______
  0
POLYLINE
  5
5A9
100
AcDbEntity
  8
IMPORTED
  6
CONTINUOUS
 62
              30
100
AcDb2dPolyline
 66
               1
 10
0.0
 20
0.0
 30
0.0
 70
             129
  0
VERTEX
  5
5AA
100
AcDbEntity
  8
IMPORTED
  6
CONTINUOUS
 62
              30
100
AcDbVertex
100
AcDb2dVertex
 10
135.0
 20
-1067.05105
 30
0.0
  0
VERTEX
  5
5AB
100
AcDbEntity
  8
IMPORTED
  6
CONTINUOUS
 62
              30
100
AcDbVertex
100
AcDb2dVertex
 10
455.0
 20
-1067.05105
 30
0.0
  0
VERTEX
  5
5AC
100
AcDbEntity
  8
IMPORTED
  6
CONTINUOUS
 62
              30
100
AcDbVertex
100
AcDb2dVertex
 10
455.0
 20
-1167.05105
 30
0.0
  0
VERTEX
  5
5AD
100
AcDbEntity
  8
IMPORTED
  6
CONTINUOUS
 62
              30
100
AcDbVertex
100
AcDb2dVertex
 10
135.0
 20
-1167.05105
 30
0.0
  0
VERTEX
  5
5AE
100
AcDbEntity
  8
IMPORTED
  6
CONTINUOUS
 62
              30
100
AcDbVertex
100
AcDb2dVertex
 10
135.0
 20
-1067.05105
 30
0.0
  0
SEQEND
  5
5AF
100
AcDbEntity
  8
IMPORTED
  6
CONTINUOUS
 62
              30
  0
MTEXT
  5
5B0
100
AcDbEntity
  8
IMPORTED
 62
               1
100
AcDbMText
 10
127.37499663564893
 20
929.58521718749989
 30
0.0
 40
24.4326171875
 41
0.0
 71
               1
 72
               1
  1
脚位置
  7
_______
  0
LINE
  5
5B1
100
AcDbEntity
  8
IMPORTED
  6
CONTINUOUS
 62
               1
100
AcDbLine
 10
45.001128265185798
 20
820.0
 30
0.0
 11
106.12090336435119
 21
889.83019999999988
 31
0.0
  0
LINE
  5
5B2
100
AcDbEntity
  8
IMPORTED
  6
CONTINUOUS
 62
               1
100
AcDbLine
 10
250.0
 20
889.83019999999988
 30
0.0
 11
106.12090336435119
 21
889.83019999999988
 31
0.0
  0
LINE
  5
5B3
100
AcDbEntity
  8
IMPORTED
  6
CONTINUOUS
 62
               1
100
AcDbLine
 10
948.20010228669548
 20
-672.05599523523017
 30
0.0
 11
1076.4687704610083
 21
-598.00004513619615
 31
0.0
  0
LINE
  5
5B4
100
AcDbEntity
  8
IMPORTED
  6
CONTINUOUS
 62
               1
100
AcDbLine
 10
1076.4687704610083
 20
-598.00004513619615
 30
0.0
 11
1306.0
 21
-597.99998019488885
 31
0.0
  0
MTEXT
  5
5B5
100
AcDbEntity
  8
IMPORTED
 62
               1
100
AcDbMText
 10
1084.3190528351315
 20
-561.03236864594874
 30
0.0
 40
24.432617187500004
 41
0.0
 71
               1
 72
               1
  1
L-50×50×4.5
  7
_______
 11
0.9999999999999599
 21
0.0000002829301745
 31
0.0
  0
LINE
  5
5B6
100
AcDbEntity
  8
IMPORTED
  6
CONTINUOUS
 62
               3
100
AcDbLine
 10
628.46369583165324
 20
-313.76803457869289
 30
0.0
 11
817.94960284502588
 21
-249.77416896208183
 31
0.0
  0
LINE
  5
5B7
100
AcDbEntity
  8
IMPORTED
  6
CONTINUOUS
 62
               3
100
AcDbLine
 10
644.46213747958927
 20
-361.13943802885035
 30
0.0
 11
833.9480444929618
 21
-297.14557241223929
 31
0.0
  0
LINE
  5
5B8
100
AcDbEntity
  8
IMPORTED
  6
CONTINUOUS
 62
               1
100
AcDbLine
 10
-476.14516763302231
 20
-745.24749487822146
 30
0.0
 11
-476.14516763302231
 21
-914.262274474592
 31
0.0
  0
LINE
  5
5B9
100
AcDbEntity
  8
IMPORTED
  6
CONTINUOUS
 62
               1
100
AcDbLine
 10
1023.562433241341
 20
-736.47059787997182
 30
0.0
 11
1023.562433241341
 21
-914.262274474592
 31
0.0
  0
LINE
  5
5BA
100
AcDbEntity
  8
IMPORTED
  6
CONTINUOUS
 62
               1
100
AcDbLine
 10
-496.1451675585165
 20
-894.26227454909781
 30
0.0
 11
-476.14516763302231
 21
-894.26227454909781
 31
0.0
  0
LINE
  5
5BB
100
AcDbEntity
  8
IMPORTED
  6
CONTINUOUS
 62
               1
100
AcDbLine
 10
1023.562433241341
 20
-894.26227454909781
 30
0.0
 11
1043.562433166835
 21
-894.26227454909781
 31
0.0
  0
LINE
  5
5BC
100
AcDbEntity
  8
IMPORTED
  6
CONTINUOUS
 62
               1
100
AcDbLine
 10
-476.14516763302231
 20
-894.26227454909781
 30
0.0
 11
1023.562433241341
 21
-894.26227454909781
 31
0.0
  0
SOLID
  5
5BD
100
AcDbEntity
  8
IMPORTED
 62
               1
100
AcDbTrace
 10
-476.14516763302231
 20
-894.26227454909781
 30
0.0
 11
-456.14638833614731
 21
-892.51260807626431
 31
0.0
 12
-456.14638833614731
 22
-896.01194102193131
 32
0.0
 13
-456.14638833614731
 23
-896.01194102193131
 33
0.0
  0
SOLID
  5
5BE
100
AcDbEntity
  8
IMPORTED
 62
               1
100
AcDbTrace
 10
1023.562433241341
 20
-894.26227454909781
 30
0.0
 11
1003.563653944466
 21
-896.01194102193131
 31
0.0
 12
1003.563653944466
 22
-892.51260807626431
 32
0.0
 13
1003.563653944466
 23
-892.51260807626431
 33
0.0
  0
MTEXT
  5
5BF
100
AcDbEntity
  8
IMPORTED
 62
               1
100
AcDbMText
 10
241.95863280415938
 20
-855.38465739885066
 30
0.0
 40
24.432617187500004
 41
0.0
 71
               1
 72
               1
  1
1500
  7
_______
  0
LINE
  5
5C0
100
AcDbEntity
  8
IMPORTED
  6
CONTINUOUS
 62
               1
100
AcDbLine
 10
573.58713362371714
 20
-737.02477803208501
 30
0.0
 11
573.58713362371714
 21
-833.99999992549419
 31
0.0
  0
LINE
  5
5C1
100
AcDbEntity
  8
IMPORTED
  6
CONTINUOUS
 62
               1
100
AcDbLine
 10
1023.562433241341
 20
-736.47059787997182
 30
0.0
 11
1023.562433241341
 21
-833.99999992549419
 31
0.0
  0
LINE
  5
5C2
100
AcDbEntity
  8
IMPORTED
  6
CONTINUOUS
 62
               1
100
AcDbLine
 10
553.58713369822294
 20
-814.0
 30
0.0
 11
573.58713362371714
 21
-814.0
 31
0.0
  0
LINE
  5
5C3
100
AcDbEntity
  8
IMPORTED
  6
CONTINUOUS
 62
               1
100
AcDbLine
 10
1023.562433241341
 20
-814.0
 30
0.0
 11
1043.562433166835
 21
-814.0
 31
0.0
  0
LINE
  5
5C4
100
AcDbEntity
  8
IMPORTED
  6
CONTINUOUS
 62
               1
100
AcDbLine
 10
573.58713362371714
 20
-814.0
 30
0.0
 11
1023.562433241341
 21
-814.0
 31
0.0
  0
SOLID
  5
5C5
100
AcDbEntity
  8
IMPORTED
 62
               1
100
AcDbTrace
 10
573.58713362371714
 20
-814.0
 30
0.0
 11
593.58591292059214
 21
-812.2503335271665
 31
0.0
 12
593.58591292059214
 22
-815.7496664728335
 32
0.0
 13
593.58591292059214
 23
-815.7496664728335
 33
0.0
  0
SOLID
  5
5C6
100
AcDbEntity
  8
IMPORTED
 62
               1
100
AcDbTrace
 10
1023.562433241341
 20
-814.0
 30
0.0
 11
1003.563653944466
 21
-815.7496664728335
 31
0.0
 12
1003.563653944466
 22
-812.2503335271665
 32
0.0
 13
1003.563653944466
 23
-812.2503335271665
 33
0.0
  0
MTEXT
  5
5C7
100
AcDbEntity
  8
IMPORTED
 62
               1
100
AcDbMText
 10
774.76228175035351
 20
-775.12238284975285
 30
0.0
 40
24.432617187500004
 41
0.0
 71
               1
 72
               1
  1
450
  7
_______
  0
LINE
  5
5C8
100
AcDbEntity
  8
IMPORTED
  6
CONTINUOUS
 62
               1
100
AcDbLine
 10
444.01920676679742
 20
498.20064152682608
 30
0.0
 11
506.77019914808955
 21
574.7476446454059
 31
0.0
  0
LINE
  5
5C9
100
AcDbEntity
  8
IMPORTED
  6
CONTINUOUS
 62
               1
100
AcDbLine
 10
547.3350391337749
 20
413.50534653684576
 30
0.0
 11
610.08603151506702
 21
490.05234965542559
 31
0.0
  0
LINE
  5
5CA
100
AcDbEntity
  8
IMPORTED
  6
CONTINUOUS
 62
               1
100
AcDbLine
 10
478.62363361900725
 20
571.96002147205343
 30
0.0
 11
494.09072797022463
 21
559.28055029418852
 31
0.0
  0
LINE
  5
5CB
100
AcDbEntity
  8
IMPORTED
  6
CONTINUOUS
 62
               1
100
AcDbLine
 10
597.40656033720211
 20
474.5852553042082
 30
0.0
 11
612.87365468841949
 21
461.90578412634329
 31
0.0
  0
LINE
  5
5CC
100
AcDbEntity
  8
IMPORTED
  6
CONTINUOUS
 62
               1
100
AcDbLine
 10
494.09072797022463
 20
559.28055029418852
 30
0.0
 11
597.40656033720211
 21
474.5852553042082
 31
0.0
  0
SOLID
  5
5CD
100
AcDbEntity
  8
IMPORTED
 62
               1
100
AcDbTrace
 10
494.09072797022463
 20
559.28055029418852
 30
0.0
 11
510.73379932375065
 21
548.05465691981897
 31
0.0
 12
508.53159774596998
 22
545.33516445330054
 32
0.0
 13
508.53159774596998
 23
545.33516445330054
 33
0.0
  0
SOLID
  5
5CE
100
AcDbEntity
  8
IMPORTED
 62
               1
100
AcDbTrace
 10
597.40656033720211
 20
474.5852553042082
 30
0.0
 11
580.96194265784686
 21
486.09990056626941
 31
0.0
 12
583.21127051748954
 22
488.78054512392077
 32
0.0
 13
583.21127051748954
 23
488.78054512392077
 33
0.0
  0
MTEXT
  5
5CF
100
AcDbEntity
  8
IMPORTED
 62
               1
100
AcDbMText
 10
551.98051497012352
 20
562.09558803571156
 30
0.0
 40
24.432617187500004
 41
0.0
 71
               1
 72
               1
  1
134
  7
_______
 11
0.7733547204418393
 21
-0.6339735612549822
 31
0.0
  0
LINE
  5
5D0
100
AcDbEntity
  8
IMPORTED
  6
CONTINUOUS
 62
               1
100
AcDbLine
 10
142.90142668456235
 20
102.65328728206052
 30
0.0
 11
83.501497233814462
 21
31.120680694938955
 31
0.0
  0
LINE
  5
5D1
100
AcDbEntity
  8
IMPORTED
  6
CONTINUOUS
 62
               1
100
AcDbLine
 10
214.07982668456214
 20
43.547487282060331
 30
0.0
 11
154.67989723381424
 21
-27.985119305061218
 31
0.0
  0
LINE
  5
5D2
100
AcDbEntity
  8
IMPORTED
  6
CONTINUOUS
 62
               1
100
AcDbLine
 10
80.891755870118459
 20
59.28429630185542
 30
0.0
 11
96.278434355424679
 21
46.507359180245203
 31
0.0
  0
LINE
  5
5D3
100
AcDbEntity
  8
IMPORTED
  6
CONTINUOUS
 62
               1
100
AcDbLine
 10
167.45683435542446
 20
-12.598440819754956
 30
0.0
 11
182.84351284073068
 21
-25.375377941365173
 31
0.0
  0
LINE
  5
5D4
100
AcDbEntity
  8
IMPORTED
  6
CONTINUOUS
 62
               1
100
AcDbLine
 10
96.278434355424679
 20
46.507359180245203
 30
0.0
 11
167.45683435542446
 21
-12.598440819754956
 31
0.0
  0
SOLID
  5
5D5
100
AcDbEntity
  8
IMPORTED
 62
               1
100
AcDbTrace
 10
96.278434355424679
 20
46.507359180245203
 30
0.0
 11
112.92150570895069
 21
35.281465805875655
 31
0.0
 12
110.71930413117002
 22
32.561973339357195
 32
0.0
 13
110.71930413117002
 23
32.561973339357195
 33
0.0
  0
SOLID
  5
5D6
100
AcDbEntity
  8
IMPORTED
 62
               1
100
AcDbTrace
 10
167.45683435542446
 20
-12.598440819754956
 30
0.0
 11
151.01221667606922
 21
-1.083795557693719
 31
0.0
 12
153.26154453571189
 22
1.5968489999576718
 32
0.0
 13
153.26154453571189
 23
1.5968489999576718
 33
0.0
  0
MTEXT
  5
5D7
100
AcDbEntity
  8
IMPORTED
 62
               1
100
AcDbMText
 10
144.49130184307671
 20
57.006022938010972
 30
0.0
 40
24.432617187500004
 41
0.0
 71
               1
 72
               1
  1
93
  7
_______
 11
0.769333927131305
 21
-0.6388468584604012
 31
0.0
  0
LINE
  5
5D8
100
AcDbEntity
  8
IMPORTED
  6
CONTINUOUS
 62
               1
100
AcDbLine
 10
2190.4549999999999
 20
-574.74739988824138
 30
0.0
 11
2190.4549999999999
 21
-819.74729992549419
 31
0.0
  0
LINE
  5
5D9
100
AcDbEntity
  8
IMPORTED
  6
CONTINUOUS
 62
               1
100
AcDbLine
 10
2470.4549999999995
 20
-574.74739988824138
 30
0.0
 11
2470.4549999999995
 21
-819.74729992549419
 31
0.0
  0
LINE
  5
5DA
100
AcDbEntity
  8
IMPORTED
  6
CONTINUOUS
 62
               1
100
AcDbLine
 10
2170.4550000745057
 20
-799.7473
 30
0.0
 11
2190.4549999999999
 21
-799.7473
 31
0.0
  0
LINE
  5
5DB
100
AcDbEntity
  8
IMPORTED
  6
CONTINUOUS
 62
               1
100
AcDbLine
 10
2470.4549999999995
 20
-799.7473
 30
0.0
 11
2490.4549999254937
 21
-799.7473
 31
0.0
  0
LINE
  5
5DC
100
AcDbEntity
  8
IMPORTED
  6
CONTINUOUS
 62
               1
100
AcDbLine
 10
2190.4549999999999
 20
-799.7473
 30
0.0
 11
2470.4549999999995
 21
-799.7473
 31
0.0
  0
SOLID
  5
5DD
100
AcDbEntity
  8
IMPORTED
 62
               1
100
AcDbTrace
 10
2190.4549999999999
 20
-799.7473
 30
0.0
 11
2210.4537792968749
 21
-797.9976335271665
 31
0.0
 12
2210.4537792968749
 22
-801.49696647283349
 32
0.0
 13
2210.4537792968749
 23
-801.49696647283349
 33
0.0
  0
SOLID
  5
5DE
100
AcDbEntity
  8
IMPORTED
 62
               1
100
AcDbTrace
 10
2470.4549999999995
 20
-799.7473
 30
0.0
 11
2450.4562207031245
 21
-801.49696647283349
 31
0.0
 12
2450.4562207031245
 22
-797.9976335271665
 32
0.0
 13
2450.4562207031245
 23
-797.9976335271665
 33
0.0
  0
MTEXT
  5
5DF
100
AcDbEntity
  8
IMPORTED
 62
               1
100
AcDbMText
 10
2266.9549999999995
 20
-760.86968284975285
 30
0.0
 40
24.432617187500004
 41
0.0
 71
               1
 72
               1
  1
280×150
  7
_______
  0
LINE
  5
5E0
100
AcDbEntity
  8
IMPORTED
  6
CONTINUOUS
 62
               1
100
AcDbLine
 10
2089.0781999999999
 20
-574.7472998882414
 30
0.0
 11
2089.0781999999999
 21
-904.99999992549419
 31
0.0
  0
LINE
  5
5E1
100
AcDbEntity
  8
IMPORTED
  6
CONTINUOUS
 62
               1
100
AcDbLine
 10
2589.0781999999995
 20
-574.7472998882414
 30
0.0
 11
2589.0781999999995
 21
-904.99999992549419
 31
0.0
  0
LINE
  5
5E2
100
AcDbEntity
  8
IMPORTED
  6
CONTINUOUS
 62
               1
100
AcDbLine
 10
2069.0782000745057
 20
-885.0
 30
0.0
 11
2089.0781999999999
 21
-885.0
 31
0.0
  0
LINE
  5
5E3
100
AcDbEntity
  8
IMPORTED
  6
CONTINUOUS
 62
               1
100
AcDbLine
 10
2589.0781999999995
 20
-885.0
 30
0.0
 11
2609.0781999254937
 21
-885.0
 31
0.0
  0
LINE
  5
5E4
100
AcDbEntity
  8
IMPORTED
  6
CONTINUOUS
 62
               1
100
AcDbLine
 10
2089.0781999999999
 20
-885.0
 30
0.0
 11
2589.0781999999995
 21
-885.0
 31
0.0
  0
SOLID
  5
5E5
100
AcDbEntity
  8
IMPORTED
 62
               1
100
AcDbTrace
 10
2089.0781999999999
 20
-885.0
 30
0.0
 11
2109.0769792968749
 21
-883.2503335271665
 31
0.0
 12
2109.0769792968749
 22
-886.7496664728335
 32
0.0
 13
2109.0769792968749
 23
-886.7496664728335
 33
0.0
  0
SOLID
  5
5E6
100
AcDbEntity
  8
IMPORTED
 62
               1
100
AcDbTrace
 10
2589.0781999999995
 20
-885.0
 30
0.0
 11
2569.0794207031245
 21
-886.7496664728335
 31
0.0
 12
2569.0794207031245
 22
-883.2503335271665
 32
0.0
 13
2569.0794207031245
 23
-883.2503335271665
 33
0.0
  0
MTEXT
  5
5E7
100
AcDbEntity
  8
IMPORTED
 62
               1
100
AcDbMText
 10
2275.5781999999995
 20
-846.12238284975285
 30
0.0
 40
24.432617187500004
 41
0.0
 71
               1
 72
               1
  1
500×300
  7
_______
  0
LINE
  5
5E8
100
AcDbEntity
  8
IMPORTED
  6
CONTINUOUS
 62
               1
100
AcDbLine
 10
2039.0781999999997
 20
-724.74729988824129
 30
0.0
 11
2039.0781999999997
 21
-993.99999992549419
 31
0.0
  0
LINE
  5
5E9
100
AcDbEntity
  8
IMPORTED
  6
CONTINUOUS
 62
               1
100
AcDbLine
 10
2639.0781999999995
 20
-724.74729988824129
 30
0.0
 11
2639.0781999999995
 21
-993.99999992549419
 31
0.0
  0
LINE
  5
5EA
100
AcDbEntity
  8
IMPORTED
  6
CONTINUOUS
 62
               1
100
AcDbLine
 10
2019.0782000745055
 20
-974.0
 30
0.0
 11
2039.0781999999997
 21
-974.0
 31
0.0
  0
LINE
  5
5EB
100
AcDbEntity
  8
IMPORTED
  6
CONTINUOUS
 62
               1
100
AcDbLine
 10
2639.0781999999995
 20
-974.0
 30
0.0
 11
2659.0781999254937
 21
-974.0
 31
0.0
  0
LINE
  5
5EC
100
AcDbEntity
  8
IMPORTED
  6
CONTINUOUS
 62
               1
100
AcDbLine
 10
2039.0781999999997
 20
-974.0
 30
0.0
 11
2639.0781999999995
 21
-974.0
 31
0.0
  0
SOLID
  5
5ED
100
AcDbEntity
  8
IMPORTED
 62
               1
100
AcDbTrace
 10
2039.0781999999997
 20
-974.0
 30
0.0
 11
2059.0769792968749
 21
-972.2503335271665
 31
0.0
 12
2059.0769792968749
 22
-975.7496664728335
 32
0.0
 13
2059.0769792968749
 23
-975.7496664728335
 33
0.0
  0
SOLID
  5
5EE
100
AcDbEntity
  8
IMPORTED
 62
               1
100
AcDbTrace
 10
2639.0781999999995
 20
-974.0
 30
0.0
 11
2619.0794207031245
 21
-975.7496664728335
 31
0.0
 12
2619.0794207031245
 22
-972.2503335271665
 32
0.0
 13
2619.0794207031245
 23
-972.2503335271665
 33
0.0
  0
MTEXT
  5
5EF
100
AcDbEntity
  8
IMPORTED
 62
               1
100
AcDbMText
 10
2275.5781999999995
 20
-935.12238284975285
 30
0.0
 40
24.432617187500004
 41
0.0
 71
               1
 72
               1
  1
600×400
  7
_______
  0
LINE
  5
5F0
100
AcDbEntity
  8
IMPORTED
  6
CONTINUOUS
 62
               1
100
AcDbLine
 10
1650.0
 20
-630.45030000000008
 30
0.0
 11
1930.4316999999996
 21
-630.45030000000008
 31
0.0
  0
LINE
  5
5F1
100
AcDbEntity
  8
IMPORTED
  6
CONTINUOUS
 62
               1
100
AcDbLine
 10
1930.4316999999996
 20
-630.45030000000008
 30
0.0
 11
2105.4316999999996
 21
-455.45030000000008
 31
0.0
  0
LINE
  5
5F2
100
AcDbEntity
  8
IMPORTED
  6
CONTINUOUS
 62
               1
100
AcDbLine
 10
1659.0
 20
-743.13959999999997
 30
0.0
 11
1928.9549999999997
 21
-743.13959999999997
 31
0.0
  0
LINE
  5
5F3
100
AcDbEntity
  8
IMPORTED
  6
CONTINUOUS
 62
               1
100
AcDbLine
 10
1928.9549999999997
 20
-743.13959999999997
 30
0.0
 11
2103.9549999999999
 21
-568.13960000000009
 31
0.0
  0
LINE
  5
5F4
100
AcDbEntity
  8
IMPORTED
  6
CONTINUOUS
 62
               1
100
AcDbLine
 10
1629.0
 20
-829.27739999999994
 30
0.0
 11
1928.9549999999997
 21
-829.27739999999994
 31
0.0
  0
LINE
  5
5F5
100
AcDbEntity
  8
IMPORTED
  6
CONTINUOUS
 62
               1
100
AcDbLine
 10
1928.9549999999997
 20
-829.27739999999994
 30
0.0
 11
2116.0
 21
-642.23239999999964
 31
0.0
  0
LINE
  5
5F6
100
AcDbEntity
  8
IMPORTED
  6
CONTINUOUS
 62
               1
100
AcDbLine
 10
2669.0781998882408
 20
-694.7473
 30
0.0
 11
2850.4549999254937
 21
-694.7473
 31
0.0
  0
LINE
  5
5F7
100
AcDbEntity
  8
IMPORTED
  6
CONTINUOUS
 62
               1
100
AcDbLine
 10
2669.0781998882408
 20
-594.74730000000011
 30
0.0
 11
2850.4549999254937
 21
-594.74730000000011
 31
0.0
  0
LINE
  5
5F8
100
AcDbEntity
  8
IMPORTED
  6
CONTINUOUS
 62
               1
100
AcDbLine
 10
2830.4549999999995
 20
-714.74729992549419
 30
0.0
 11
2830.4549999999995
 21
-694.7473
 31
0.0
  0
LINE
  5
5F9
100
AcDbEntity
  8
IMPORTED
  6
CONTINUOUS
 62
               1
100
AcDbLine
 10
2830.4549999999995
 20
-594.74730000000011
 30
0.0
 11
2830.4549999999995
 21
-574.74730007450592
 31
0.0
  0
LINE
  5
5FA
100
AcDbEntity
  8
IMPORTED
  6
CONTINUOUS
 62
               1
100
AcDbLine
 10
2830.4549999999995
 20
-694.7473
 30
0.0
 11
2830.4549999999995
 21
-594.74730000000011
 31
0.0
  0
SOLID
  5
5FB
100
AcDbEntity
  8
IMPORTED
 62
               1
100
AcDbTrace
 10
2830.4549999999995
 20
-694.7473
 30
0.0
 11
2828.7053335271657
 21
-674.748520703125
 31
0.0
 12
2832.2046664728332
 22
-674.748520703125
 32
0.0
 13
2832.2046664728332
 23
-674.748520703125
 33
0.0
  0
SOLID
  5
5FC
100
AcDbEntity
  8
IMPORTED
 62
               1
100
AcDbTrace
 10
2830.4549999999995
 20
-594.74730000000011
 30
0.0
 11
2832.2046664728332
 21
-614.74607929687511
 31
0.0
 12
2828.7053335271657
 22
-614.74607929687511
 32
0.0
 13
2828.7053335271657
 23
-614.74607929687511
 33
0.0
  0
MTEXT
  5
5FD
100
AcDbEntity
  8
IMPORTED
 62
               1
100
AcDbMText
 10
2791.5773828497522
 20
-668.55980168217548
 30
0.0
 40
24.432617187500004
 41
0.0
 71
               1
 72
               1
  1
100
  7
_______
 11
0.0
 21
1.0
 31
0.0
  0
LINE
  5
5FE
100
AcDbEntity
  8
IMPORTED
  6
CONTINUOUS
 62
               1
100
AcDbLine
 10
2669.0781998882408
 20
-594.74730000000011
 30
0.0
 11
2850.4549999254937
 21
-594.74730000000011
 31
0.0
  0
LINE
  5
5FF
100
AcDbEntity
  8
IMPORTED
  6
CONTINUOUS
 62
               1
100
AcDbLine
 10
2669.0781998882408
 20
-544.74730000000011
 30
0.0
 11
2850.4549999254937
 21
-544.74730000000011
 31
0.0
  0
LINE
  5
600
100
AcDbEntity
  8
IMPORTED
  6
CONTINUOUS
 62
               1
100
AcDbLine
 10
2830.4549999999995
 20
-614.7472999254943
 30
0.0
 11
2830.4549999999995
 21
-594.74730000000011
 31
0.0
  0
LINE
  5
601
100
AcDbEntity
  8
IMPORTED
  6
CONTINUOUS
 62
               1
100
AcDbLine
 10
2830.4549999999995
 20
-544.74730000000011
 30
0.0
 11
2830.4549999999995
 21
-524.74730007450592
 31
0.0
  0
LINE
  5
602
100
AcDbEntity
  8
IMPORTED
  6
CONTINUOUS
 62
               1
100
AcDbLine
 10
2830.4549999999995
 20
-594.74730000000011
 30
0.0
 11
2830.4549999999995
 21
-544.74730000000011
 31
0.0
  0
SOLID
  5
603
100
AcDbEntity
  8
IMPORTED
 62
               1
100
AcDbTrace
 10
2830.4549999999995
 20
-594.74730000000011
 30
0.0
 11
2828.7053335271657
 21
-574.74852070312511
 31
0.0
 12
2832.2046664728332
 22
-574.74852070312511
 32
0.0
 13
2832.2046664728332
 23
-574.74852070312511
 33
0.0
  0
SOLID
  5
604
100
AcDbEntity
  8
IMPORTED
 62
               1
100
AcDbTrace
 10
2830.4549999999995
 20
-544.74730000000011
 30
0.0
 11
2832.2046664728332
 21
-564.74607929687511
 31
0.0
 12
2828.7053335271657
 22
-564.74607929687511
 32
0.0
 13
2828.7053335271657
 23
-564.74607929687511
 33
0.0
  0
MTEXT
  5
605
100
AcDbEntity
  8
IMPORTED
 62
               1
100
AcDbMText
 10
2791.5773828497522
 20
-585.62230000000011
 30
0.0
 40
24.432617187500004
 41
0.0
 71
               1
 72
               1
  1
50
  7
_______
 11
0.0
 21
1.0
 31
0.0
  0
LINE
  5
606
100
AcDbEntity
  8
IMPORTED
  6
CONTINUOUS
 62
               1
100
AcDbLine
 10
2669.0781998882408
 20
-544.74730000000011
 30
0.0
 11
2850.4549999254937
 21
-544.74730000000011
 31
0.0
  0
LINE
  5
607
100
AcDbEntity
  8
IMPORTED
  6
CONTINUOUS
 62
               1
100
AcDbLine
 10
2619.0781998882408
 20
-394.74730000000011
 30
0.0
 11
2850.4549999254937
 21
-394.74730000000011
 31
0.0
  0
LINE
  5
608
100
AcDbEntity
  8
IMPORTED
  6
CONTINUOUS
 62
               1
100
AcDbLine
 10
2830.4549999999995
 20
-564.7472999254943
 30
0.0
 11
2830.4549999999995
 21
-544.74730000000011
 31
0.0
  0
LINE
  5
609
100
AcDbEntity
  8
IMPORTED
  6
CONTINUOUS
 62
               1
100
AcDbLine
 10
2830.4549999999995
 20
-394.74730000000011
 30
0.0
 11
2830.4549999999995
 21
-374.74730007450592
 31
0.0
  0
LINE
  5
60A
100
AcDbEntity
  8
IMPORTED
  6
CONTINUOUS
 62
               1
100
AcDbLine
 10
2830.4549999999995
 20
-544.74730000000011
 30
0.0
 11
2830.4549999999995
 21
-394.74730000000011
 31
0.0
  0
SOLID
  5
60B
100
AcDbEntity
  8
IMPORTED
 62
               1
100
AcDbTrace
 10
2830.4549999999995
 20
-544.74730000000011
 30
0.0
 11
2828.7053335271657
 21
-524.74852070312511
 31
0.0
 12
2832.2046664728332
 22
-524.74852070312511
 32
0.0
 13
2832.2046664728332
 23
-524.74852070312511
 33
0.0
  0
SOLID
  5
60C
100
AcDbEntity
  8
IMPORTED
 62
               1
100
AcDbTrace
 10
2830.4549999999995
 20
-394.74730000000011
 30
0.0
 11
2832.2046664728332
 21
-414.74607929687511
 31
0.0
 12
2828.7053335271657
 22
-414.74607929687511
 32
0.0
 13
2828.7053335271657
 23
-414.74607929687511
 33
0.0
  0
MTEXT
  5
60D
100
AcDbEntity
  8
IMPORTED
 62
               1
100
AcDbMText
 10
2791.5773828497522
 20
-493.55980168217559
 30
0.0
 40
24.432617187500004
 41
0.0
 71
               1
 72
               1
  1
150
  7
_______
 11
0.0
 21
1.0
 31
0.0
  0
LINE
  5
60E
100
AcDbEntity
  8
IMPORTED
  6
CONTINUOUS
 62
               1
100
AcDbLine
 10
2619.0781998882408
 20
-394.74730000000011
 30
0.0
 11
2850.4549999254937
 21
-394.74730000000011
 31
0.0
  0
LINE
  5
60F
100
AcDbEntity
  8
IMPORTED
  6
CONTINUOUS
 62
               1
100
AcDbLine
 10
2720.0334998882408
 20
-344.74740000000008
 30
0.0
 11
2850.4549999254937
 21
-344.74740000000008
 31
0.0
  0
LINE
  5
610
100
AcDbEntity
  8
IMPORTED
  6
CONTINUOUS
 62
               1
100
AcDbLine
 10
2830.4549999999995
 20
-414.7472999254943
 30
0.0
 11
2830.4549999999995
 21
-394.74730000000011
 31
0.0
  0
LINE
  5
611
100
AcDbEntity
  8
IMPORTED
  6
CONTINUOUS
 62
               1
100
AcDbLine
 10
2830.4549999999995
 20
-344.74740000000008
 30
0.0
 11
2830.4549999999995
 21
-324.74740007450589
 31
0.0
  0
LINE
  5
612
100
AcDbEntity
  8
IMPORTED
  6
CONTINUOUS
 62
               1
100
AcDbLine
 10
2830.4549999999995
 20
-394.74730000000011
 30
0.0
 11
2830.4549999999995
 21
-344.74740000000008
 31
0.0
  0
SOLID
  5
613
100
AcDbEntity
  8
IMPORTED
 62
               1
100
AcDbTrace
 10
2830.4549999999995
 20
-394.74730000000011
 30
0.0
 11
2828.7053335271657
 21
-374.74852070312511
 31
0.0
 12
2832.2046664728332
 22
-374.74852070312511
 32
0.0
 13
2832.2046664728332
 23
-374.74852070312511
 33
0.0
  0
SOLID
  5
614
100
AcDbEntity
  8
IMPORTED
 62
               1
100
AcDbTrace
 10
2830.4549999999995
 20
-344.74740000000008
 30
0.0
 11
2832.2046664728332
 21
-364.74617929687508
 31
0.0
 12
2828.7053335271657
 22
-364.74617929687508
 32
0.0
 13
2828.7053335271657
 23
-364.74617929687508
 33
0.0
  0
MTEXT
  5
615
100
AcDbEntity
  8
IMPORTED
 62
               1
100
AcDbMText
 10
2791.5773828497522
 20
-385.6223500000001
 30
0.0
 40
24.432617187500004
 41
0.0
 71
               1
 72
               1
  1
50
  7
_______
 11
0.0
 21
1.0
 31
0.0
  0
LINE
  5
616
100
AcDbEntity
  8
IMPORTED
  6
CONTINUOUS
 62
               1
100
AcDbLine
 10
2720.0334998882408
 20
-344.74740000000008
 30
0.0
 11
2850.4549999254937
 21
-344.74740000000008
 31
0.0
  0
LINE
  5
617
100
AcDbEntity
  8
IMPORTED
  6
CONTINUOUS
 62
               1
100
AcDbLine
 10
2503.3049998882407
 20
-24.747400000000113
 30
0.0
 11
2850.4549999254937
 21
-24.747400000000113
 31
0.0
  0
LINE
  5
618
100
AcDbEntity
  8
IMPORTED
  6
CONTINUOUS
 62
               1
100
AcDbLine
 10
2830.4549999999995
 20
-364.74739992549428
 30
0.0
 11
2830.4549999999995
 21
-344.74740000000008
 31
0.0
  0
LINE
  5
619
100
AcDbEntity
  8
IMPORTED
  6
CONTINUOUS
 62
               1
100
AcDbLine
 10
2830.4549999999995
 20
-24.747400000000113
 30
0.0
 11
2830.4549999999995
 21
-4.7474000745059186
 31
0.0
  0
LINE
  5
61A
100
AcDbEntity
  8
IMPORTED
  6
CONTINUOUS
 62
               1
100
AcDbLine
 10
2830.4549999999995
 20
-344.74740000000008
 30
0.0
 11
2830.4549999999995
 21
-24.747400000000113
 31
0.0
  0
SOLID
  5
61B
100
AcDbEntity
  8
IMPORTED
 62
               1
100
AcDbTrace
 10
2830.4549999999995
 20
-344.74740000000008
 30
0.0
 11
2828.7053335271657
 21
-324.74862070312508
 31
0.0
 12
2832.2046664728332
 22
-324.74862070312508
 32
0.0
 13
2832.2046664728332
 23
-324.74862070312508
 33
0.0
  0
SOLID
  5
61C
100
AcDbEntity
  8
IMPORTED
 62
               1
100
AcDbTrace
 10
2830.4549999999995
 20
-24.747400000000113
 30
0.0
 11
2832.2046664728332
 21
-44.746179296875113
 31
0.0
 12
2828.7053335271657
 22
-44.746179296875113
 32
0.0
 13
2828.7053335271657
 23
-44.746179296875113
 33
0.0
  0
MTEXT
  5
61D
100
AcDbEntity
  8
IMPORTED
 62
               1
100
AcDbMText
 10
2791.5773828497522
 20
-208.55990168217565
 30
0.0
 40
24.432617187500004
 41
0.0
 71
               1
 72
               1
  1
320
  7
_______
 11
0.0
 21
1.0
 31
0.0
  0
LINE
  5
61E
100
AcDbEntity
  8
IMPORTED
  6
CONTINUOUS
 62
               1
100
AcDbLine
 10
2503.3049998882407
 20
-24.747400000000113
 30
0.0
 11
2850.4549999254937
 21
-24.747400000000113
 31
0.0
  0
LINE
  5
61F
100
AcDbEntity
  8
IMPORTED
  6
CONTINUOUS
 62
               1
100
AcDbLine
 10
2579.3049998882407
 20
30.252599999999887
 30
0.0
 11
2850.4549999254937
 21
30.252599999999887
 31
0.0
  0
LINE
  5
620
100
AcDbEntity
  8
IMPORTED
  6
CONTINUOUS
 62
               1
100
AcDbLine
 10
2830.4549999999995
 20
-44.747399925494307
 30
0.0
 11
2830.4549999999995
 21
-24.747400000000113
 31
0.0
  0
LINE
  5
621
100
AcDbEntity
  8
IMPORTED
  6
CONTINUOUS
 62
               1
100
AcDbLine
 10
2830.4549999999995
 20
30.252599999999887
 30
0.0
 11
2830.4549999999995
 21
50.252599925494081
 31
0.0
  0
LINE
  5
622
100
AcDbEntity
  8
IMPORTED
  6
CONTINUOUS
 62
               1
100
AcDbLine
 10
2830.4549999999995
 20
-24.747400000000113
 30
0.0
 11
2830.4549999999995
 21
30.252599999999887
 31
0.0
  0
SOLID
  5
623
100
AcDbEntity
  8
IMPORTED
 62
               1
100
AcDbTrace
 10
2830.4549999999995
 20
-24.747400000000113
 30
0.0
 11
2828.7053335271657
 21
-4.7486207031251126
 31
0.0
 12
2832.2046664728332
 22
-4.7486207031251126
 32
0.0
 13
2832.2046664728332
 23
-4.7486207031251126
 33
0.0
  0
SOLID
  5
624
100
AcDbEntity
  8
IMPORTED
 62
               1
100
AcDbTrace
 10
2830.4549999999995
 20
30.252599999999887
 30
0.0
 11
2832.2046664728332
 21
10.253820703124887
 31
0.0
 12
2828.7053335271657
 22
10.253820703124887
 32
0.0
 13
2828.7053335271657
 23
10.253820703124887
 33
0.0
  0
MTEXT
  5
625
100
AcDbEntity
  8
IMPORTED
 62
               1
100
AcDbMText
 10
2791.5773828497522
 20
-13.122400000000113
 30
0.0
 40
24.432617187500004
 41
0.0
 71
               1
 72
               1
  1
55
  7
_______
 11
0.0
 21
1.0
 31
0.0
  0
LINE
  5
626
100
AcDbEntity
  8
IMPORTED
  6
CONTINUOUS
 62
               1
100
AcDbLine
 10
2579.3049998882407
 20
30.252599999999887
 30
0.0
 11
2850.3049999254936
 21
30.252599999999887
 31
0.0
  0
LINE
  5
627
100
AcDbEntity
  8
IMPORTED
  6
CONTINUOUS
 62
               1
100
AcDbLine
 10
2579.3049998882407
 20
55.252599999999887
 30
0.0
 11
2850.3049999254936
 21
55.252599999999887
 31
0.0
  0
LINE
  5
628
100
AcDbEntity
  8
IMPORTED
  6
CONTINUOUS
 62
               1
100
AcDbLine
 10
2830.3049999999994
 20
10.252600074505693
 30
0.0
 11
2830.3049999999994
 21
30.252599999999887
 31
0.0
  0
LINE
  5
629
100
AcDbEntity
  8
IMPORTED
  6
CONTINUOUS
 62
               1
100
AcDbLine
 10
2830.3049999999994
 20
55.252599999999887
 30
0.0
 11
2830.3049999999994
 21
75.252599925494081
 31
0.0
  0
LINE
  5
62A
100
AcDbEntity
  8
IMPORTED
  6
CONTINUOUS
 62
               1
100
AcDbLine
 10
2830.3049999999994
 20
55.252599999999887
 30
0.0
 11
2830.3049999999994
 21
98.002599999999887
 31
0.0
  0
LINE
  5
62B
100
AcDbEntity
  8
IMPORTED
  6
CONTINUOUS
 62
               1
100
AcDbLine
 10
2830.3049999999994
 20
30.252599999999887
 30
0.0
 11
2830.3049999999994
 21
55.252599999999887
 31
0.0
  0
SOLID
  5
62C
100
AcDbEntity
  8
IMPORTED
 62
               1
100
AcDbTrace
 10
2830.3049999999994
 20
30.252599999999887
 30
0.0
 11
2828.5553335271661
 21
50.251379296874887
 31
0.0
 12
2832.0546664728327
 22
50.251379296874887
 32
0.0
 13
2832.0546664728327
 23
50.251379296874887
 33
0.0
  0
SOLID
  5
62D
100
AcDbEntity
  8
IMPORTED
 62
               1
100
AcDbTrace
 10
2830.3049999999994
 20
55.252599999999887
 30
0.0
 11
2832.0546664728327
 21
35.253820703124887
 31
0.0
 12
2828.5553335271661
 22
35.253820703124887
 32
0.0
 13
2828.5553335271661
 23
35.253820703124887
 33
0.0
  0
MTEXT
  5
62E
100
AcDbEntity
  8
IMPORTED
 62
               1
100
AcDbMText
 10
2791.4273828497526
 20
66.252599999999887
 30
0.0
 40
24.432617187500004
 41
0.0
 71
               1
 72
               1
  1
25
  7
_______
 11
0.0
 21
1.0
 31
0.0
  0
LINE
  5
62F
100
AcDbEntity
  8
IMPORTED
  6
CONTINUOUS
 62
               1
100
AcDbLine
 10
2503.3049998882407
 20
-24.747400000000113
 30
0.0
 11
2937.9999999254942
 21
-24.747400000000113
 31
0.0
  0
LINE
  5
630
100
AcDbEntity
  8
IMPORTED
  6
CONTINUOUS
 62
               1
100
AcDbLine
 10
2669.0781998882408
 20
-544.74730000000011
 30
0.0
 11
2937.9999999254942
 21
-544.74730000000011
 31
0.0
  0
LINE
  5
631
100
AcDbEntity
  8
IMPORTED
  6
CONTINUOUS
 62
               1
100
AcDbLine
 10
2918.0
 20
-4.7474000745059186
 30
0.0
 11
2918.0
 21
-24.747400000000113
 31
0.0
  0
LINE
  5
632
100
AcDbEntity
  8
IMPORTED
  6
CONTINUOUS
 62
               1
100
AcDbLine
 10
2918.0
 20
-544.74730000000011
 30
0.0
 11
2918.0
 21
-564.7472999254943
 31
0.0
  0
LINE
  5
633
100
AcDbEntity
  8
IMPORTED
  6
CONTINUOUS
 62
               1
100
AcDbLine
 10
2918.0
 20
-24.747400000000113
 30
0.0
 11
2918.0
 21
-544.74730000000011
 31
0.0
  0
SOLID
  5
634
100
AcDbEntity
  8
IMPORTED
 62
               1
100
AcDbTrace
 10
2918.0
 20
-24.747400000000113
 30
0.0
 11
2919.7496664728333
 21
-44.746179296875113
 31
0.0
 12
2916.2503335271667
 22
-44.746179296875113
 32
0.0
 13
2916.2503335271667
 23
-44.746179296875113
 33
0.0
  0
SOLID
  5
635
100
AcDbEntity
  8
IMPORTED
 62
               1
100
AcDbTrace
 10
2918.0
 20
-544.74730000000011
 30
0.0
 11
2916.2503335271667
 21
-524.74852070312511
 31
0.0
 12
2919.7496664728333
 22
-524.74852070312511
 32
0.0
 13
2919.7496664728333
 23
-524.74852070312511
 33
0.0
  0
MTEXT
  5
636
100
AcDbEntity
  8
IMPORTED
 62
               1
100
AcDbMText
 10
2879.1223828497532
 20
-308.55985168217563
 30
0.0
 40
24.432617187500004
 41
0.0
 71
               1
 72
               1
  1
520
  7
_______
 11
0.0
 21
1.0
 31
0.0
  0
LINE
  5
637
100
AcDbEntity
  8
IMPORTED
  6
CONTINUOUS
 62
               1
100
AcDbLine
 10
2105.3049999999998
 20
72.752599888241178
 30
0.0
 11
2105.3049999999998
 21
238.99999992549417
 31
0.0
  0
LINE
  5
638
100
AcDbEntity
  8
IMPORTED
  6
CONTINUOUS
 62
               1
100
AcDbLine
 10
2205.3049999999994
 20
85.252599888241178
 30
0.0
 11
2205.3049999999994
 21
238.99999992549417
 31
0.0
  0
LINE
  5
639
100
AcDbEntity
  8
IMPORTED
  6
CONTINUOUS
 62
               1
100
AcDbLine
 10
2085.3050000745056
 20
218.99999999999997
 30
0.0
 11
2105.3049999999998
 21
218.99999999999997
 31
0.0
  0
LINE
  5
63A
100
AcDbEntity
  8
IMPORTED
  6
CONTINUOUS
 62
               1
100
AcDbLine
 10
2205.3049999999994
 20
218.99999999999997
 30
0.0
 11
2225.3049999254936
 21
218.99999999999997
 31
0.0
  0
LINE
  5
63B
100
AcDbEntity
  8
IMPORTED
  6
CONTINUOUS
 62
               1
100
AcDbLine
 10
2105.3049999999998
 20
218.99999999999997
 30
0.0
 11
2205.3049999999994
 21
218.99999999999997
 31
0.0
  0
SOLID
  5
63C
100
AcDbEntity
  8
IMPORTED
 62
               1
100
AcDbTrace
 10
2105.3049999999998
 20
218.99999999999997
 30
0.0
 11
2125.3037792968748
 21
220.74966647283347
 31
0.0
 12
2125.3037792968748
 22
217.25033352716648
 32
0.0
 13
2125.3037792968748
 23
217.25033352716648
 33
0.0
  0
SOLID
  5
63D
100
AcDbEntity
  8
IMPORTED
 62
               1
100
AcDbTrace
 10
2205.3049999999994
 20
218.99999999999997
 30
0.0
 11
2185.3062207031244
 21
217.25033352716648
 31
0.0
 12
2185.3062207031244
 22
220.74966647283347
 32
0.0
 13
2185.3062207031244
 23
220.74966647283347
 33
0.0
  0
MTEXT
  5
63E
100
AcDbEntity
  8
IMPORTED
 62
               1
100
AcDbMText
 10
2131.4924983178244
 20
257.87761715024703
 30
0.0
 40
24.432617187500004
 41
0.0
 71
               1
 72
               1
  1
100
  7
_______
  0
LINE
  5
63F
100
AcDbEntity
  8
IMPORTED
  6
CONTINUOUS
 62
               1
100
AcDbLine
 10
2205.3049999999994
 20
85.252599888241178
 30
0.0
 11
2205.3049999999994
 21
238.99999992549417
 31
0.0
  0
LINE
  5
640
100
AcDbEntity
  8
IMPORTED
  6
CONTINUOUS
 62
               1
100
AcDbLine
 10
2455.3049999999994
 20
85.252599888241178
 30
0.0
 11
2455.3049999999994
 21
238.99999992549417
 31
0.0
  0
LINE
  5
641
100
AcDbEntity
  8
IMPORTED
  6
CONTINUOUS
 62
               1
100
AcDbLine
 10
2185.3050000745052
 20
218.99999999999997
 30
0.0
 11
2205.3049999999994
 21
218.99999999999997
 31
0.0
  0
LINE
  5
642
100
AcDbEntity
  8
IMPORTED
  6
CONTINUOUS
 62
               1
100
AcDbLine
 10
2455.3049999999994
 20
218.99999999999997
 30
0.0
 11
2475.3049999254936
 21
218.99999999999997
 31
0.0
  0
LINE
  5
643
100
AcDbEntity
  8
IMPORTED
  6
CONTINUOUS
 62
               1
100
AcDbLine
 10
2205.3049999999994
 20
218.99999999999997
 30
0.0
 11
2455.3049999999994
 21
218.99999999999997
 31
0.0
  0
SOLID
  5
644
100
AcDbEntity
  8
IMPORTED
 62
               1
100
AcDbTrace
 10
2205.3049999999994
 20
218.99999999999997
 30
0.0
 11
2225.3037792968744
 21
220.74966647283347
 31
0.0
 12
2225.3037792968744
 22
217.25033352716648
 32
0.0
 13
2225.3037792968744
 23
217.25033352716648
 33
0.0
  0
SOLID
  5
645
100
AcDbEntity
  8
IMPORTED
 62
               1
100
AcDbTrace
 10
2455.3049999999994
 20
218.99999999999997
 30
0.0
 11
2435.3062207031244
 21
217.25033352716648
 31
0.0
 12
2435.3062207031244
 22
220.74966647283347
 32
0.0
 13
2435.3062207031244
 23
220.74966647283347
 33
0.0
  0
MTEXT
  5
646
100
AcDbEntity
  8
IMPORTED
 62
               1
100
AcDbMText
 10
2306.4924983178239
 20
257.87761715024703
 30
0.0
 40
24.432617187500004
 41
0.0
 71
               1
 72
               1
  1
250
  7
_______
  0
LINE
  5
647
100
AcDbEntity
  8
IMPORTED
  6
CONTINUOUS
 62
               1
100
AcDbLine
 10
2455.3049999999994
 20
85.252599888241178
 30
0.0
 11
2455.3049999999994
 21
238.99999992549417
 31
0.0
  0
LINE
  5
648
100
AcDbEntity
  8
IMPORTED
  6
CONTINUOUS
 62
               1
100
AcDbLine
 10
2555.3049999999994
 20
72.752599888241178
 30
0.0
 11
2555.3049999999994
 21
238.99999992549417
 31
0.0
  0
LINE
  5
649
100
AcDbEntity
  8
IMPORTED
  6
CONTINUOUS
 62
               1
100
AcDbLine
 10
2435.3050000745052
 20
218.99999999999997
 30
0.0
 11
2455.3049999999994
 21
218.99999999999997
 31
0.0
  0
LINE
  5
64A
100
AcDbEntity
  8
IMPORTED
  6
CONTINUOUS
 62
               1
100
AcDbLine
 10
2555.3049999999994
 20
218.99999999999997
 30
0.0
 11
2575.3049999254936
 21
218.99999999999997
 31
0.0
  0
LINE
  5
64B
100
AcDbEntity
  8
IMPORTED
  6
CONTINUOUS
 62
               1
100
AcDbLine
 10
2455.3049999999994
 20
218.99999999999997
 30
0.0
 11
2555.3049999999994
 21
218.99999999999997
 31
0.0
  0
SOLID
  5
64C
100
AcDbEntity
  8
IMPORTED
 62
               1
100
AcDbTrace
 10
2455.3049999999994
 20
218.99999999999997
 30
0.0
 11
2475.3037792968744
 21
220.74966647283347
 31
0.0
 12
2475.3037792968744
 22
217.25033352716648
 32
0.0
 13
2475.3037792968744
 23
217.25033352716648
 33
0.0
  0
SOLID
  5
64D
100
AcDbEntity
  8
IMPORTED
 62
               1
100
AcDbTrace
 10
2555.3049999999994
 20
218.99999999999997
 30
0.0
 11
2535.3062207031244
 21
217.25033352716648
 31
0.0
 12
2535.3062207031244
 22
220.74966647283347
 32
0.0
 13
2535.3062207031244
 23
220.74966647283347
 33
0.0
  0
MTEXT
  5
64E
100
AcDbEntity
  8
IMPORTED
 62
               1
100
AcDbMText
 10
2481.4924983178239
 20
257.87761715024703
 30
0.0
 40
24.432617187500004
 41
0.0
 71
               1
 72
               1
  1
100
  7
_______
  0
LINE
  5
64F
100
AcDbEntity
  8
IMPORTED
  6
CONTINUOUS
 62
               1
100
AcDbLine
 10
2555.3049999999994
 20
72.752599888241178
 30
0.0
 11
2555.3049999999994
 21
321.99999992549419
 31
0.0
  0
LINE
  5
650
100
AcDbEntity
  8
IMPORTED
  6
CONTINUOUS
 62
               1
100
AcDbLine
 10
2105.3049999999998
 20
72.752599888241178
 30
0.0
 11
2105.3049999999998
 21
321.99999992549419
 31
0.0
  0
LINE
  5
651
100
AcDbEntity
  8
IMPORTED
  6
CONTINUOUS
 62
               1
100
AcDbLine
 10
2575.3049999254936
 20
302.0
 30
0.0
 11
2555.3049999999994
 21
302.0
 31
0.0
  0
LINE
  5
652
100
AcDbEntity
  8
IMPORTED
  6
CONTINUOUS
 62
               1
100
AcDbLine
 10
2105.3049999999998
 20
302.0
 30
0.0
 11
2085.3050000745056
 21
302.0
 31
0.0
  0
LINE
  5
653
100
AcDbEntity
  8
IMPORTED
  6
CONTINUOUS
 62
               1
100
AcDbLine
 10
2555.3049999999994
 20
302.0
 30
0.0
 11
2105.3049999999998
 21
302.0
 31
0.0
  0
SOLID
  5
654
100
AcDbEntity
  8
IMPORTED
 62
               1
100
AcDbTrace
 10
2555.3049999999994
 20
302.0
 30
0.0
 11
2535.3062207031244
 21
300.2503335271665
 31
0.0
 12
2535.3062207031244
 22
303.7496664728335
 32
0.0
 13
2535.3062207031244
 23
303.7496664728335
 33
0.0
  0
SOLID
  5
655
100
AcDbEntity
  8
IMPORTED
 62
               1
100
AcDbTrace
 10
2105.3049999999998
 20
302.0
 30
0.0
 11
2125.3037792968748
 21
303.7496664728335
 31
0.0
 12
2125.3037792968748
 22
300.2503335271665
 32
0.0
 13
2125.3037792968748
 23
300.2503335271665
 33
0.0
  0
MTEXT
  5
656
100
AcDbEntity
  8
IMPORTED
 62
               1
100
AcDbMText
 10
2306.4924983178244
 20
340.87761715024703
 30
0.0
 40
24.432617187500004
 41
0.0
 71
               1
 72
               1
  1
450
  7
_______
  0
POLYLINE
  5
657
100
AcDbEntity
  8
IMPORTED
  6
CONTINUOUS
 62
              30
100
AcDb2dPolyline
 66
               1
 10
0.0
 20
0.0
 30
0.0
 70
               1
 75
               5
  0
VERTEX
  5
658
100
AcDbEntity
  8
IMPORTED
  6
CONTINUOUS
 62
              30
100
AcDbVertex
100
AcDb2dVertex
 10
2482.2049999999999
 20
-12.252949999999942
 30
0.0
  0
VERTEX
  5
659
100
AcDbEntity
  8
IMPORTED
  6
CONTINUOUS
 62
              30
100
AcDbVertex
100
AcDb2dVertex
 10
2487.0144399999999
 20
-12.252949999999942
 30
0.0
  0
VERTEX
  5
65A
100
AcDbEntity
  8
IMPORTED
  6
CONTINUOUS
 62
              30
100
AcDbVertex
100
AcDb2dVertex
 10
2487.5949999999993
 20
-11.247400000000084
 30
0.0
  0
VERTEX
  5
65B
100
AcDbEntity
  8
IMPORTED
  6
CONTINUOUS
 62
              30
100
AcDbVertex
100
AcDb2dVertex
 10
2487.5949999999993
 20
1.7525999999999158
 30
0.0
  0
VERTEX
  5
65C
100
AcDbEntity
  8
IMPORTED
  6
CONTINUOUS
 62
              30
100
AcDbVertex
100
AcDb2dVertex
 10
2487.0144399999999
 20
2.7581500000000005
 30
0.0
  0
VERTEX
  5
65D
100
AcDbEntity
  8
IMPORTED
  6
CONTINUOUS
 62
              30
100
AcDbVertex
100
AcDb2dVertex
 10
2482.2049999999999
 20
2.7581500000000005
 30
0.0
  0
SEQEND
  5
65E
100
AcDbEntity
  8
IMPORTED
  6
CONTINUOUS
 62
              30
  0
SPLINE
  5
660
100
AcDbEntity
  8
IMPORTED
  6
CONTINUOUS
 62
              30
100
AcDbSpline
210
0.0
220
0.0
230
1.0
 70
               8
 71
               2
 72
              10
 73
               7
 74
               0
 42
0.000001
 43
0.000001
 40
0.0
 40
0.0
 40
0.0
 40
1.0
 40
1.0
 40
2.0
 40
2.0
 40
3.0
 40
3.0
 40
3.0
 10
2487.0144399999999
 20
-12.252949999999942
 30
0.0
 10
2488.1731708641969
 20
-10.376560000000154
 30
0.0
 10
2487.0144399999999
 20
-8.5001699999999119
 30
0.0
 10
2488.1731708641969
 20
-4.7473899999997684
 30
0.0
 10
2487.0144399999999
 20
-0.9946100000000797
 30
0.0
 10
2488.1731708641969
 20
0.8817800000001625
 30
0.0
 10
2487.0144399999999
 20
2.7581699999999501
 30
0.0
  0
LINE
  5
661
100
AcDbEntity
  8
IMPORTED
  6
CONTINUOUS
 62
              30
100
AcDbLine
 10
2482.2049999999999
 20
-0.9946200000000545
 30
0.0
 11
2487.0144399999999
 21
-0.9946200000000545
 31
0.0
  0
LINE
  5
662
100
AcDbEntity
  8
IMPORTED
  6
CONTINUOUS
 62
              30
100
AcDbLine
 10
2487.0144399999999
 20
-8.5001699999999119
 30
0.0
 11
2482.2049999999999
 21
-8.5001699999999119
 31
0.0
  0
POLYLINE
  5
663
100
AcDbEntity
  8
IMPORTED
  6
STYLE_05
 62
              30
100
AcDb2dPolyline
 66
               1
 10
0.0
 20
0.0
 30
0.0
 70
               1
 75
               5
  0
VERTEX
  5
664
100
AcDbEntity
  8
IMPORTED
  6
STYLE_05
 62
              30
100
AcDbVertex
100
AcDb2dVertex
 10
2482.2049999999999
 20
-8.7474000000000842
 30
0.0
  0
VERTEX
  5
665
100
AcDbEntity
  8
IMPORTED
  6
STYLE_05
 62
              30
100
AcDbVertex
100
AcDb2dVertex
 10
2458.2875399999994
 20
-8.7474000000000842
 30
0.0
  0
VERTEX
  5
666
100
AcDbEntity
  8
IMPORTED
  6
STYLE_05
 62
              30
100
AcDbVertex
100
AcDb2dVertex
 10
2457.2049999999999
 20
-7.664859999999976
 30
0.0
  0
VERTEX
  5
667
100
AcDbEntity
  8
IMPORTED
  6
STYLE_05
 62
              30
100
AcDbVertex
100
AcDb2dVertex
 10
2457.2049999999999
 20
-1.8299299999999903
 30
0.0
  0
VERTEX
  5
668
100
AcDbEntity
  8
IMPORTED
  6
STYLE_05
 62
              30
100
AcDbVertex
100
AcDb2dVertex
 10
2458.2875399999994
 20
-0.7473899999998821
 30
0.0
  0
VERTEX
  5
669
100
AcDbEntity
  8
IMPORTED
  6
STYLE_05
 62
              30
100
AcDbVertex
100
AcDb2dVertex
 10
2482.2049999999999
 20
-0.7473899999998821
 30
0.0
  0
SEQEND
  5
66A
100
AcDbEntity
  8
IMPORTED
  6
STYLE_05
 62
              30
  0
LINE
  5
66C
100
AcDbEntity
  8
IMPORTED
  6
CONTINUOUS
 62
              30
100
AcDbLine
 10
2458.2875399999994
 20
-8.7474000000000842
 30
0.0
 11
2458.2875399999994
 21
-0.7474000000000842
 31
0.0
  0
LINE
  5
66D
100
AcDbEntity
  8
IMPORTED
  6
CONTINUOUS
 62
              30
100
AcDbLine
 10
2479.7049999999999
 20
-8.7474000000000842
 30
0.0
 11
2479.7049999999999
 21
-0.7474000000000842
 31
0.0
  0
LINE
  5
66E
100
AcDbEntity
  8
IMPORTED
  6
STYLE_05
 62
               1
100
AcDbLine
 10
2479.7049999999999
 20
-1.829939999999965
 30
0.0
 11
2457.2049999999999
 21
-1.829939999999965
 31
0.0
  0
LINE
  5
66F
100
AcDbEntity
  8
IMPORTED
  6
STYLE_05
 62
               1
100
AcDbLine
 10
2479.7049999999999
 20
-7.6648699999999508
 30
0.0
 11
2457.2049999999999
 21
-7.6648699999999508
 31
0.0
  0
POLYLINE
  5
670
100
AcDbEntity
  8
IMPORTED
  6
CONTINUOUS
 62
              30
100
AcDb2dPolyline
 66
               1
 10
0.0
 20
0.0
 30
0.0
 70
               1
 75
               5
  0
VERTEX
  5
671
100
AcDbEntity
  8
IMPORTED
  6
CONTINUOUS
 62
              30
100
AcDbVertex
100
AcDb2dVertex
 10
2468.5244399999992
 20
-12.252959999999916
 30
0.0
  0
VERTEX
  5
672
100
AcDbEntity
  8
IMPORTED
  6
CONTINUOUS
 62
              30
100
AcDbVertex
100
AcDb2dVertex
 10
2469.1049999999996
 20
-11.247410000000059
 30
0.0
  0
VERTEX
  5
673
100
AcDbEntity
  8
IMPORTED
  6
CONTINUOUS
 62
              30
100
AcDbVertex
100
AcDb2dVertex
 10
2469.1049999999996
 20
1.7525900000001684
 30
0.0
  0
VERTEX
  5
674
100
AcDbEntity
  8
IMPORTED
  6
CONTINUOUS
 62
              30
100
AcDbVertex
100
AcDb2dVertex
 10
2468.5244399999992
 20
2.7581400000000258
 30
0.0
  0
VERTEX
  5
675
100
AcDbEntity
  8
IMPORTED
  6
CONTINUOUS
 62
              30
100
AcDbVertex
100
AcDb2dVertex
 10
2462.8855499999991
 20
2.7581400000000258
 30
0.0
  0
VERTEX
  5
676
100
AcDbEntity
  8
IMPORTED
  6
CONTINUOUS
 62
              30
100
AcDbVertex
100
AcDb2dVertex
 10
2462.3049899999996
 20
1.7525900000001684
 30
0.0
  0
VERTEX
  5
677
100
AcDbEntity
  8
IMPORTED
  6
CONTINUOUS
 62
              30
100
AcDbVertex
100
AcDb2dVertex
 10
2462.3049899999996
 20
-11.247410000000059
 30
0.0
  0
VERTEX
  5
678
100
AcDbEntity
  8
IMPORTED
  6
CONTINUOUS
 62
              30
100
AcDbVertex
100
AcDb2dVertex
 10
2462.8855499999991
 20
-12.252959999999916
 30
0.0
  0
SEQEND
  5
679
100
AcDbEntity
  8
IMPORTED
  6
CONTINUOUS
 62
              30
  0
SPLINE
  5
67B
100
AcDbEntity
  8
IMPORTED
  6
CONTINUOUS
 62
              30
100
AcDbSpline
210
0.0
220
0.0
230
1.0
 70
               8
 71
               2
 72
              10
 73
               7
 74
               0
 42
0.000001
 43
0.000001
 40
0.0
 40
0.0
 40
0.0
 40
1.0
 40
1.0
 40
2.0
 40
2.0
 40
3.0
 40
3.0
 40
3.0
 10
2468.5244399999992
 20
-12.252959999999916
 30
0.0
 10
2469.6831708641967
 20
-10.376570000000129
 30
0.0
 10
2468.5244399999992
 20
-8.5001799999998866
 30
0.0
 10
2469.6831708641967
 20
-4.7474000000003116
 30
0.0
 10
2468.5244399999992
 20
-0.9946199999998271
 30
0.0
 10
2469.6831708641967
 20
0.8817700000000741
 30
0.0
 10
2468.5244399999992
 20
2.7581599999999753
 30
0.0
  0
SPLINE
  5
67C
100
AcDbEntity
  8
IMPORTED
  6
CONTINUOUS
 62
              30
100
AcDbSpline
210
0.0
220
0.0
230
1.0
 70
               8
 71
               2
 72
              10
 73
               7
 74
               0
 42
0.000001
 43
0.000001
 40
0.0
 40
0.0
 40
0.0
 40
1.0
 40
1.0
 40
2.0
 40
2.0
 40
3.0
 40
3.0
 40
3.0
 10
2462.8855499999991
 20
-12.252949999999942
 30
0.0
 10
2461.7268191358021
 20
-10.376560000000154
 30
0.0
 10
2462.8855499999991
 20
-8.5001699999999119
 30
0.0
 10
2461.7268191358021
 20
-4.7473899999997684
 30
0.0
 10
2462.8855499999991
 20
-0.9946100000000797
 30
0.0
 10
2461.7268191358021
 20
0.8817800000001625
 30
0.0
 10
2462.8855499999991
 20
2.7581699999999501
 30
0.0
  0
LINE
  5
67D
100
AcDbEntity
  8
IMPORTED
  6
CONTINUOUS
 62
              30
100
AcDbLine
 10
2468.5244399999992
 20
-8.5001899999998614
 30
0.0
 11
2462.8855499999991
 21
-8.5001899999998614
 31
0.0
  0
LINE
  5
67E
100
AcDbEntity
  8
IMPORTED
  6
CONTINUOUS
 62
              30
100
AcDbLine
 10
2462.8855499999991
 20
-0.994640000000004
 30
0.0
 11
2468.5244399999992
 21
-0.994640000000004
 31
0.0
  0
POLYLINE
  5
67F
100
AcDbEntity
  8
IMPORTED
  6
CONTINUOUS
 62
               3
100
AcDb2dPolyline
 66
               1
 10
0.0
 20
0.0
 30
0.0
 70
               1
 75
               5
  0
VERTEX
  5
680
100
AcDbEntity
  8
IMPORTED
  6
CONTINUOUS
 62
               3
100
AcDbVertex
100
AcDb2dVertex
 10
2480.6049999999996
 20
6.2525999999999158
 30
0.0
  0
VERTEX
  5
681
100
AcDbEntity
  8
IMPORTED
  6
CONTINUOUS
 62
               3
100
AcDbVertex
100
AcDb2dVertex
 10
2482.2049999999999
 20
6.2525999999999158
 30
0.0
  0
VERTEX
  5
682
100
AcDbEntity
  8
IMPORTED
  6
CONTINUOUS
 62
               3
100
AcDbVertex
100
AcDb2dVertex
 10
2482.2049999999999
 20
-15.747400000000084
 30
0.0
  0
VERTEX
  5
683
100
AcDbEntity
  8
IMPORTED
  6
CONTINUOUS
 62
               3
100
AcDbVertex
100
AcDb2dVertex
 10
2480.6049999999996
 20
-15.747400000000084
 30
0.0
  0
SEQEND
  5
684
100
AcDbEntity
  8
IMPORTED
  6
CONTINUOUS
 62
               3
  0
POLYLINE
  5
686
100
AcDbEntity
  8
IMPORTED
  6
STYLE_05
 62
              30
100
AcDb2dPolyline
 66
               1
 10
0.0
 20
0.0
 30
0.0
 70
               1
 75
               5
  0
VERTEX
  5
687
100
AcDbEntity
  8
IMPORTED
  6
STYLE_05
 62
              30
100
AcDbVertex
100
AcDb2dVertex
 10
2476.1049999999996
 20
1.2525999999999158
 30
0.0
  0
VERTEX
  5
688
100
AcDbEntity
  8
IMPORTED
  6
STYLE_05
 62
              30
100
AcDbVertex
100
AcDb2dVertex
 10
2480.6049999999996
 20
1.2525999999999158
 30
0.0
  0
VERTEX
  5
689
100
AcDbEntity
  8
IMPORTED
  6
STYLE_05
 62
              30
100
AcDbVertex
100
AcDb2dVertex
 10
2480.6049999999996
 20
-10.747400000000084
 30
0.0
  0
VERTEX
  5
68A
100
AcDbEntity
  8
IMPORTED
  6
STYLE_05
 62
              30
100
AcDbVertex
100
AcDb2dVertex
 10
2476.1049999999996
 20
-10.747400000000084
 30
0.0
  0
SEQEND
  5
68B
100
AcDbEntity
  8
IMPORTED
  6
STYLE_05
 62
              30
  0
POLYLINE
  5
68D
100
AcDbEntity
  8
IMPORTED
  6
STYLE_05
 62
              30
100
AcDb2dPolyline
 66
               1
 10
0.0
 20
0.0
 30
0.0
 70
               1
 75
               5
  0
VERTEX
  5
68E
100
AcDbEntity
  8
IMPORTED
  6
STYLE_05
 62
              30
100
AcDbVertex
100
AcDb2dVertex
 10
2469.1049999999996
 20
0.2525999999999158
 30
0.0
  0
VERTEX
  5
68F
100
AcDbEntity
  8
IMPORTED
  6
STYLE_05
 62
              30
100
AcDbVertex
100
AcDb2dVertex
 10
2473.6049999999996
 20
0.2525999999999158
 30
0.0
  0
VERTEX
  5
690
100
AcDbEntity
  8
IMPORTED
  6
STYLE_05
 62
              30
100
AcDbVertex
100
AcDb2dVertex
 10
2473.6049999999996
 20
-9.7474000000000842
 30
0.0
  0
VERTEX
  5
691
100
AcDbEntity
  8
IMPORTED
  6
STYLE_05
 62
              30
100
AcDbVertex
100
AcDb2dVertex
 10
2469.1049999999996
 20
-9.7474000000000842
 30
0.0
  0
SEQEND
  5
692
100
AcDbEntity
  8
IMPORTED
  6
STYLE_05
 62
              30
  0
LINE
  5
694
100
AcDbEntity
  8
IMPORTED
  6
CONTINUOUS
 62
              30
100
AcDbLine
 10
2462.3049899999996
 20
-8.7474000000000842
 30
0.0
 11
2458.2875399999994
 21
-8.7474000000000842
 31
0.0
  0
LINE
  5
695
100
AcDbEntity
  8
IMPORTED
  6
CONTINUOUS
 62
              30
100
AcDbLine
 10
2458.2875399999994
 20
-8.7474000000000842
 30
0.0
 11
2457.2049999999999
 21
-7.6648699999999508
 31
0.0
  0
LINE
  5
696
100
AcDbEntity
  8
IMPORTED
  6
CONTINUOUS
 62
              30
100
AcDbLine
 10
2457.2049999999999
 20
-7.6648699999999508
 30
0.0
 11
2457.2049999999999
 21
-1.829939999999965
 31
0.0
  0
LINE
  5
697
100
AcDbEntity
  8
IMPORTED
  6
CONTINUOUS
 62
              30
100
AcDbLine
 10
2457.2049999999999
 20
-1.829939999999965
 30
0.0
 11
2458.2875399999994
 21
-0.7473899999998821
 31
0.0
  0
LINE
  5
698
100
AcDbEntity
  8
IMPORTED
  6
CONTINUOUS
 62
              30
100
AcDbLine
 10
2458.2875399999994
 20
-0.7473899999998821
 30
0.0
 11
2462.3049899999996
 21
-0.7473899999998821
 31
0.0
  0
LINE
  5
699
100
AcDbEntity
  8
IMPORTED
  6
CONTINUOUS
 62
              30
100
AcDbLine
 10
2457.2049999999999
 20
-1.829939999999965
 30
0.0
 11
2462.3049899999996
 21
-1.829939999999965
 31
0.0
  0
LINE
  5
69A
100
AcDbEntity
  8
IMPORTED
  6
CONTINUOUS
 62
              30
100
AcDbLine
 10
2457.2049999999999
 20
-7.664859999999976
 30
0.0
 11
2462.3049899999996
 21
-7.6648699999999508
 31
0.0
  0
LINE
  5
69B
100
AcDbEntity
  8
IMPORTED
  6
CONTINUOUS
 62
              30
100
AcDbLine
 10
2458.2875399999994
 20
-8.7474000000000842
 30
0.0
 11
2458.2875399999994
 21
-0.7473899999998821
 31
0.0
  0
POLYLINE
  5
69C
100
AcDbEntity
  8
IMPORTED
  6
STYLE_05
 62
              30
100
AcDb2dPolyline
 66
               1
 10
0.0
 20
0.0
 30
0.0
 70
               1
 75
               5
  0
VERTEX
  5
69D
100
AcDbEntity
  8
IMPORTED
  6
STYLE_05
 62
              30
100
AcDbVertex
100
AcDb2dVertex
 10
2449.6049999999996
 20
30.252599999999887
 30
0.0
  0
VERTEX
  5
69E
100
AcDbEntity
  8
IMPORTED
  6
STYLE_05
 62
              30
100
AcDbVertex
100
AcDb2dVertex
 10
2461.6049999999996
 20
30.252599999999887
 30
0.0
  0
VERTEX
  5
69F
100
AcDbEntity
  8
IMPORTED
  6
STYLE_05
 62
              30
100
AcDbVertex
100
AcDb2dVertex
 10
2461.6049999999996
 20
25.752599999999887
 30
0.0
  0
VERTEX
  5
6A0
100
AcDbEntity
  8
IMPORTED
  6
STYLE_05
 62
              30
100
AcDbVertex
100
AcDb2dVertex
 10
2449.6049999999996
 20
25.752599999999887
 30
0.0
  0
SEQEND
  5
6A1
100
AcDbEntity
  8
IMPORTED
  6
STYLE_05
 62
              30
  0
POLYLINE
  5
6A3
100
AcDbEntity
  8
IMPORTED
  6
STYLE_05
 62
              30
100
AcDb2dPolyline
 66
               1
 10
0.0
 20
0.0
 30
0.0
 70
               1
 75
               5
  0
VERTEX
  5
6A4
100
AcDbEntity
  8
IMPORTED
  6
STYLE_05
 62
              30
100
AcDbVertex
100
AcDb2dVertex
 10
2452.1049999999996
 20
30.252599999999887
 30
0.0
  0
VERTEX
  5
6A5
100
AcDbEntity
  8
IMPORTED
  6
STYLE_05
 62
              30
100
AcDbVertex
100
AcDb2dVertex
 10
2459.1049999999996
 20
30.252599999999887
 30
0.0
  0
VERTEX
  5
6A6
100
AcDbEntity
  8
IMPORTED
  6
STYLE_05
 62
              30
100
AcDbVertex
100
AcDb2dVertex
 10
2459.1049999999996
 20
51.752599999999887
 30
0.0
  0
VERTEX
  5
6A7
100
AcDbEntity
  8
IMPORTED
  6
STYLE_05
 62
              30
100
AcDbVertex
100
AcDb2dVertex
 10
2462.6049999999996
 20
55.252599999999887
 30
0.0
  0
VERTEX
  5
6A8
100
AcDbEntity
  8
IMPORTED
  6
STYLE_05
 62
              30
100
AcDbVertex
100
AcDb2dVertex
 10
2448.6049999999996
 20
55.252599999999887
 30
0.0
  0
VERTEX
  5
6A9
100
AcDbEntity
  8
IMPORTED
  6
STYLE_05
 62
              30
100
AcDbVertex
100
AcDb2dVertex
 10
2452.1049999999996
 20
51.752599999999887
 30
0.0
  0
SEQEND
  5
6AA
100
AcDbEntity
  8
IMPORTED
  6
STYLE_05
 62
              30
  0
POLYLINE
  5
6AC
100
AcDbEntity
  8
IMPORTED
  6
CONTINUOUS
 62
              30
100
AcDb2dPolyline
 66
               1
 10
0.0
 20
0.0
 30
0.0
 70
               1
 75
               5
  0
VERTEX
  5
6AD
100
AcDbEntity
  8
IMPORTED
  6
CONTINUOUS
 62
              30
100
AcDbVertex
100
AcDb2dVertex
 10
2448.6049999999996
 20
25.752599999999887
 30
0.0
  0
VERTEX
  5
6AE
100
AcDbEntity
  8
IMPORTED
  6
CONTINUOUS
 62
              30
100
AcDbVertex
100
AcDb2dVertex
 10
2462.6049999999996
 20
25.752599999999887
 30
0.0
  0
VERTEX
  5
6AF
100
AcDbEntity
  8
IMPORTED
  6
CONTINUOUS
 62
              30
100
AcDbVertex
100
AcDb2dVertex
 10
2462.6049999999996
 20
24.902599999999978
 30
0.0
  0
VERTEX
  5
6B0
100
AcDbEntity
  8
IMPORTED
  6
CONTINUOUS
 62
              30
100
AcDbVertex
100
AcDb2dVertex
 10
2461.7549999999992
 20
24.052600000000069
 30
0.0
  0
VERTEX
  5
6B1
100
AcDbEntity
  8
IMPORTED
  6
CONTINUOUS
 62
              30
100
AcDbVertex
100
AcDb2dVertex
 10
2449.454999999999
 20
24.052600000000069
 30
0.0
  0
VERTEX
  5
6B2
100
AcDbEntity
  8
IMPORTED
  6
CONTINUOUS
 62
              30
100
AcDbVertex
100
AcDb2dVertex
 10
2448.6049999999996
 20
24.902599999999978
 30
0.0
  0
SEQEND
  5
6B3
100
AcDbEntity
  8
IMPORTED
  6
CONTINUOUS
 62
              30
  0
POLYLINE
  5
6B5
100
AcDbEntity
  8
IMPORTED
  6
STYLE_05
 62
              30
100
AcDb2dPolyline
 66
               1
 10
0.0
 20
0.0
 30
0.0
 70
               1
 75
               5
  0
VERTEX
  5
6B6
100
AcDbEntity
  8
IMPORTED
  6
STYLE_05
 62
              30
100
AcDbVertex
100
AcDb2dVertex
 10
2452.6049999999996
 20
16.052600000000098
 30
0.0
  0
VERTEX
  5
6B7
100
AcDbEntity
  8
IMPORTED
  6
STYLE_05
 62
              30
100
AcDbVertex
100
AcDb2dVertex
 10
2452.6049999999996
 20
51.952599999999933
 30
0.0
  0
VERTEX
  5
6B8
100
AcDbEntity
  8
IMPORTED
  6
STYLE_05
 62
              30
100
AcDbVertex
100
AcDb2dVertex
 10
2458.6049999999996
 20
51.952599999999933
 30
0.0
  0
VERTEX
  5
6B9
100
AcDbEntity
  8
IMPORTED
  6
STYLE_05
 62
              30
100
AcDbVertex
100
AcDb2dVertex
 10
2458.6049999999996
 20
16.052600000000098
 30
0.0
  0
VERTEX
  5
6BA
100
AcDbEntity
  8
IMPORTED
  6
STYLE_05
 62
              30
100
AcDbVertex
100
AcDb2dVertex
 10
2457.8049999999994
 20
15.252599999999916
 30
0.0
  0
VERTEX
  5
6BB
100
AcDbEntity
  8
IMPORTED
  6
STYLE_05
 62
              30
100
AcDbVertex
100
AcDb2dVertex
 10
2453.4049999999997
 20
15.252599999999916
 30
0.0
  0
SEQEND
  5
6BC
100
AcDbEntity
  8
IMPORTED
  6
STYLE_05
 62
              30
  0
POLYLINE
  5
6BE
100
AcDbEntity
  8
IMPORTED
  6
STYLE_05
 62
              30
100
AcDb2dPolyline
 66
               1
 10
0.0
 20
0.0
 30
0.0
 70
               1
 75
               5
  0
VERTEX
  5
6BF
100
AcDbEntity
  8
IMPORTED
  6
STYLE_05
 62
              30
100
AcDbVertex
100
AcDb2dVertex
 10
2458.6049999999996
 20
51.952599999999933
 30
0.0
  0
VERTEX
  5
6C0
100
AcDbEntity
  8
IMPORTED
  6
STYLE_05
 62
              30
100
AcDbVertex
100
AcDb2dVertex
 10
2461.9049999999997
 20
55.252599999999887
 30
0.0
  0
VERTEX
  5
6C1
100
AcDbEntity
  8
IMPORTED
  6
STYLE_05
 62
              30
100
AcDbVertex
100
AcDb2dVertex
 10
2449.3049999999994
 20
55.252599999999887
 30
0.0
  0
VERTEX
  5
6C2
100
AcDbEntity
  8
IMPORTED
  6
STYLE_05
 62
              30
100
AcDbVertex
100
AcDb2dVertex
 10
2452.6049999999996
 20
51.952599999999933
 30
0.0
  0
SEQEND
  5
6C3
100
AcDbEntity
  8
IMPORTED
  6
STYLE_05
 62
              30
  0
POLYLINE
  5
6C5
100
AcDbEntity
  8
IMPORTED
  6
CONTINUOUS
 62
              30
100
AcDb2dPolyline
 66
               1
 10
0.0
 20
0.0
 30
0.0
 70
               1
 75
               5
  0
VERTEX
  5
6C6
100
AcDbEntity
  8
IMPORTED
  6
CONTINUOUS
 62
              30
100
AcDbVertex
100
AcDb2dVertex
 10
2460.604990007414
 20
23.625718274825999
 30
0.0
  0
VERTEX
  5
6C7
100
AcDbEntity
  8
IMPORTED
  6
CONTINUOUS
 62
              30
100
AcDbVertex
100
AcDb2dVertex
 10
2459.9351203840079
 20
24.052600000000069
 30
0.0
  0
VERTEX
  5
6C8
100
AcDbEntity
  8
IMPORTED
  6
CONTINUOUS
 62
              30
100
AcDbVertex
100
AcDb2dVertex
 10
2451.2748796159913
 20
24.052600000000069
 30
0.0
  0
VERTEX
  5
6C9
100
AcDbEntity
  8
IMPORTED
  6
CONTINUOUS
 62
              30
100
AcDbVertex
100
AcDb2dVertex
 10
2450.6050099925851
 20
23.625718274825999
 30
0.0
  0
VERTEX
  5
6CA
100
AcDbEntity
  8
IMPORTED
  6
CONTINUOUS
 62
              30
100
AcDbVertex
100
AcDb2dVertex
 10
2450.6050099925851
 20
19.479481725173969
 30
0.0
  0
VERTEX
  5
6CB
100
AcDbEntity
  8
IMPORTED
  6
CONTINUOUS
 62
              30
100
AcDbVertex
100
AcDb2dVertex
 10
2451.2748796159913
 20
19.052600000000098
 30
0.0
  0
VERTEX
  5
6CC
100
AcDbEntity
  8
IMPORTED
  6
CONTINUOUS
 62
              30
100
AcDbVertex
100
AcDb2dVertex
 10
2459.9351203840079
 20
19.052600000000098
 30
0.0
  0
VERTEX
  5
6CD
100
AcDbEntity
  8
IMPORTED
  6
CONTINUOUS
 62
              30
100
AcDbVertex
100
AcDb2dVertex
 10
2460.604990007414
 20
19.479481725173969
 30
0.0
  0
SEQEND
  5
6CE
100
AcDbEntity
  8
IMPORTED
  6
CONTINUOUS
 62
              30
  0
SPLINE
  5
6D0
100
AcDbEntity
  8
IMPORTED
  6
CONTINUOUS
 62
              30
100
AcDbSpline
210
0.0
220
0.0
230
1.0
 70
               8
 71
               2
 72
              10
 73
               7
 74
               0
 42
0.000001
 43
0.000001
 40
0.0
 40
0.0
 40
0.0
 40
1.0
 40
1.0
 40
2.0
 40
2.0
 40
3.0
 40
3.0
 40
3.0
 10
2460.604990007414
 20
23.625718274825999
 30
0.0
 10
2459.3549908401292
 20
24.477725010255739
 30
0.0
 10
2458.1049916728452
 20
23.625718274825999
 30
0.0
 10
2455.6049933382756
 20
24.477725010255739
 30
0.0
 10
2453.1049950037068
 20
23.625718274825999
 30
0.0
 10
2451.8549958364219
 20
24.477725010255739
 30
0.0
 10
2450.604996669138
 20
23.625718274825999
 30
0.0
  0
SPLINE
  5
6D1
100
AcDbEntity
  8
IMPORTED
  6
CONTINUOUS
 62
              30
100
AcDbSpline
210
0.0
220
0.0
230
1.0
 70
               8
 71
               2
 72
              10
 73
               7
 74
               0
 42
0.000001
 43
0.000001
 40
0.0
 40
0.0
 40
0.0
 40
1.0
 40
1.0
 40
2.0
 40
2.0
 40
3.0
 40
3.0
 40
3.0
 10
2460.60498334569
 20
19.479481725173969
 30
0.0
 10
2459.3549841784061
 20
18.627474989744627
 30
0.0
 10
2458.1049850111212
 20
19.479481725173969
 30
0.0
 10
2455.6049866765525
 20
18.627474989744627
 30
0.0
 10
2453.1049883419828
 20
19.479481725173969
 30
0.0
 10
2451.8549891746989
 20
18.627474989744627
 30
0.0
 10
2450.604990007414
 20
19.479481725173969
 30
0.0
  0
LINE
  5
6D2
100
AcDbEntity
  8
IMPORTED
  6
CONTINUOUS
 62
              30
100
AcDbLine
 10
2458.1049983345683
 20
23.625718274825999
 30
0.0
 11
2458.1049983345683
 21
19.479481725173969
 31
0.0
  0
LINE
  5
6D3
100
AcDbEntity
  8
IMPORTED
  6
CONTINUOUS
 62
              30
100
AcDbLine
 10
2453.1050083271539
 20
19.479481725173969
 30
0.0
 11
2453.1050083271539
 21
23.625718274825999
 31
0.0
  0
LINE
  5
6D4
100
AcDbEntity
  8
IMPORTED
  6
CONTINUOUS
 62
              30
100
AcDbLine
 10
2458.6049999999996
 20
19.052600000000098
 30
0.0
 11
2458.6049999999996
 21
16.052600000000098
 31
0.0
  0
LINE
  5
6D5
100
AcDbEntity
  8
IMPORTED
  6
CONTINUOUS
 62
              30
100
AcDbLine
 10
2458.6049999999996
 20
16.052600000000098
 30
0.0
 11
2457.8049999999994
 21
15.252599999999916
 31
0.0
  0
LINE
  5
6D6
100
AcDbEntity
  8
IMPORTED
  6
CONTINUOUS
 62
              30
100
AcDbLine
 10
2457.8049999999994
 20
15.252599999999916
 30
0.0
 11
2453.4049999999997
 21
15.252599999999916
 31
0.0
  0
LINE
  5
6D7
100
AcDbEntity
  8
IMPORTED
  6
CONTINUOUS
 62
              30
100
AcDbLine
 10
2453.4049999999997
 20
15.252599999999916
 30
0.0
 11
2452.6049999999996
 21
16.052600000000098
 31
0.0
  0
LINE
  5
6D8
100
AcDbEntity
  8
IMPORTED
  6
CONTINUOUS
 62
              30
100
AcDbLine
 10
2452.6049999999996
 20
16.052600000000098
 30
0.0
 11
2452.6049999999996
 21
19.052600000000098
 31
0.0
  0
MTEXT
  5
6D9
100
AcDbEntity
  8
IMPORTED
 62
               1
100
AcDbMText
 10
1959.1873385111494
 20
703.25261718750005
 30
0.0
 40
24.432617187500004
 41
0.0
 71
               1
 72
               1
  1
※特記事項\P・ESWは、木粉50％以上、ポリプロピレン40％以上の配合で、\P  表面をサンディング加工した再生木材「EINスーパーウッド」の略称。\P・ESW塗装は、ESWの表面をアクリルシリコン系水性塗料で仕上げた製品。\P
  7
_______
  0
ENDSEC
  0
SECTION
  2
OBJECTS
  0
DICTIONARY
  5
19
100
AcDbDictionary
  3
ACAD_GROUP
350
1A
  3
ACAD_MLINESTYLE
350
1B
  0
DICTIONARY
  5
1A
102
{ACAD_REACTORS
330
19
102
}
100
AcDbDictionary
  0
DICTIONARY
  5
1B
102
{ACAD_REACTORS
330
19
102
}
100
AcDbDictionary
  3
STANDARD
350
1C
  0
MLINESTYLE
  5
1C
102
{ACAD_REACTORS
330
1B
102
}
100
AcDbMlineStyle
  2
STANDARD
 70
               0
  3

 62
               0
 51
90.0
 52
90.0
 71
               2
 49
0.5
 62
             256
  6
BYLAYER
 49
-0.5
 62
             256
  6
BYLAYER
  0
ENDSEC
  0
EOF
