  0
SECTION
  2
HEADER
  9
$ACADVER
  1
AC1012
  9
$DWGCODEPAGE
  3
dos932
  9
$INSBASE
 10
0.0
 20
0.0
 30
0.0
  9
$EXTMIN
 10
-1943.8518000000001
 20
-1372.5
 30
0.0
  9
$EXTMAX
 10
1956.1481999999999
 20
1377.5
 30
0.0
  9
$LIMMIN
 10
0.0
 20
0.0
  9
$LIMMAX
 10
0.0
 20
0.0
  9
$ORTHOMODE
 70
               0
  9
$REGENMODE
 70
               1
  9
$FILLMODE
 70
               1
  9
$QTEXTMODE
 70
               0
  9
$MIRRTEXT
 70
               1
  9
$DRAGMODE
 70
               2
  9
$LTSCALE
 40
50.799999999999997
  9
$OSMODE
 70
               0
  9
$ATTMODE
 70
               1
  9
$TEXTSIZE
 40
0.2
  9
$TRACEWID
 40
1.0
  9
$TEXTSTYLE
  7
STANDARD
  9
$CLAYER
  8
____
  9
$CELTYPE
  6
CONTINUOUS
  9
$CECOLOR
 62
             256
  9
$CELTSCALE
 40
1.0
  9
$DELOBJ
 70
               1
  9
$DISPSILH
 70
               0
  9
$DIMSCALE
 40
1.0
  9
$DIMASZ
 40
0.18
  9
$DIMEXO
 40
0.0625
  9
$DIMDLI
 40
0.38
  9
$DIMRND
 40
0.0
  9
$DIMDLE
 40
0.0
  9
$DIMEXE
 40
0.18
  9
$DIMTP
 40
0.0
  9
$DIMTM
 40
0.0
  9
$DIMTXT
 40
0.18
  9
$DIMCEN
 40
0.09
  9
$DIMTSZ
 40
0.0
  9
$DIMTOL
 70
               0
  9
$DIMLIM
 70
               0
  9
$DIMTIH
 70
               1
  9
$DIMTOH
 70
               1
  9
$DIMSE1
 70
               0
  9
$DIMSE2
 70
               0
  9
$DIMTAD
 70
               0
  9
$DIMZIN
 70
               0
  9
$DIMBLK
  1

  9
$DIMASO
 70
               1
  9
$DIMSHO
 70
               1
  9
$DIMPOST
  1

  9
$DIMAPOST
  1

  9
$DIMALT
 70
               0
  9
$DIMALTD
 70
               2
  9
$DIMALTF
 40
25.399999999999999
  9
$DIMLFAC
 40
1.0
  9
$DIMTOFL
 70
               0
  9
$DIMTVP
 40
0.0
  9
$DIMTIX
 70
               0
  9
$DIMSOXD
 70
               0
  9
$DIMSAH
 70
               0
  9
$DIMBLK1
  1

  9
$DIMBLK2
  1

  9
$DIMSTYLE
  2
STANDARD
  9
$DIMCLRD
 70
               0
  9
$DIMCLRE
 70
               0
  9
$DIMCLRT
 70
               0
  9
$DIMTFAC
 40
1.0
  9
$DIMGAP
 40
0.09
  9
$DIMJUST
 70
               0
  9
$DIMSD1
 70
               0
  9
$DIMSD2
 70
               0
  9
$DIMTOLJ
 70
               1
  9
$DIMTZIN
 70
               0
  9
$DIMALTZ
 70
               0
  9
$DIMALTTZ
 70
               0
  9
$DIMFIT
 70
               3
  9
$DIMUPT
 70
               0
  9
$DIMUNIT
 70
               2
  9
$DIMDEC
 70
               4
  9
$DIMTDEC
 70
               4
  9
$DIMALTU
 70
               2
  9
$DIMALTTD
 70
               2
  9
$DIMTXSTY
  7
STANDARD
  9
$DIMAUNIT
 70
               0
  9
$LUNITS
 70
               2
  9
$LUPREC
 70
               4
  9
$SKETCHINC
 40
0.1
  9
$FILLETRAD
 40
0.0
  9
$AUNITS
 70
               0
  9
$AUPREC
 70
               0
  9
$MENU
  1
acad
  9
$ELEVATION
 40
0.0
  9
$PELEVATION
 40
0.0
  9
$THICKNESS
 40
0.0
  9
$LIMCHECK
 70
               0
  9
$BLIPMODE
 70
               0
  9
$CHAMFERA
 40
0.0
  9
$CHAMFERB
 40
0.0
  9
$CHAMFERC
 40
0.0
  9
$CHAMFERD
 40
0.0
  9
$SKPOLY
 70
               0
  9
$TDCREATE
 40
2459228.431273148
  9
$TDUPDATE
 40
2459228.431273148
  9
$TDINDWG
 40
0.0000000000
  9
$TDUSRTIMER
 40
0.0000000000
  9
$USRTIMER
 70
               1
  9
$ANGBASE
 50
0.0
  9
$ANGDIR
 70
               0
  9
$PDMODE
 70
               1
  9
$PDSIZE
 40
-2.0
  9
$PLINEWID
 40
0.0
  9
$COORDS
 70
               0
  9
$SPLFRAME
 70
               0
  9
$SPLINETYPE
 70
               6
  9
$SPLINESEGS
 70
               8
  9
$ATTDIA
 70
               0
  9
$ATTREQ
 70
               1
  9
$HANDLING
 70
               1
  9
$HANDSEED
  5
4E6
  9
$SURFTAB1
 70
               6
  9
$SURFTAB2
 70
               6
  9
$SURFTYPE
 70
               6
  9
$SURFU
 70
               6
  9
$SURFV
 70
               6
  9
$UCSNAME
  2

  9
$UCSORG
 10
0.0
 20
0.0
 30
0.0
  9
$UCSXDIR
 10
1.0
 20
0.0
 30
0.0
  9
$UCSYDIR
 10
0.0
 20
1.0
 30
0.0
  9
$PUCSNAME
  2

  9
$PUCSORG
 10
0.0
 20
0.0
 30
0.0
  9
$PUCSXDIR
 10
1.0
 20
0.0
 30
0.0
  9
$PUCSYDIR
 10
0.0
 20
1.0
 30
0.0
  9
$USERI1
 70
               0
  9
$USERI2
 70
               0
  9
$USERI3
 70
               0
  9
$USERI4
 70
               0
  9
$USERI5
 70
               0
  9
$USERR1
 40
0.0
  9
$USERR2
 40
0.0
  9
$USERR3
 40
0.0
  9
$USERR4
 40
0.0
  9
$USERR5
 40
0.0
  9
$WORLDVIEW
 70
               1
  9
$SHADEDGE
 70
               3
  9
$SHADEDIF
 70
              70
  9
$TILEMODE
 70
               1
  9
$MAXACTVP
 70
              64
  9
$PINSBASE
 10
0.0
 20
0.0
 30
0.0
  9
$PLIMCHECK
 70
               0
  9
$PEXTMIN
 10
1.0000000000000000E+20
 20
1.0000000000000000E+20
 30
1.0000000000000000E+20
  9
$PEXTMAX
 10
-1.0000000000000000E+20
 20
-1.0000000000000000E+20
 30
-1.0000000000000000E+20
  9
$PLIMMIN
 10
0.0
 20
0.0
  9
$PLIMMAX
 10
12.0
 20
9.0
  9
$UNITMODE
 70
               0
  9
$VISRETAIN
 70
               0
  9
$PLINEGEN
 70
               1
  9
$PSLTSCALE
 70
               0
  9
$TREEDEPTH
 70
            3020
  9
$PICKSTYLE
 70
               1
  9
$CMLSTYLE
  2
STANDARD
  9
$CMLJUST
 70
               0
  9
$CMLSCALE
 40
1.0
  9
$SAVEIMAGES
 70
               0
  0
ENDSEC
  0
SECTION
  2
CLASSES
  0
CLASS
  1
LWPOLYLINE
  2
AcDbPolyline
  3
"AutoCAD"
 90
    32768
280
               0
281
               1
  0
CLASS
  1
IMAGE
  2
AcDbRasterImage
  3
ISM
 90
    32895
280
               0
281
               1
  0
CLASS
  1
OLE2FRAME
  2
AcDbOle2Frame
  3
""
 90
    32768
280
               0
281
               1
  0
CLASS
  1
HATCH
  2
AcDbHatch
  3
"ACAD_SEDONA"
 90
    32768
280
               0
281
               1
  0
CLASS
  1
DICTIONARYVAR
  2
AcDbDictionaryVar
  3
"AutoCAD"
 90
    32768
280
               0
281
               0
  0
CLASS
  1
RASTERVARIABLES
  2
AcDbRasterVariables
  3
ISM
 90
    32768
280
               0
281
               0
  0
CLASS
  1
IMAGEDEF
  2
AcDbRasterImageDef
  3
ISM
 90
    32768
280
               0
281
               0
  0
CLASS
  1
IMAGEDEF_REACTOR
  2
AcDbRasterImageDefReactor
  3
ISM
 90
    32769
280
               0
281
               0
  0
CLASS
  1
IDBUFFER
  2
AcDbIdBuffer
  3
"Acad"
 90
    32768
280
               0
281
               0
  0
CLASS
  1
SPATIAL_FILTER
  2
AcDbSpatialFilter
  3
"Acad"
 90
    32768
280
               0
281
               0
  0
CLASS
  1
XRECORD
  2
AcDbXrecord
  3
"<Built In>"
 90
    32768
280
               0
281
               0
  0
CLASS
  1
SORTENTSTABLE
  2
AcDbSortentsTable
  3
"AutoCAD"
 90
    32768
280
               0
281
               0
  0
CLASS
  1
LAYER_INDEX
  2
AcDbLayerIndex
  3
"Acad"
 90
    32768
280
               0
281
               0
  0
CLASS
  1
SPATIAL_INDEX
  2
AcDbSpatialIndex
  3
"Acad"
 90
    32768
280
               0
281
               0
  0
CLASS
  1
OBJECT_PTR
  2
CAseDLPNTableRecord
  3
"ASE-LPNTableRecord"
 90
    32769
280
               0
281
               0
  0
CLASS
  1
LAYOUT
  2
AcDbLayout
  3
"AutoCAD 2000"
 90
    32768
280
               0
281
               0
  0
CLASS
  1
PLOTSETTINGS
  2
AcDbPlotSettings
  3
"AutoCAD 2000"
 90
    32768
280
               0
281
               0
  0
CLASS
  1
ACDBDICTIONARYWDFLT
  2
AcDbDictionaryWithDefault
  3
"AutoCAD 2000"
 90
    32768
280
               0
281
               0
  0
CLASS
  1
ACDBPLACEHOLDER
  2
AcDbPlaceHolder
  3
"AutoCAD 2000"
 90
    32768
280
               0
281
               0
  0
ENDSEC
  0
SECTION
  2
TABLES
  0
TABLE
  2
VPORT
  5
7
100
AcDbSymbolTable
 70
               1
  0
VPORT
  5
15
100
AcDbSymbolTableRecord
100
AcDbViewportTableRecord
  2
*ACTIVE
 70
               0
 10
0.0
 20
0.0
 11
1.0
 21
1.0
 12
6.1481999999998607
 22
2.5
 13
0.0
 23
0.0
 14
1.0
 24
1.0
 15
0.0
 25
0.0
 16
0.0
 26
0.0
 36
1.0
 17
0.0
 27
0.0
 37
0.0
 40
2750.0
 41
0.688564
 42
50.0
 43
0.0
 44
0.0
 50
0.0
 51
0.0
 71
               0
 72
            2000
 73
               1
 74
               1
 75
               0
 76
               0
 77
               0
 78
               0
  0
ENDTAB
  0
TABLE
  2
LTYPE
  5
4
100
AcDbSymbolTable
 70
              13
  0
LTYPE
  5
11
100
AcDbSymbolTableRecord
100
AcDbLinetypeTableRecord
  2
BYBLOCK
 70
              64
  3

 72
              65
 73
               0
 40
0.0
  0
LTYPE
  5
12
100
AcDbSymbolTableRecord
100
AcDbLinetypeTableRecord
  2
BYLAYER
 70
              64
  3

 72
              65
 73
               0
 40
0.0
  0
LTYPE
  5
13
100
AcDbSymbolTableRecord
100
AcDbLinetypeTableRecord
  2
CONTINUOUS
 70
              64
  3
Solid line
 72
              65
 73
               0
 40
0.0
  0
LTYPE
  5
25
100
AcDbSymbolTableRecord
100
AcDbLinetypeTableRecord
  2
STYLE_01
 70
               0
  3

 72
              65
 73
               2
 40
0.4166412353515625
 49
0.208282470703125
 74
               0
 49
-0.2083587646484375
 74
               0
  0
LTYPE
  5
26
100
AcDbSymbolTableRecord
100
AcDbLinetypeTableRecord
  2
STYLE_02
 70
               0
  3

 72
              65
 73
               2
 40
0.694427490234375
 49
0.4860687255859375
 74
               0
 49
-0.2083587646484375
 74
               0
  0
LTYPE
  5
27
100
AcDbSymbolTableRecord
100
AcDbLinetypeTableRecord
  2
STYLE_03
 70
               0
  3

 72
              65
 73
               2
 40
1.25
 49
1.0416412353515625
 74
               0
 49
-0.2083587646484375
 74
               0
  0
LTYPE
  5
28
100
AcDbSymbolTableRecord
100
AcDbLinetypeTableRecord
  2
STYLE_04
 70
               0
  3

 72
              65
 73
               2
 40
1.5277099609375
 49
1.319427490234375
 74
               0
 49
-0.208282470703125
 74
               0
  0
LTYPE
  5
29
100
AcDbSymbolTableRecord
100
AcDbLinetypeTableRecord
  2
STYLE_05
 70
               0
  3

 72
              65
 73
               2
 40
0.208282470703125
 49
0.069427490234375
 74
               0
 49
-0.13885498046875
 74
               0
  0
LTYPE
  5
2A
100
AcDbSymbolTableRecord
100
AcDbLinetypeTableRecord
  2
STYLE_06
 70
               0
  3

 72
              65
 73
               4
 40
1.0416412353515625
 49
0.625
 74
               0
 49
-0.208282470703125
 74
               0
 49
0.069427490234375
 74
               0
 49
-0.1389312744140625
 74
               0
  0
LTYPE
  5
2B
100
AcDbSymbolTableRecord
100
AcDbLinetypeTableRecord
  2
STYLE_07
 70
               0
  3

 72
              65
 73
               6
 40
1.875
 49
0.625
 74
               0
 49
-0.208282470703125
 74
               0
 49
0.625
 74
               0
 49
-0.2083587646484375
 74
               0
 49
0.069427490234375
 74
               0
 49
-0.1389312744140625
 74
               0
  0
LTYPE
  5
2C
100
AcDbSymbolTableRecord
100
AcDbLinetypeTableRecord
  2
STYLE_08
 70
               0
  3

 72
              65
 73
               6
 40
1.25
 49
0.625
 74
               0
 49
-0.208282470703125
 74
               0
 49
0.069427490234375
 74
               0
 49
-0.1389312744140625
 74
               0
 49
0.069427490234375
 74
               0
 49
-0.1389312744140625
 74
               0
  0
LTYPE
  5
2D
100
AcDbSymbolTableRecord
100
AcDbLinetypeTableRecord
  2
STYLE_09
 70
               0
  3

 72
              65
 73
               4
 40
5.0
 49
3.75
 74
               0
 49
-0.2777862548828125
 74
               0
 49
0.694427490234375
 74
               0
 49
-0.2777862548828125
 74
               0
  0
LTYPE
  5
2E
100
AcDbSymbolTableRecord
100
AcDbLinetypeTableRecord
  2
STYLE_10
 70
               0
  3

 72
              65
 73
               6
 40
5.9375
 49
3.75
 74
               0
 49
-0.2777862548828125
 74
               0
 49
0.694427490234375
 74
               0
 49
-0.2777862548828125
 74
               0
 49
0.625
 74
               0
 49
-0.3125
 74
               0
  0
ENDTAB
  0
TABLE
  2
LAYER
  5
2
100
AcDbSymbolTable
 70
               2
  0
LAYER
  5
14
100
AcDbSymbolTableRecord
100
AcDbLayerTableRecord
  2
0
 70
               0
 62
               7
  6
CONTINUOUS
  0
LAYER
  5
2F
100
AcDbSymbolTableRecord
100
AcDbLayerTableRecord
  2
____
 70
               0
 62
               7
  6
CONTINUOUS
  0
ENDTAB
  0
TABLE
  2
STYLE
  5
3
100
AcDbSymbolTable
 70
               2
  0
STYLE
  5
17
100
AcDbSymbolTableRecord
100
AcDbTextStyleTableRecord
  2
STANDARD
 70
               0
 40
0.0
 41
1.0
 50
0.0
 71
               0
 42
0.0
  3
txt
  4
BIGFONT.SHX
  0
STYLE
  5
24
100
AcDbSymbolTableRecord
100
AcDbTextStyleTableRecord
  2
_______
 70
               0
 40
0.0
 41
1.0
 50
0.0
 71
               0
 42
0.0
  3

  4
ＭＳ ゴシック
1001
ACAD
1000
ＭＳ ゴシック
1071
        0
  0
ENDTAB
  0
TABLE
  2
VIEW
  5
5
100
AcDbSymbolTable
 70
               0
  0
ENDTAB
  0
TABLE
  2
UCS
  5
6
100
AcDbSymbolTable
 70
               0
  0
ENDTAB
  0
TABLE
  2
APPID
  5
8
100
AcDbSymbolTable
 70
               1
  0
APPID
  5
16
100
AcDbSymbolTableRecord
100
AcDbRegAppTableRecord
  2
ACAD
 70
               0
  0
ENDTAB
  0
TABLE
  2
DIMSTYLE
  5
9
100
AcDbSymbolTable
 70
               1
  0
DIMSTYLE
105
18
100
AcDbSymbolTableRecord
100
AcDbDimStyleTableRecord
  2
STANDARD
 70
               0
  3

  4

  5

  6

  7

 40
1.0
 41
0.18
 42
0.0625
 43
0.38
 44
0.18
 45
0.0
 46
0.0
 47
0.0
 48
0.0
 71
               0
 72
               0
 73
               1
 74
               1
 75
               0
 76
               0
 77
               0
 78
               0
140
0.18
141
0.09
142
0.0
143
25.399999999999999
144
1.0
145
0.0
146
1.0
147
0.09
170
               0
171
               2
172
               0
173
               0
174
               0
175
               0
176
               0
177
               0
178
               0
270
               2
271
               4
272
               4
273
               2
274
               2
275
               0
280
               0
281
               0
282
               0
283
               1
284
               0
285
               0
286
               0
287
               3
288
               0
340
17
  0
ENDTAB
  0
TABLE
  2
BLOCK_RECORD
  5
1
100
AcDbSymbolTable
 70
               7
  0
BLOCK_RECORD
  5
A
100
AcDbSymbolTableRecord
100
AcDbBlockTableRecord
  2
*MODEL_SPACE
  0
BLOCK_RECORD
  5
B
100
AcDbSymbolTableRecord
100
AcDbBlockTableRecord
  2
*PAPER_SPACE
  0
BLOCK_RECORD
  5
1D
100
AcDbSymbolTableRecord
100
AcDbBlockTableRecord
  2
*X0
  0
BLOCK_RECORD
  5
1E
100
AcDbSymbolTableRecord
100
AcDbBlockTableRecord
  2
*X1
  0
BLOCK_RECORD
  5
1F
100
AcDbSymbolTableRecord
100
AcDbBlockTableRecord
  2
*X2
  0
BLOCK_RECORD
  5
20
100
AcDbSymbolTableRecord
100
AcDbBlockTableRecord
  2
*X3
  0
BLOCK_RECORD
  5
21
100
AcDbSymbolTableRecord
100
AcDbBlockTableRecord
  2
*X4
  0
BLOCK_RECORD
  5
22
100
AcDbSymbolTableRecord
100
AcDbBlockTableRecord
  2
*X5
  0
BLOCK_RECORD
  5
23
100
AcDbSymbolTableRecord
100
AcDbBlockTableRecord
  2
*X6
  0
ENDTAB
  0
ENDSEC
  0
SECTION
  2
BLOCKS
  0
BLOCK
  5
D
100
AcDbEntity
  8
0
100
AcDbBlockBegin
  2
*MODEL_SPACE
 70
               0
 10
0.0
 20
0.0
 30
0.0
  3
*MODEL_SPACE
  1

  0
ENDBLK
  5
E
100
AcDbEntity
  8
0
100
AcDbBlockEnd
  0
BLOCK
  5
F
100
AcDbEntity
 67
               1
  8
0
100
AcDbBlockBegin
  2
*PAPER_SPACE
 70
               0
 10
0.0
 20
0.0
 30
0.0
  3
*PAPER_SPACE
  1

  0
ENDBLK
  5
10
100
AcDbEntity
 67
               1
  8
0
100
AcDbBlockEnd
  0
BLOCK
  5
30
100
AcDbEntity
  8
____
100
AcDbBlockBegin
  2
*X0
 70
               1
 10
0.0
 20
0.0
 30
0.0
  3
*X0
  1

  0
LINE
  5
31
100
AcDbEntity
  8
0
  6
CONTINUOUS
 62
              30
100
AcDbLine
 10
-1081.0561
 20
587.71590360025243
 30
0.0
 11
-946.50637032075508
 21
722.26563327949737
 31
0.0
  0
LINE
  5
32
100
AcDbEntity
  8
0
  6
CONTINUOUS
 62
              30
100
AcDbLine
 10
-779.10518409888334
 20
352.26566579959291
 30
0.0
 11
-631.0561405613887
 21
500.31470933708761
 31
0.0
  0
LINE
  5
33
100
AcDbEntity
  8
0
  6
CONTINUOUS
 62
              30
100
AcDbLine
 10
-1061.9477708656859
 20
352.26579150740923
 30
0.0
 11
-691.94787390218653
 21
722.26568847090869
 31
0.0
  0
LINE
  5
34
100
AcDbEntity
  8
0
  6
CONTINUOUS
 62
              30
100
AcDbLine
 10
-1081.0561
 20
616.00017484771422
 30
0.0
 11
-974.79064770059608
 21
722.26562714711827
 31
0.0
  0
LINE
  5
35
100
AcDbEntity
  8
0
  6
CONTINUOUS
 62
              30
100
AcDbLine
 10
-764.96305476054306
 20
352.26565951420207
 30
0.0
 11
-631.05613668683316
 21
486.17257758791209
 31
0.0
  0
LINE
  5
36
100
AcDbEntity
  8
0
  6
CONTINUOUS
 62
              30
100
AcDbLine
 10
-1047.8056415273456
 20
352.26578522201845
 30
0.0
 11
-677.80573521226609
 21
722.26569153709818
 31
0.0
  0
LINE
  5
37
100
AcDbEntity
  8
0
  6
CONTINUOUS
 62
              30
100
AcDbLine
 10
-1081.0561
 20
601.85803922398327
 30
0.0
 11
-960.64850901067553
 21
722.26563021330776
 31
0.0
  0
LINE
  5
38
100
AcDbEntity
  8
0
  6
CONTINUOUS
 62
              30
100
AcDbLine
 10
-750.82092542220312
 20
352.26565322881129
 30
0.0
 11
-631.05613281227761
 21
472.0304458387368
 31
0.0
  0
LINE
  5
39
100
AcDbEntity
  8
0
  6
CONTINUOUS
 62
              30
100
AcDbLine
 10
-1033.6635121890058
 20
352.26577893662761
 30
0.0
 11
-663.66359652234564
 21
722.26569460328778
 31
0.0
  0
ENDBLK
  5
3A
100
AcDbEntity
  8
____
100
AcDbBlockEnd
  0
BLOCK
  5
3B
100
AcDbEntity
  8
____
100
AcDbBlockBegin
  2
*X1
 70
               1
 10
0.0
 20
0.0
 30
0.0
  3
*X1
  1

  0
LINE
  5
3C
100
AcDbEntity
  8
0
  6
CONTINUOUS
 62
              30
100
AcDbLine
 10
-1033.6635121890056
 20
352.26577893662761
 30
0.0
 11
-983.66361276843054
 21
402.26567835720283
 31
0.0
  0
LINE
  5
3D
100
AcDbEntity
  8
0
  6
CONTINUOUS
 62
              30
100
AcDbLine
 10
-779.10518409888334
 20
352.26566579959291
 30
0.0
 11
-729.10522810980331
 21
402.26562178867295
 31
0.0
  0
LINE
  5
3E
100
AcDbEntity
  8
0
  6
CONTINUOUS
 62
              30
100
AcDbLine
 10
-1061.9477708656859
 20
352.26579150740923
 30
0.0
 11
-1011.9478777305002
 21
402.26568464259503
 31
0.0
  0
LINE
  5
3F
100
AcDbEntity
  8
0
  6
CONTINUOUS
 62
              30
100
AcDbLine
 10
-764.96305476054306
 20
352.26565951420207
 30
0.0
 11
-714.96309562876831
 21
402.26561864597687
 31
0.0
  0
LINE
  5
40
100
AcDbEntity
  8
0
  6
CONTINUOUS
 62
              30
100
AcDbLine
 10
-1047.8056415273459
 20
352.26578522201839
 30
0.0
 11
-997.80574524946519
 21
402.2656814998989
 31
0.0
  0
LINE
  5
41
100
AcDbEntity
  8
0
  6
CONTINUOUS
 62
              30
100
AcDbLine
 10
-750.82092542220312
 20
352.26565322881129
 30
0.0
 11
-700.82096314773366
 21
402.26561550328074
 31
0.0
  0
ENDBLK
  5
42
100
AcDbEntity
  8
____
100
AcDbBlockEnd
  0
BLOCK
  5
43
100
AcDbEntity
  8
____
100
AcDbBlockBegin
  2
*X2
 70
               1
 10
0.0
 20
0.0
 30
0.0
  3
*X2
  1

  0
LINE
  5
44
100
AcDbEntity
  8
0
  6
CONTINUOUS
 62
              30
100
AcDbLine
 10
576.41838030161375
 20
548.13410905415185
 30
0.0
 11
762.13445777673928
 21
733.85018652927749
 31
0.0
  0
LINE
  5
45
100
AcDbEntity
  8
0
  6
CONTINUOUS
 62
              30
100
AcDbLine
 10
767.95100352480517
 20
202.26557857556728
 30
0.0
 11
980.44378388252017
 21
414.75835893328235
 31
0.0
  0
LINE
  5
46
100
AcDbEntity
  8
0
  6
CONTINUOUS
 62
              30
100
AcDbLine
 10
630.4437999999999
 20
347.60108752538099
 30
0.0
 11
980.44371093458358
 21
697.60099845996456
 31
0.0
  0
LINE
  5
47
100
AcDbEntity
  8
0
  6
CONTINUOUS
 62
              30
100
AcDbLine
 10
568.77398824551028
 20
568.77398824551051
 30
0.0
 11
732.36153533226957
 21
732.36153533226991
 31
0.0
  0
LINE
  5
48
100
AcDbEntity
  8
0
  6
CONTINUOUS
 62
              30
100
AcDbLine
 10
782.09314722976353
 20
202.26558665679457
 30
0.0
 11
980.4437875299169
 21
400.61622695694791
 31
0.0
  0
LINE
  5
49
100
AcDbEntity
  8
0
  6
CONTINUOUS
 62
              30
100
AcDbLine
 10
630.4437999999999
 20
333.45895190164998
 30
0.0
 11
980.4437145819802
 21
683.45886648363035
 31
0.0
  0
LINE
  5
4A
100
AcDbEntity
  8
0
  6
CONTINUOUS
 62
              30
100
AcDbLine
 10
572.5961842735619
 20
558.45404864983107
 30
0.0
 11
747.24799655450454
 21
733.1058609307737
 31
0.0
  0
LINE
  5
4B
100
AcDbEntity
  8
0
  6
CONTINUOUS
 62
              30
100
AcDbLine
 10
796.23529093472166
 20
202.2655947380218
 30
0.0
 11
980.44379117731387
 21
386.47409498061404
 31
0.0
  0
LINE
  5
4C
100
AcDbEntity
  8
0
  6
CONTINUOUS
 62
              30
100
AcDbLine
 10
630.4437999999999
 20
319.31681627791909
 30
0.0
 11
980.44371822937705
 21
669.31673450729636
 31
0.0
  0
ENDBLK
  5
4D
100
AcDbEntity
  8
____
100
AcDbBlockEnd
  0
BLOCK
  5
4E
100
AcDbEntity
  8
____
100
AcDbBlockBegin
  2
*X3
 70
               1
 10
0.0
 20
0.0
 30
0.0
  3
*X3
  1

  0
LINE
  5
4F
100
AcDbEntity
  8
0
  6
CONTINUOUS
 62
              30
100
AcDbLine
 10
-1081.0561313147509
 20
587.7158722855014
 30
0.0
 11
-996.50632238909202
 21
672.26568121116043
 31
0.0
  0
LINE
  5
50
100
AcDbEntity
  8
0
  6
CONTINUOUS
 62
              30
100
AcDbLine
 10
-729.10522810980331
 20
402.26562178867289
 30
0.0
 11
-631.05616368552364
 21
500.31468621295267
 31
0.0
  0
LINE
  5
51
100
AcDbEntity
  8
0
  6
CONTINUOUS
 62
              30
100
AcDbLine
 10
-1011.9478777305001
 20
402.26568464259503
 30
0.0
 11
-741.94793773046467
 21
672.26562464263054
 31
0.0
  0
LINE
  5
52
100
AcDbEntity
  8
0
  6
CONTINUOUS
 62
              30
100
AcDbLine
 10
-1081.0561208390911
 20
616.0001540086231
 30
0.0
 11
-1024.7905873511615
 21
672.26568749655269
 31
0.0
  0
LINE
  5
53
100
AcDbEntity
  8
0
  6
CONTINUOUS
 62
              30
100
AcDbLine
 10
-714.96309562876854
 20
402.2656186459767
 30
0.0
 11
-631.05616892335354
 21
486.1725453513917
 31
0.0
  0
LINE
  5
54
100
AcDbEntity
  8
0
  6
CONTINUOUS
 62
              30
100
AcDbLine
 10
-997.8057452494653
 20
402.2656814998989
 30
0.0
 11
-727.8058052494298
 21
672.26562149993447
 31
0.0
  0
LINE
  5
55
100
AcDbEntity
  8
0
  6
CONTINUOUS
 62
              30
100
AcDbLine
 10
-1081.0561260769211
 20
601.85801314706225
 30
0.0
 11
-1010.6484548701267
 21
672.26568435385661
 31
0.0
  0
LINE
  5
56
100
AcDbEntity
  8
0
  6
CONTINUOUS
 62
              30
100
AcDbLine
 10
-700.82096314773366
 20
402.26561550328063
 30
0.0
 11
-631.05617416118343
 21
472.03040448983097
 31
0.0
  0
LINE
  5
57
100
AcDbEntity
  8
0
  6
CONTINUOUS
 62
              30
100
AcDbLine
 10
-983.66361276843065
 20
402.26567835720277
 30
0.0
 11
-713.66367276839514
 21
672.26561835723828
 31
0.0
  0
ENDBLK
  5
58
100
AcDbEntity
  8
____
100
AcDbBlockEnd
  0
BLOCK
  5
59
100
AcDbEntity
  8
____
100
AcDbBlockBegin
  2
*X4
 70
               1
 10
0.0
 20
0.0
 30
0.0
  3
*X4
  1

  0
LINE
  5
5A
100
AcDbEntity
  8
0
  6
CONTINUOUS
 62
              30
100
AcDbLine
 10
-1081.0561
 20
304.87319112563324
 30
0.0
 11
-1033.6635121890056
 21
352.26577893662761
 31
0.0
  0
LINE
  5
5B
100
AcDbEntity
  8
0
  6
CONTINUOUS
 62
              30
100
AcDbLine
 10
-646.26253404467116
 20
202.26560337918605
 30
0.0
 11
-631.05618986243496
 21
217.47194756142224
 31
0.0
  0
LINE
  5
5C
100
AcDbEntity
  8
0
  6
CONTINUOUS
 62
              30
100
AcDbLine
 10
-929.10518366535393
 20
202.2656662331222
 30
0.0
 11
-779.10518409888334
 21
352.26566579959291
 31
0.0
  0
LINE
  5
5D
100
AcDbEntity
  8
0
  6
CONTINUOUS
 62
              30
100
AcDbLine
 10
-1081.0561
 20
333.1574623730952
 30
0.0
 11
-1061.9477708656859
 21
352.26579150740923
 31
0.0
  0
LINE
  5
5E
100
AcDbEntity
  8
0
  6
CONTINUOUS
 62
              30
100
AcDbLine
 10
-632.12040156363696
 20
202.26560023648923
 30
0.0
 11
-631.05619929053159
 21
203.32980250959449
 31
0.0
  0
LINE
  5
5F
100
AcDbEntity
  8
0
  6
CONTINUOUS
 62
              30
100
AcDbLine
 10
-914.96305118431974
 20
202.26566309042539
 30
0.0
 11
-764.96305476054306
 21
352.26565951420207
 31
0.0
  0
LINE
  5
60
100
AcDbEntity
  8
0
  6
CONTINUOUS
 62
              30
100
AcDbLine
 10
-1081.0561
 20
319.01532674936414
 30
0.0
 11
-1047.8056415273459
 21
352.26578522201839
 31
0.0
  0
LINE
  5
61
100
AcDbEntity
  8
0
  6
CONTINUOUS
 62
              30
100
AcDbLine
 10
-900.82091870328566
 20
202.26565994772861
 30
0.0
 11
-750.82092542220312
 21
352.26565322881129
 31
0.0
  0
ENDBLK
  5
62
100
AcDbEntity
  8
____
100
AcDbBlockEnd
  0
BLOCK
  5
63
100
AcDbEntity
  8
____
100
AcDbBlockBegin
  2
*X5
 70
               1
 10
0.0
 20
0.0
 30
0.0
  3
*X5
  1

  0
LINE
  5
64
100
AcDbEntity
  8
0
  6
CONTINUOUS
 62
              30
100
AcDbLine
 10
-1131.0560999999998
 20
126.17979040000017
 30
0.0
 11
-1055.2358903999998
 21
202.0
 31
0.0
  0
LINE
  5
65
100
AcDbEntity
  8
0
  6
CONTINUOUS
 62
              30
100
AcDbLine
 10
-616.42050879999977
 20
101.99999999999994
 30
0.0
 11
-581.0560999999999
 21
137.36440879999986
 31
0.0
  0
LINE
  5
66
100
AcDbEntity
  8
0
  6
CONTINUOUS
 62
              30
100
AcDbLine
 10
-706.22307239999964
 20
102.0
 30
0.0
 11
-606.22307239999975
 21
202.0
 31
0.0
  0
LINE
  5
67
100
AcDbEntity
  8
0
  6
CONTINUOUS
 62
              30
100
AcDbLine
 10
-796.02563599999974
 20
102.0
 30
0.0
 11
-696.02563599999985
 21
202.0
 31
0.0
  0
LINE
  5
68
100
AcDbEntity
  8
0
  6
CONTINUOUS
 62
              30
100
AcDbLine
 10
-885.82819959999983
 20
102.0
 30
0.0
 11
-785.82819959999983
 21
202.0
 31
0.0
  0
LINE
  5
69
100
AcDbEntity
  8
0
  6
CONTINUOUS
 62
              30
100
AcDbLine
 10
-975.63076319999982
 20
102.00000000000006
 30
0.0
 11
-875.63076319999982
 21
202.0
 31
0.0
  0
LINE
  5
6A
100
AcDbEntity
  8
0
  6
CONTINUOUS
 62
              30
100
AcDbLine
 10
-1065.4333267999998
 20
102.00000000000006
 30
0.0
 11
-965.43332679999992
 21
201.99999999999994
 31
0.0
  0
ENDBLK
  5
6B
100
AcDbEntity
  8
____
100
AcDbBlockEnd
  0
BLOCK
  5
6C
100
AcDbEntity
  8
____
100
AcDbBlockBegin
  2
*X6
 70
               1
 10
0.0
 20
0.0
 30
0.0
  3
*X6
  1

  0
LINE
  5
6D
100
AcDbEntity
  8
0
  6
CONTINUOUS
 62
              30
100
AcDbLine
 10
580.4437999999999
 20
131.430982
 30
0.0
 11
651.27841799999999
 21
202.26559999999998
 31
0.0
  0
LINE
  5
6E
100
AcDbEntity
  8
0
  6
CONTINUOUS
 62
              30
100
AcDbLine
 10
1000.2912360000003
 20
102.26560000000001
 30
0.0
 11
1030.4438
 21
132.41816399999976
 31
0.0
  0
LINE
  5
6F
100
AcDbEntity
  8
0
  6
CONTINUOUS
 62
              30
100
AcDbLine
 10
910.48867240000027
 20
102.26560000000012
 30
0.0
 11
1010.4886724000003
 21
202.26560000000001
 31
0.0
  0
LINE
  5
70
100
AcDbEntity
  8
0
  6
CONTINUOUS
 62
              30
100
AcDbLine
 10
820.68610880000017
 20
102.26560000000006
 30
0.0
 11
920.68610880000028
 21
202.26560000000012
 31
0.0
  0
LINE
  5
71
100
AcDbEntity
  8
0
  6
CONTINUOUS
 62
              30
100
AcDbLine
 10
730.88354520000007
 20
102.26560000000001
 30
0.0
 11
830.88354520000007
 21
202.26560000000001
 31
0.0
  0
LINE
  5
72
100
AcDbEntity
  8
0
  6
CONTINUOUS
 62
              30
100
AcDbLine
 10
641.08098160000009
 20
102.26560000000001
 30
0.0
 11
741.08098160000009
 21
202.26560000000006
 31
0.0
  0
ENDBLK
  5
73
100
AcDbEntity
  8
____
100
AcDbBlockEnd
  0
ENDSEC
  0
SECTION
  2
ENTITIES
  0
LINE
  5
74
100
AcDbEntity
  8
____
  6
CONTINUOUS
 62
               2
100
AcDbLine
 10
-1111.0559998603014
 20
772.26570055879347
 30
0.0
 11
-1353.5562996717083
 21
772.26570507571353
 31
0.0
  0
LINE
  5
75
100
AcDbEntity
  8
____
  6
CONTINUOUS
 62
               2
100
AcDbLine
 10
-1111.0560998603016
 20
352.2658005587935
 30
0.0
 11
-1353.5563074948161
 21
352.26580507571185
 31
0.0
  0
LINE
  5
76
100
AcDbEntity
  8
____
  6
CONTINUOUS
 62
               2
100
AcDbLine
 10
-1333.5562993923115
 20
792.26570461005224
 30
0.0
 11
-1333.5562997648406
 21
772.2657047031845
 31
0.0
  0
LINE
  5
77
100
AcDbEntity
  8
____
  6
CONTINUOUS
 62
               2
100
AcDbLine
 10
-1333.5563075879484
 20
352.26580470318282
 30
0.0
 11
-1333.5563079604774
 21
332.26580479631508
 31
0.0
  0
LINE
  5
78
100
AcDbEntity
  8
____
  6
CONTINUOUS
 62
               2
100
AcDbLine
 10
-1333.5562997648406
 20
772.2657047031845
 30
0.0
 11
-1333.5563075879484
 21
352.26580470318282
 31
0.0
  0
SOLID
  5
79
100
AcDbEntity
  8
____
 62
               2
100
AcDbTrace
 10
-1333.5562997648406
 20
772.2657047031845
 30
0.0
 11
-1331.8066332920071
 21
752.2669254063095
 31
0.0
 12
-1335.3059662376741
 22
752.2669254063095
 32
0.0
 13
-1335.3059662376741
 23
752.2669254063095
 33
0.0
  0
SOLID
  5
7A
100
AcDbEntity
  8
____
 62
               2
100
AcDbTrace
 10
-1333.5563075879484
 20
352.26580470318282
 30
0.0
 11
-1334.9566807535648
 21
372.29207397951825
 31
0.0
 12
-1331.4578807732548
 22
372.23100219869104
 32
0.0
 13
-1331.4578807732548
 23
372.23100219869104
 33
0.0
  0
MTEXT
  5
7B
100
AcDbEntity
  8
____
 62
               2
100
AcDbMText
 10
-1362.8080796478105
 20
514.95610660189402
 30
0.0
 40
16.288437109375
 41
0.0
 71
               1
 72
               1
  1
420
  7
_______
 11
0.0000000186264516
 21
0.9999999999999998
 31
0.0
  0
LINE
  5
7C
100
AcDbEntity
  8
____
  6
CONTINUOUS
 62
               2
100
AcDbLine
 10
500.44390013969837
 20
772.26570055879347
 30
0.0
 11
356.44380023655606
 21
772.2657032410043
 31
0.0
  0
LINE
  5
7D
100
AcDbEntity
  8
____
  6
CONTINUOUS
 62
               2
100
AcDbLine
 10
500.4438001396984
 20
352.26570055879353
 30
0.0
 11
356.44379241344643
 21
352.26570324100271
 31
0.0
  0
LINE
  5
7E
100
AcDbEntity
  8
____
  6
CONTINUOUS
 62
               2
100
AcDbLine
 10
376.44380051595283
 20
792.26570277534302
 30
0.0
 11
376.4438001434238
 21
772.26570286847527
 31
0.0
  0
LINE
  5
7F
100
AcDbEntity
  8
____
  6
CONTINUOUS
 62
               2
100
AcDbLine
 10
376.44379232031417
 20
352.26570286847368
 30
0.0
 11
376.44379194778514
 21
332.26570296160594
 31
0.0
  0
LINE
  5
80
100
AcDbEntity
  8
____
  6
CONTINUOUS
 62
               2
100
AcDbLine
 10
376.4438001434238
 20
772.26570286847527
 30
0.0
 11
376.44379232031417
 21
352.26570286847368
 31
0.0
  0
SOLID
  5
81
100
AcDbEntity
  8
____
 62
               2
100
AcDbTrace
 10
376.4438001434238
 20
772.26570286847527
 30
0.0
 11
378.1934666162573
 21
752.26692357160027
 31
0.0
 12
374.6941336705903
 22
752.26692357160027
 32
0.0
 13
374.6941336705903
 23
752.26692357160027
 33
0.0
  0
SOLID
  5
82
100
AcDbEntity
  8
____
 62
               2
100
AcDbTrace
 10
376.44379232031417
 20
352.26570286847368
 30
0.0
 11
375.04341915469774
 21
372.29197214480911
 31
0.0
 12
378.54221913500777
 22
372.2309003639819
 32
0.0
 13
378.54221913500777
 23
372.2309003639819
 33
0.0
  0
MTEXT
  5
83
100
AcDbEntity
  8
____
 62
               2
100
AcDbMText
 10
347.19202084596839
 20
546.39067818069827
 30
0.0
 40
16.288437109375
 41
0.0
 71
               1
 72
               1
  1
420
  7
_______
 11
0.0000000186264516
 21
0.9999999999999998
 31
0.0
  0
LINE
  5
84
100
AcDbEntity
  8
____
  6
CONTINUOUS
 62
               2
100
AcDbLine
 10
-1111.0560998603016
 20
352.2658005587935
 30
0.0
 11
-1238.7923997785908
 21
352.26580293806751
 31
0.0
  0
LINE
  5
85
100
AcDbEntity
  8
____
  6
CONTINUOUS
 62
               2
100
AcDbLine
 10
-1111.0561998603016
 20
402.26570055879353
 30
0.0
 11
-1238.7923988472701
 21
402.26570293806566
 31
0.0
  0
LINE
  5
86
100
AcDbEntity
  8
____
  6
CONTINUOUS
 62
               2
100
AcDbLine
 10
-1218.7924002442521
 20
332.26580265867074
 30
0.0
 11
-1218.7923998717231
 21
352.26580256553848
 31
0.0
  0
LINE
  5
87
100
AcDbEntity
  8
____
  6
CONTINUOUS
 62
               2
100
AcDbLine
 10
-1218.7923989404023
 20
402.26570256553663
 30
0.0
 11
-1218.7923985678733
 21
422.26570247240437
 31
0.0
  0
LINE
  5
88
100
AcDbEntity
  8
____
  6
CONTINUOUS
 62
               2
100
AcDbLine
 10
-1218.7923998717231
 20
352.26580256553848
 30
0.0
 11
-1218.7923989404023
 21
402.26570256553663
 31
0.0
  0
SOLID
  5
89
100
AcDbEntity
  8
____
 62
               2
100
AcDbTrace
 10
-1218.7923998717231
 20
352.26580256553848
 30
0.0
 11
-1220.1927730373395
 21
372.29207184187391
 31
0.0
 12
-1216.6939730570296
 22
372.2310000610467
 32
0.0
 13
-1216.6939730570296
 23
372.2310000610467
 33
0.0
  0
SOLID
  5
8A
100
AcDbEntity
  8
____
 62
               2
100
AcDbTrace
 10
-1218.7923989404023
 20
402.26570256553663
 30
0.0
 11
-1217.0427324675688
 21
382.26692326866163
 31
0.0
 12
-1220.5420654132358
 22
382.26692326866163
 32
0.0
 13
-1220.5420654132358
 23
382.26692326866163
 33
0.0
  0
MTEXT
  5
8B
100
AcDbEntity
  8
____
 62
               2
100
AcDbMText
 10
-1248.0441746933984
 20
366.68240295530569
 30
0.0
 40
16.288437109375
 41
0.0
 71
               1
 72
               1
  1
50
  7
_______
 11
0.0000000186264516
 21
0.9999999999999998
 31
0.0
  0
LINE
  5
8C
100
AcDbEntity
  8
____
  6
CONTINUOUS
 62
               2
100
AcDbLine
 10
-1111.0561998603016
 20
402.26570055879353
 30
0.0
 11
-1238.7924997785908
 21
402.26570293806753
 31
0.0
  0
LINE
  5
8D
100
AcDbEntity
  8
____
  6
CONTINUOUS
 62
               2
100
AcDbLine
 10
-1111.0560998603016
 20
672.26570055879347
 30
0.0
 11
-1238.7924947494489
 21
672.26570293806924
 31
0.0
  0
LINE
  5
8E
100
AcDbEntity
  8
____
  6
CONTINUOUS
 62
               2
100
AcDbLine
 10
-1218.7925002442521
 20
382.26570265867076
 30
0.0
 11
-1218.7924998717231
 21
402.2657025655385
 31
0.0
  0
LINE
  5
8F
100
AcDbEntity
  8
____
  6
CONTINUOUS
 62
               2
100
AcDbLine
 10
-1218.7924948425812
 20
672.26570256554021
 30
0.0
 11
-1218.7924944700521
 21
692.26570247240795
 31
0.0
  0
LINE
  5
90
100
AcDbEntity
  8
____
  6
CONTINUOUS
 62
               2
100
AcDbLine
 10
-1218.7924998717231
 20
402.2657025655385
 30
0.0
 11
-1218.7924948425812
 21
672.26570256554021
 31
0.0
  0
SOLID
  5
91
100
AcDbEntity
  8
____
 62
               2
100
AcDbTrace
 10
-1218.7924998717231
 20
402.2657025655385
 30
0.0
 11
-1220.1928730373395
 21
422.29197184187393
 31
0.0
 12
-1216.6940730570295
 22
422.23090006104673
 32
0.0
 13
-1216.6940730570295
 23
422.23090006104673
 33
0.0
  0
SOLID
  5
92
100
AcDbEntity
  8
____
 62
               2
100
AcDbTrace
 10
-1218.7924948425812
 20
672.26570256554021
 30
0.0
 11
-1217.0428283697477
 21
652.26692326866521
 31
0.0
 12
-1220.5421613154147
 22
652.26692326866521
 32
0.0
 13
-1220.5421613154147
 23
652.26692326866521
 33
0.0
  0
MTEXT
  5
93
100
AcDbEntity
  8
____
 62
               2
100
AcDbMText
 10
-1248.0442727430527
 20
521.39067787776332
 30
0.0
 40
16.288437109375
 41
0.0
 71
               1
 72
               1
  1
270
  7
_______
 11
0.0000000186264516
 21
0.9999999999999998
 31
0.0
  0
LINE
  5
94
100
AcDbEntity
  8
____
  6
CONTINUOUS
 62
               2
100
AcDbLine
 10
-1111.0560998603016
 20
672.26570055879347
 30
0.0
 11
-1238.7924997785908
 21
672.26570293806935
 31
0.0
  0
LINE
  5
95
100
AcDbEntity
  8
____
  6
CONTINUOUS
 62
               2
100
AcDbLine
 10
-1111.0560998603016
 20
722.26560055879349
 30
0.0
 11
-1238.7924988472701
 21
722.26560293806938
 31
0.0
  0
LINE
  5
96
100
AcDbEntity
  8
____
  6
CONTINUOUS
 62
               2
100
AcDbLine
 10
-1218.7925002442521
 20
652.26570265867258
 30
0.0
 11
-1218.7924998717231
 21
672.26570256554032
 31
0.0
  0
LINE
  5
97
100
AcDbEntity
  8
____
  6
CONTINUOUS
 62
               2
100
AcDbLine
 10
-1218.7924989404023
 20
722.26560256554035
 30
0.0
 11
-1218.7924985678733
 21
742.26560247240809
 31
0.0
  0
LINE
  5
98
100
AcDbEntity
  8
____
  6
CONTINUOUS
 62
               2
100
AcDbLine
 10
-1218.7924998717231
 20
672.26570256554032
 30
0.0
 11
-1218.7924989404023
 21
722.26560256554035
 31
0.0
  0
SOLID
  5
99
100
AcDbEntity
  8
____
 62
               2
100
AcDbTrace
 10
-1218.7924998717231
 20
672.26570256554032
 30
0.0
 11
-1220.1928730373395
 21
692.29197184187569
 31
0.0
 12
-1216.6940730570295
 22
692.2309000610486
 32
0.0
 13
-1216.6940730570295
 23
692.2309000610486
 33
0.0
  0
SOLID
  5
9A
100
AcDbEntity
  8
____
 62
               2
100
AcDbTrace
 10
-1218.7924989404023
 20
722.26560256554035
 30
0.0
 11
-1217.0428324675688
 21
702.26682326866535
 31
0.0
 12
-1220.5421654132358
 22
702.26682326866535
 32
0.0
 13
-1220.5421654132358
 23
702.26682326866535
 33
0.0
  0
MTEXT
  5
9B
100
AcDbEntity
  8
____
 62
               2
100
AcDbMText
 10
-1248.044275083713
 20
665.72744983803273
 30
0.0
 40
16.288437109375
 41
0.0
 71
               1
 72
               1
  1
50
  7
_______
 11
0.0000000186264516
 21
0.9999999999999998
 31
0.0
  0
LINE
  5
9C
100
AcDbEntity
  8
____
  6
CONTINUOUS
 62
               2
100
AcDbLine
 10
-1111.0560998603016
 20
722.26560055879349
 30
0.0
 11
-1238.7923997785908
 21
722.26560293806745
 31
0.0
  0
LINE
  5
9D
100
AcDbEntity
  8
____
  6
CONTINUOUS
 62
               2
100
AcDbLine
 10
-1111.0560998603016
 20
747.26570055879347
 30
0.0
 11
-1238.7923993129277
 21
747.26570293806742
 31
0.0
  0
LINE
  5
9E
100
AcDbEntity
  8
____
  6
CONTINUOUS
 62
               2
100
AcDbLine
 10
-1218.7924002442521
 20
702.26560265867067
 30
0.0
 11
-1218.7923998717231
 21
722.26560256553842
 31
0.0
  0
LINE
  5
9F
100
AcDbEntity
  8
____
  6
CONTINUOUS
 62
               2
100
AcDbLine
 10
-1218.79239940606
 20
747.26570256553839
 30
0.0
 11
-1218.792399033531
 21
767.26570247240613
 31
0.0
  0
LINE
  5
A0
100
AcDbEntity
  8
____
  6
CONTINUOUS
 62
               2
100
AcDbLine
 10
-1218.7923998717231
 20
722.26560256553842
 30
0.0
 11
-1218.79239940606
 21
747.26570256553839
 31
0.0
  0
SOLID
  5
A1
100
AcDbEntity
  8
____
 62
               2
100
AcDbTrace
 10
-1218.7923998717231
 20
722.26560256553842
 30
0.0
 11
-1220.1927730373395
 21
742.29187184187379
 31
0.0
 12
-1216.6939730570296
 22
742.23080006104669
 32
0.0
 13
-1216.6939730570296
 23
742.23080006104669
 33
0.0
  0
SOLID
  5
A2
100
AcDbEntity
  8
____
 62
               2
100
AcDbTrace
 10
-1218.79239940606
 20
747.26570256553839
 30
0.0
 11
-1217.0427329332265
 21
727.26692326866339
 31
0.0
 12
-1220.5420658788935
 22
727.26692326866339
 32
0.0
 13
-1220.5420658788935
 23
727.26692326866339
 33
0.0
  0
MTEXT
  5
A3
100
AcDbEntity
  8
____
 62
               2
100
AcDbMText
 10
-1248.0441751590588
 20
711.68225295530658
 30
0.0
 40
16.288437109375
 41
0.0
 71
               1
 72
               1
  1
25
  7
_______
 11
0.0000000186264516
 21
0.9999999999999998
 31
0.0
  0
LINE
  5
A4
100
AcDbEntity
  8
____
  6
CONTINUOUS
 62
               2
100
AcDbLine
 10
-1081.0561005587936
 20
-895.23429986030158
 30
0.0
 11
-1081.0561030733645
 21
-1030.234299771826
 31
0.0
  0
LINE
  5
A5
100
AcDbEntity
  8
____
  6
CONTINUOUS
 62
               2
100
AcDbLine
 10
-631.05620055879353
 20
-895.23429986030158
 30
0.0
 11
-631.0562030733646
 21
-1030.2343081537274
 31
0.0
  0
LINE
  5
A6
100
AcDbEntity
  8
____
  6
CONTINUOUS
 62
               2
100
AcDbLine
 10
-1101.0561026077032
 20
-1010.2342994924292
 30
0.0
 11
-1081.0561027008355
 21
-1010.2342998649582
 31
0.0
  0
LINE
  5
A7
100
AcDbEntity
  8
____
  6
CONTINUOUS
 62
               2
100
AcDbLine
 10
-631.05620270083557
 20
-1010.2343082468595
 30
0.0
 11
-611.05620279396783
 21
-1010.2343086193886
 31
0.0
  0
LINE
  5
A8
100
AcDbEntity
  8
____
  6
CONTINUOUS
 62
               2
100
AcDbLine
 10
-1081.0561027008355
 20
-1010.2342998649582
 30
0.0
 11
-631.05620270083557
 21
-1010.2343082468595
 31
0.0
  0
SOLID
  5
A9
100
AcDbEntity
  8
____
 62
               2
100
AcDbTrace
 10
-1081.0561027008355
 20
-1010.2342998649582
 30
0.0
 11
-1061.0573234039605
 21
-1008.4846333921247
 31
0.0
 12
-1061.0573234039605
 22
-1011.9839663377917
 32
0.0
 13
-1061.0573234039605
 23
-1011.9839663377917
 33
0.0
  0
SOLID
  5
AA
100
AcDbEntity
  8
____
 62
               2
100
AcDbTrace
 10
-631.05620270083557
 20
-1010.2343082468595
 30
0.0
 11
-651.08247197717094
 21
-1011.634681412476
 31
0.0
 12
-651.02140019634385
 22
-1008.1358814321659
 32
0.0
 13
-651.02140019634385
 23
-1008.1358814321659
 33
0.0
  0
MTEXT
  5
AB
100
AcDbEntity
  8
____
 62
               2
100
AcDbMText
 10
-871.93117738861179
 20
-980.98252867000826
 30
0.0
 40
16.288437109375
 41
0.0
 71
               1
 72
               1
  1
450
  7
_______
 11
0.9999999999999998
 21
-0.0000000186264517
 31
0.0
  0
LINE
  5
AC
100
AcDbEntity
  8
____
  6
CONTINUOUS
 62
               2
100
AcDbLine
 10
980.44370055879347
 20
809.26559986030156
 30
0.0
 11
980.44370368803732
 21
977.26559974109227
 31
0.0
  0
LINE
  5
AD
100
AcDbEntity
  8
____
  6
CONTINUOUS
 62
               2
100
AcDbLine
 10
530.44370055879347
 20
812.26569986030154
 30
0.0
 11
530.44370363215626
 21
977.26560812299545
 31
0.0
  0
LINE
  5
AE
100
AcDbEntity
  8
____
  6
CONTINUOUS
 62
               2
100
AcDbLine
 10
1000.443703222376
 20
957.2655994616955
 30
0.0
 11
980.44370331550829
 21
957.26559983422453
 31
0.0
  0
LINE
  5
AF
100
AcDbEntity
  8
____
  6
CONTINUOUS
 62
               2
100
AcDbLine
 10
530.44370325962723
 20
957.2656082161277
 30
0.0
 11
510.44370335275948
 21
957.26560858865673
 31
0.0
  0
LINE
  5
B0
100
AcDbEntity
  8
____
  6
CONTINUOUS
 62
               2
100
AcDbLine
 10
980.44370331550829
 20
957.26559983422453
 30
0.0
 11
530.44370325962723
 21
957.2656082161277
 31
0.0
  0
SOLID
  5
B1
100
AcDbEntity
  8
____
 62
               2
100
AcDbTrace
 10
980.44370331550829
 20
957.26559983422453
 30
0.0
 11
960.41743403917292
 21
955.8652266686081
 31
0.0
 12
960.47850582000001
 22
959.36402664891818
 32
0.0
 13
960.47850582000001
 23
959.36402664891818
 33
0.0
  0
SOLID
  5
B2
100
AcDbEntity
  8
____
 62
               2
100
AcDbTrace
 10
530.44370325962723
 20
957.2656082161277
 30
0.0
 11
550.44248255650223
 21
959.0152746889612
 31
0.0
 12
550.44248255650223
 22
955.51594174329421
 32
0.0
 13
550.44248255650223
 23
955.51594174329421
 33
0.0
  0
MTEXT
  5
B3
100
AcDbEntity
  8
____
 62
               2
100
AcDbMText
 10
739.56867901888666
 20
986.51737941107672
 30
0.0
 40
16.288437109375
 41
0.0
 71
               1
 72
               1
  1
450
  7
_______
 11
0.9999999999999998
 21
-0.0000000186264517
 31
0.0
  0
LINE
  5
B4
100
AcDbEntity
  8
____
  6
CONTINUOUS
 62
               2
100
AcDbLine
 10
600.44380013969828
 20
352.26560055879349
 30
0.0
 11
460.44370023283068
 21
352.26560316649858
 31
0.0
  0
LINE
  5
B5
100
AcDbEntity
  8
____
  6
CONTINUOUS
 62
               2
100
AcDbLine
 10
600.44370013969831
 20
402.26560055879349
 30
0.0
 11
460.44370116415325
 21
402.2656031664967
 31
0.0
  0
LINE
  5
B6
100
AcDbEntity
  8
____
  6
CONTINUOUS
 62
               2
100
AcDbLine
 10
480.44369976716939
 20
332.26560288710181
 30
0.0
 11
480.44370013969842
 21
352.26560279396955
 31
0.0
  0
LINE
  5
B7
100
AcDbEntity
  8
____
  6
CONTINUOUS
 62
               2
100
AcDbLine
 10
480.443701071021
 20
402.26560279396767
 30
0.0
 11
480.44370144355003
 21
422.26560270083542
 31
0.0
  0
LINE
  5
B8
100
AcDbEntity
  8
____
  6
CONTINUOUS
 62
               2
100
AcDbLine
 10
480.44370013969842
 20
352.26560279396955
 30
0.0
 11
480.443701071021
 21
402.26560279396767
 31
0.0
  0
SOLID
  5
B9
100
AcDbEntity
  8
____
 62
               2
100
AcDbTrace
 10
480.44370013969842
 20
352.26560279396955
 30
0.0
 11
479.04332697408199
 21
372.29187207030498
 31
0.0
 12
482.54212695439202
 22
372.23080028947777
 32
0.0
 13
482.54212695439202
 23
372.23080028947777
 33
0.0
  0
SOLID
  5
BA
100
AcDbEntity
  8
____
 62
               2
100
AcDbTrace
 10
480.443701071021
 20
402.26560279396767
 30
0.0
 11
482.19336754385449
 21
382.26682349709267
 31
0.0
 12
478.6940345981875
 22
382.26682349709267
 32
0.0
 13
478.6940345981875
 23
382.26682349709267
 33
0.0
  0
MTEXT
  5
BB
100
AcDbEntity
  8
____
 62
               2
100
AcDbMText
 10
451.19192531802423
 20
366.68225318373669
 30
0.0
 40
16.288437109375
 41
0.0
 71
               1
 72
               1
  1
50
  7
_______
 11
0.0000000186264516
 21
0.9999999999999998
 31
0.0
  0
LINE
  5
BC
100
AcDbEntity
  8
____
  6
CONTINUOUS
 62
               2
100
AcDbLine
 10
600.44370013969831
 20
402.26560055879349
 30
0.0
 11
460.4436002328307
 21
402.26560316649858
 31
0.0
  0
LINE
  5
BD
100
AcDbEntity
  8
____
  6
CONTINUOUS
 62
               2
100
AcDbLine
 10
500.4438001396984
 20
672.26560055879349
 30
0.0
 11
460.44360526197255
 21
672.26560130385519
 31
0.0
  0
LINE
  5
BE
100
AcDbEntity
  8
____
  6
CONTINUOUS
 62
               2
100
AcDbLine
 10
480.44359976716942
 20
382.26560288710181
 30
0.0
 11
480.44360013969845
 21
402.26560279396955
 31
0.0
  0
LINE
  5
BF
100
AcDbEntity
  8
____
  6
CONTINUOUS
 62
               2
100
AcDbLine
 10
480.44360516884029
 20
672.26560093132616
 30
0.0
 11
480.44360554136932
 21
692.2656008381939
 31
0.0
  0
LINE
  5
C0
100
AcDbEntity
  8
____
  6
CONTINUOUS
 62
               2
100
AcDbLine
 10
480.44360013969845
 20
402.26560279396955
 30
0.0
 11
480.44360516884029
 21
672.26560093132616
 31
0.0
  0
SOLID
  5
C1
100
AcDbEntity
  8
____
 62
               2
100
AcDbTrace
 10
480.44360013969845
 20
402.26560279396955
 30
0.0
 11
479.04322697408202
 21
422.29187207030498
 31
0.0
 12
482.54202695439204
 22
422.23080028947777
 32
0.0
 13
482.54202695439204
 23
422.23080028947777
 33
0.0
  0
SOLID
  5
C2
100
AcDbEntity
  8
____
 62
               2
100
AcDbTrace
 10
480.44360516884029
 20
672.26560093132616
 30
0.0
 11
482.19327164167379
 21
652.26682163445116
 31
0.0
 12
478.6939386960068
 22
652.26682163445116
 32
0.0
 13
478.6939386960068
 23
652.26682163445116
 33
0.0
  0
MTEXT
  5
C3
100
AcDbEntity
  8
____
 62
               2
100
AcDbMText
 10
451.1918272683688
 20
521.39057717487174
 30
0.0
 40
16.288437109375
 41
0.0
 71
               1
 72
               1
  1
270
  7
_______
 11
0.0000000186264516
 21
0.9999999999999998
 31
0.0
  0
LINE
  5
C4
100
AcDbEntity
  8
____
  6
CONTINUOUS
 62
               2
100
AcDbLine
 10
500.4438001396984
 20
672.26560055879349
 30
0.0
 11
460.4438001396984
 21
672.26560130385155
 31
0.0
  0
LINE
  5
C5
100
AcDbEntity
  8
____
  6
CONTINUOUS
 62
               2
100
AcDbLine
 10
500.4438001396984
 20
722.26560055879349
 30
0.0
 11
460.44380107102097
 21
722.26560130385155
 31
0.0
  0
LINE
  5
C6
100
AcDbEntity
  8
____
  6
CONTINUOUS
 62
               2
100
AcDbLine
 10
480.44379967403711
 20
652.26560102445478
 30
0.0
 11
480.44380004656614
 21
672.26560093132252
 31
0.0
  0
LINE
  5
C7
100
AcDbEntity
  8
____
  6
CONTINUOUS
 62
               2
100
AcDbLine
 10
480.44380097788871
 20
722.26560093132252
 30
0.0
 11
480.44380135041774
 21
742.26560083819027
 31
0.0
  0
LINE
  5
C8
100
AcDbEntity
  8
____
  6
CONTINUOUS
 62
               2
100
AcDbLine
 10
480.44380004656614
 20
672.26560093132252
 30
0.0
 11
480.44380097788871
 21
722.26560093132252
 31
0.0
  0
SOLID
  5
C9
100
AcDbEntity
  8
____
 62
               2
100
AcDbTrace
 10
480.44380004656614
 20
672.26560093132252
 30
0.0
 11
479.04342688094971
 21
692.29187020765789
 31
0.0
 12
482.54222686125973
 22
692.2307984268308
 32
0.0
 13
482.54222686125973
 23
692.2307984268308
 33
0.0
  0
SOLID
  5
CA
100
AcDbEntity
  8
____
 62
               2
100
AcDbTrace
 10
480.44380097788871
 20
722.26560093132252
 30
0.0
 11
482.19346745072221
 21
702.26682163444752
 31
0.0
 12
478.69413450505522
 22
702.26682163444752
 32
0.0
 13
478.69413450505522
 23
702.26682163444752
 33
0.0
  0
MTEXT
  5
CB
100
AcDbEntity
  8
____
 62
               2
100
AcDbMText
 10
451.19202475923066
 20
661.68225132109069
 30
0.0
 40
16.288437109375
 41
0.0
 71
               1
 72
               1
  1
50
  7
_______
 11
0.0000000186264516
 21
0.9999999999999998
 31
0.0
  0
LINE
  5
CC
100
AcDbEntity
  8
____
  6
CONTINUOUS
 62
               2
100
AcDbLine
 10
500.4438001396984
 20
722.26560055879349
 30
0.0
 11
460.4438001396984
 21
722.26560130385155
 31
0.0
  0
LINE
  5
CD
100
AcDbEntity
  8
____
  6
CONTINUOUS
 62
               2
100
AcDbLine
 10
509.19530013969836
 20
747.23450055879346
 30
0.0
 11
460.44380060478039
 21
747.23450146686093
 31
0.0
  0
LINE
  5
CE
100
AcDbEntity
  8
____
  6
CONTINUOUS
 62
               2
100
AcDbLine
 10
480.44379967403711
 20
702.26560102445478
 30
0.0
 11
480.44380004656614
 21
722.26560093132252
 31
0.0
  0
LINE
  5
CF
100
AcDbEntity
  8
____
  6
CONTINUOUS
 62
               2
100
AcDbLine
 10
480.44380051164813
 20
747.2345010943319
 30
0.0
 11
480.44380088417716
 21
767.23450100119965
 31
0.0
  0
LINE
  5
D0
100
AcDbEntity
  8
____
  6
CONTINUOUS
 62
               2
100
AcDbLine
 10
480.44380004656614
 20
722.26560093132252
 30
0.0
 11
480.44380051164813
 21
747.2345010943319
 31
0.0
  0
SOLID
  5
D1
100
AcDbEntity
  8
____
 62
               2
100
AcDbTrace
 10
480.44380004656614
 20
722.26560093132252
 30
0.0
 11
479.04342688094971
 21
742.29187020765789
 31
0.0
 12
482.54222686125973
 22
742.2307984268308
 32
0.0
 13
482.54222686125973
 23
742.2307984268308
 33
0.0
  0
SOLID
  5
D2
100
AcDbEntity
  8
____
 62
               2
100
AcDbTrace
 10
480.44380051164813
 20
747.2345010943319
 30
0.0
 11
482.19346698448163
 21
727.2357217974569
 31
0.0
 12
478.69413403881464
 22
727.2357217974569
 32
0.0
 13
478.69413403881464
 23
727.2357217974569
 33
0.0
  0
MTEXT
  5
D3
100
AcDbEntity
  8
____
 62
               2
100
AcDbMText
 10
451.19202485178437
 20
716.65119045865492
 30
0.0
 40
16.288437109375
 41
0.0
 71
               1
 72
               1
  1
25
  7
_______
 11
0.0000000186264516
 21
0.9999999999999998
 31
0.0
  0
LINE
  5
D4
100
AcDbEntity
  8
____
  6
CONTINUOUS
 62
               2
100
AcDbLine
 10
509.19530013969836
 20
747.23450055879346
 30
0.0
 11
460.44380071421358
 21
747.23450146686093
 31
0.0
  0
LINE
  5
D5
100
AcDbEntity
  8
____
  6
CONTINUOUS
 62
               2
100
AcDbLine
 10
499.2150001396983
 20
772.23550055879343
 30
0.0
 11
460.44380117989351
 21
772.23550128096326
 31
0.0
  0
LINE
  5
D6
100
AcDbEntity
  8
____
  6
CONTINUOUS
 62
               2
100
AcDbLine
 10
480.44380024855229
 20
727.23450118746416
 30
0.0
 11
480.44380062108132
 21
747.2345010943319
 31
0.0
  0
LINE
  5
D7
100
AcDbEntity
  8
____
  6
CONTINUOUS
 62
               2
100
AcDbLine
 10
480.44380108676125
 20
772.23550090843423
 30
0.0
 11
480.44380145929028
 21
792.23550081530198
 31
0.0
  0
LINE
  5
D8
100
AcDbEntity
  8
____
  6
CONTINUOUS
 62
               2
100
AcDbLine
 10
480.44380062108132
 20
747.2345010943319
 30
0.0
 11
480.44380108676125
 21
772.23550090843423
 31
0.0
  0
SOLID
  5
D9
100
AcDbEntity
  8
____
 62
               2
100
AcDbTrace
 10
480.44380062108132
 20
747.2345010943319
 30
0.0
 11
479.04342745546489
 21
767.26077037066727
 31
0.0
 12
482.54222743577492
 22
767.19969858984018
 32
0.0
 13
482.54222743577492
 23
767.19969858984018
 33
0.0
  0
SOLID
  5
DA
100
AcDbEntity
  8
____
 62
               2
100
AcDbTrace
 10
480.44380108676125
 20
772.23550090843423
 30
0.0
 11
482.19346755959475
 21
752.23672161155923
 31
0.0
 12
478.69413461392776
 22
752.23672161155923
 32
0.0
 13
478.69413461392776
 23
752.23672161155923
 33
0.0
  0
MTEXT
  5
DB
100
AcDbEntity
  8
____
 62
               2
100
AcDbMText
 10
451.19202556658581
 20
749.15165136786732
 30
0.0
 40
16.288437109375
 41
0.0
 71
               1
 72
               1
  1
25
  7
_______
 11
0.0000000186264516
 21
0.9999999999999998
 31
0.0
  0
MTEXT
  5
DC
100
AcDbEntity
  8
____
 62
               2
100
AcDbMText
 10
-507.19730003566815
 20
-535.28468694329433
 30
0.0
 40
16.288411458333332
 41
0.0
 71
               1
 72
               1
  1
ESW145×25M塗装
  7
_______
 11
0.9999999999999998
 21
-0.0000000186264517
 31
0.0
  0
LINE
  5
DD
100
AcDbEntity
  8
____
  6
CONTINUOUS
 62
               2
100
AcDbLine
 10
-341.99999999999994
 20
-562.80499790363433
 30
0.0
 11
-515.1973999999999
 21
-562.80509999999992
 31
0.0
  0
LINE
  5
DE
100
AcDbEntity
  8
____
  6
CONTINUOUS
 62
               2
100
AcDbLine
 10
-515.1973999999999
 20
-562.80509999999992
 30
0.0
 11
-630.19729999999993
 21
-677.80499999999995
 31
0.0
  0
MTEXT
  5
DF
100
AcDbEntity
  8
____
 62
               2
100
AcDbMText
 10
-595.05640003566816
 20
1032.5136381311131
 30
0.0
 40
16.288411458333332
 41
0.0
 71
               1
 72
               1
  1
ESW145×25M塗装
  7
_______
 11
0.9999999999999998
 21
-0.0000000186264517
 31
0.0
  0
LINE
  5
E0
100
AcDbEntity
  8
____
  6
CONTINUOUS
 62
               2
100
AcDbLine
 10
-432.0
 20
1007.1523999999999
 30
0.0
 11
-603.54669999999999
 21
1007.1523999999999
 31
0.0
  0
LINE
  5
E1
100
AcDbEntity
  8
____
  6
CONTINUOUS
 62
               2
100
AcDbLine
 10
-603.54669999999999
 20
1007.1523999999999
 30
0.0
 11
-788.13099999999997
 21
772.20899999999995
 31
0.0
  0
MTEXT
  5
E2
100
AcDbEntity
  8
____
 62
               2
100
AcDbMText
 10
-565.41870003566817
 20
920.10006177807929
 30
0.0
 40
16.288437109375
 41
0.0
 71
               1
 72
               1
  1
□-50×25×2 AL
  7
_______
 11
0.9999999999999998
 21
-0.0000000186264517
 31
0.0
  0
LINE
  5
E3
100
AcDbEntity
  8
____
  6
CONTINUOUS
 62
               2
100
AcDbLine
 10
-569.87639999999999
 20
892.80829999999992
 30
0.0
 11
-400.0
 21
892.80829999999992
 31
0.0
  0
MTEXT
  5
E4
100
AcDbEntity
  8
____
 62
               2
100
AcDbMText
 10
1104.0513999643315
 20
678.22647510937497
 30
0.0
 40
16.288437109375
 41
0.0
 71
               1
 72
               1
  1
コンクリート
  7
_______
 11
0.9999999999999998
 21
-0.0000000186264517
 31
0.0
  0
LINE
  5
E5
100
AcDbEntity
  8
____
  6
CONTINUOUS
 62
               2
100
AcDbLine
 10
1234.4437999999998
 20
647.26569999999992
 30
0.0
 11
1100.4438
 21
647.26569999999992
 31
0.0
  0
MTEXT
  5
E6
100
AcDbEntity
  8
____
 62
               2
100
AcDbMText
 10
-479.07120003566826
 20
664.37917510937496
 30
0.0
 40
16.288437109375
 41
0.0
 71
               1
 72
               1
  1
コンクリート
  7
_______
 11
0.9999999999999998
 21
-0.0000000186264517
 31
0.0
  0
LINE
  5
E7
100
AcDbEntity
  8
____
  6
CONTINUOUS
 62
               2
100
AcDbLine
 10
-341.55629999999996
 20
634.69479999999999
 30
0.0
 11
-485.32089999999994
 21
634.69489999999996
 31
0.0
  0
LINE
  5
E8
100
AcDbEntity
  8
____
  6
CONTINUOUS
 62
               2
100
AcDbLine
 10
-1111.0560998603016
 20
-415.23419944120644
 30
0.0
 11
-1234.5560997825362
 21
-415.23419714083968
 31
0.0
  0
LINE
  5
E9
100
AcDbEntity
  8
____
  6
CONTINUOUS
 62
               2
100
AcDbLine
 10
-1111.0560998603016
 20
-865.23429944120642
 30
0.0
 11
-1234.5561081644412
 21
-865.23429714083954
 31
0.0
  0
LINE
  5
EA
100
AcDbEntity
  8
____
  6
CONTINUOUS
 62
               2
100
AcDbLine
 10
-1214.5560995031394
 20
-395.23419760650097
 30
0.0
 11
-1214.5560998756685
 21
-415.23419751336871
 31
0.0
  0
LINE
  5
EB
100
AcDbEntity
  8
____
  6
CONTINUOUS
 62
               2
100
AcDbLine
 10
-1214.5561082575734
 20
-865.23429751336857
 30
0.0
 11
-1214.5561086301025
 21
-885.23429742023632
 31
0.0
  0
LINE
  5
EC
100
AcDbEntity
  8
____
  6
CONTINUOUS
 62
               2
100
AcDbLine
 10
-1214.5560998756685
 20
-415.23419751336871
 30
0.0
 11
-1214.5561082575734
 21
-865.23429751336857
 31
0.0
  0
SOLID
  5
ED
100
AcDbEntity
  8
____
 62
               2
100
AcDbTrace
 10
-1214.5560998756685
 20
-415.23419751336871
 30
0.0
 11
-1212.806433402835
 21
-435.23297681024371
 31
0.0
 12
-1216.3057663485019
 22
-435.23297681024371
 32
0.0
 13
-1216.3057663485019
 23
-435.23297681024371
 33
0.0
  0
SOLID
  5
EE
100
AcDbEntity
  8
____
 62
               2
100
AcDbTrace
 10
-1214.5561082575734
 20
-865.23429751336857
 30
0.0
 11
-1215.9564814231899
 21
-845.2080282370332
 31
0.0
 12
-1212.4576814428799
 22
-845.2691000178603
 32
0.0
 13
-1212.4576814428799
 23
-845.2691000178603
 33
0.0
  0
MTEXT
  5
EF
100
AcDbEntity
  8
____
 62
               2
100
AcDbMText
 10
-1243.8078798428653
 20
-677.06569729843511
 30
0.0
 40
16.288437109375
 41
0.0
 71
               1
 72
               1
  1
450
  7
_______
 11
0.0000000186264516
 21
0.9999999999999998
 31
0.0
  0
LINE
  5
F0
100
AcDbEntity
  8
____
  6
CONTINUOUS
 62
               2
100
AcDbLine
 10
-1111.0559998603014
 20
772.26570055879347
 30
0.0
 11
-1238.7923997785906
 21
772.26570293806935
 31
0.0
  0
LINE
  5
F1
100
AcDbEntity
  8
____
  6
CONTINUOUS
 62
               2
100
AcDbLine
 10
-1111.0560998603016
 20
794.10440055879349
 30
0.0
 11
-1238.7923993718132
 21
794.10440293806744
 31
0.0
  0
LINE
  5
F2
100
AcDbEntity
  8
____
  6
CONTINUOUS
 62
               2
100
AcDbLine
 10
-1218.7924002442519
 20
752.26570265867258
 30
0.0
 11
-1218.7923998717229
 21
772.26570256554032
 31
0.0
  0
LINE
  5
F3
100
AcDbEntity
  8
____
  6
CONTINUOUS
 62
               2
100
AcDbLine
 10
-1218.7923994649454
 20
794.10440256553841
 30
0.0
 11
-1218.7923990924164
 21
814.10440247240615
 31
0.0
  0
LINE
  5
F4
100
AcDbEntity
  8
____
  6
CONTINUOUS
 62
               2
100
AcDbLine
 10
-1218.7923994649454
 20
794.10440256553841
 30
0.0
 11
-1218.7923988844204
 21
825.27110284668947
 31
0.0
  0
LINE
  5
F5
100
AcDbEntity
  8
____
  6
CONTINUOUS
 62
               2
100
AcDbLine
 10
-1218.7923998717229
 20
772.26570256554032
 30
0.0
 11
-1218.7923994649454
 21
794.10440256553841
 31
0.0
  0
SOLID
  5
F6
100
AcDbEntity
  8
____
 62
               2
100
AcDbTrace
 10
-1218.7923998717229
 20
772.26570256554032
 30
0.0
 11
-1220.1927730373393
 21
792.29197184187569
 31
0.0
 12
-1216.6939730570293
 22
792.2309000610486
 32
0.0
 13
-1216.6939730570293
 23
792.2309000610486
 33
0.0
  0
SOLID
  5
F7
100
AcDbEntity
  8
____
 62
               2
100
AcDbTrace
 10
-1218.7923994649454
 20
794.10440256553841
 30
0.0
 11
-1217.042732992112
 21
774.10562326866341
 31
0.0
 12
-1220.5420659377789
 22
774.10562326866341
 32
0.0
 13
-1220.5420659377789
 23
774.10562326866341
 33
0.0
  0
MTEXT
  5
F8
100
AcDbEntity
  8
____
 62
               2
100
AcDbMText
 10
-1248.0441743688864
 20
804.10440309122544
 30
0.0
 40
16.288437109375
 41
0.0
 71
               1
 72
               1
  1
22
  7
_______
 11
0.0000000186264516
 21
0.9999999999999998
 31
0.0
  0
LINE
  5
F9
100
AcDbEntity
  8
____
  6
CONTINUOUS
 62
               2
100
AcDbLine
 10
499.2150001396983
 20
772.23550055879343
 30
0.0
 11
460.44380013855391
 21
772.23550128096326
 31
0.0
  0
LINE
  5
FA
100
AcDbEntity
  8
____
  6
CONTINUOUS
 62
               2
100
AcDbLine
 10
499.2150001396983
 20
794.10430055879351
 30
0.0
 11
460.44380054589203
 21
794.10430128096334
 31
0.0
  0
LINE
  5
FB
100
AcDbEntity
  8
____
  6
CONTINUOUS
 62
               2
100
AcDbLine
 10
480.44379967289262
 20
752.23550100156649
 30
0.0
 11
480.44380004542165
 21
772.23550090843423
 31
0.0
  0
LINE
  5
FC
100
AcDbEntity
  8
____
  6
CONTINUOUS
 62
               2
100
AcDbLine
 10
480.44380045275977
 20
794.10430090843431
 30
0.0
 11
480.4438008252888
 21
814.10430081530205
 31
0.0
  0
LINE
  5
FD
100
AcDbEntity
  8
____
  6
CONTINUOUS
 62
               2
100
AcDbLine
 10
480.44380045275977
 20
794.10430090843431
 30
0.0
 11
480.44380103328479
 21
825.27100118958538
 31
0.0
  0
LINE
  5
FE
100
AcDbEntity
  8
____
  6
CONTINUOUS
 62
               2
100
AcDbLine
 10
480.44380004542165
 20
772.23550090843423
 30
0.0
 11
480.44380045275977
 21
794.10430090843431
 31
0.0
  0
SOLID
  5
FF
100
AcDbEntity
  8
____
 62
               2
100
AcDbTrace
 10
480.44380004542165
 20
772.23550090843423
 30
0.0
 11
479.04342687980522
 21
792.2617701847696
 31
0.0
 12
482.54222686011525
 22
792.20069840394251
 32
0.0
 13
482.54222686011525
 23
792.20069840394251
 33
0.0
  0
SOLID
  5
100
100
AcDbEntity
  8
____
 62
               2
100
AcDbTrace
 10
480.44380045275977
 20
794.10430090843431
 30
0.0
 11
482.19346692559327
 21
774.10552161155931
 31
0.0
 12
478.69413397992628
 22
774.10552161155931
 32
0.0
 13
478.69413397992628
 23
774.10552161155931
 33
0.0
  0
MTEXT
  5
101
100
AcDbEntity
  8
____
 62
               2
100
AcDbMText
 10
451.19202554881906
 20
804.10430143412134
 30
0.0
 40
16.288437109375
 41
0.0
 71
               1
 72
               1
  1
22
  7
_______
 11
0.0000000186264516
 21
0.9999999999999998
 31
0.0
  0
LINE
  5
102
100
AcDbEntity
  8
____
  6
CONTINUOUS
 62
               2
100
AcDbLine
 10
-569.87639999999999
 20
892.80829999999992
 30
0.0
 11
-715.41889999999989
 21
747.26569999999992
 31
0.0
  0
MTEXT
  5
103
100
AcDbEntity
  8
____
 62
               2
100
AcDbMText
 10
-909.55630005944704
 20
-217.90887179698913
 30
0.0
 40
27.14736953125
 41
0.0
 71
               1
 72
               1
  1
正面図
  7
_______
 11
0.9999999999999998
 21
-0.0000000186264517
 31
0.0
  0
POLYLINE
  5
104
100
AcDbEntity
  8
____
  6
CONTINUOUS
 62
               2
100
AcDb2dPolyline
 66
               1
 10
0.0
 20
0.0
 30
0.0
 70
               1
 75
               5
  0
VERTEX
  5
105
100
AcDbEntity
  8
____
  6
CONTINUOUS
 62
               2
100
AcDbVertex
100
AcDb2dVertex
 10
-921.55619999999988
 20
-204.23429999999999
 30
0.0
  0
VERTEX
  5
106
100
AcDbEntity
  8
____
  6
CONTINUOUS
 62
               2
100
AcDbVertex
100
AcDb2dVertex
 10
-793.5560999999999
 20
-204.23429999999999
 30
0.0
  0
VERTEX
  5
107
100
AcDbEntity
  8
____
  6
CONTINUOUS
 62
               2
100
AcDbVertex
100
AcDb2dVertex
 10
-793.55619999999988
 20
-260.23429999999996
 30
0.0
  0
VERTEX
  5
108
100
AcDbEntity
  8
____
  6
CONTINUOUS
 62
               2
100
AcDbVertex
100
AcDb2dVertex
 10
-921.55619999999988
 20
-260.23429999999996
 30
0.0
  0
SEQEND
  5
109
100
AcDbEntity
  8
____
  6
CONTINUOUS
 62
               2
  0
MTEXT
  5
10B
100
AcDbEntity
  8
____
 62
               2
100
AcDbMText
 10
-909.55630005944704
 20
-1102.7983287313207
 30
0.0
 40
27.14736953125
 41
0.0
 71
               1
 72
               1
  1
平面図
  7
_______
 11
0.9999999999999998
 21
-0.0000000186264517
 31
0.0
  0
POLYLINE
  5
10C
100
AcDbEntity
  8
____
  6
CONTINUOUS
 62
               2
100
AcDb2dPolyline
 66
               1
 10
0.0
 20
0.0
 30
0.0
 70
               1
 75
               5
  0
VERTEX
  5
10D
100
AcDbEntity
  8
____
  6
CONTINUOUS
 62
               2
100
AcDbVertex
100
AcDb2dVertex
 10
-921.55629999999996
 20
-1087.6295124915855
 30
0.0
  0
VERTEX
  5
10E
100
AcDbEntity
  8
____
  6
CONTINUOUS
 62
               2
100
AcDbVertex
100
AcDb2dVertex
 10
-793.55629999999996
 20
-1087.6294124915855
 30
0.0
  0
VERTEX
  5
10F
100
AcDbEntity
  8
____
  6
CONTINUOUS
 62
               2
100
AcDbVertex
100
AcDb2dVertex
 10
-793.55629999999996
 20
-1143.6295124915855
 30
0.0
  0
VERTEX
  5
110
100
AcDbEntity
  8
____
  6
CONTINUOUS
 62
               2
100
AcDbVertex
100
AcDb2dVertex
 10
-921.55629999999996
 20
-1143.6294124915855
 30
0.0
  0
SEQEND
  5
111
100
AcDbEntity
  8
____
  6
CONTINUOUS
 62
               2
  0
MTEXT
  5
113
100
AcDbEntity
  8
____
 62
               2
100
AcDbMText
 10
760.44369994055285
 20
-217.6875851987235
 30
0.0
 40
27.14736953125
 41
0.0
 71
               1
 72
               1
  1
側面図
  7
_______
 11
0.9999999999999998
 21
-0.0000000186264517
 31
0.0
  0
POLYLINE
  5
114
100
AcDbEntity
  8
____
  6
CONTINUOUS
 62
               2
100
AcDb2dPolyline
 66
               1
 10
0.0
 20
0.0
 30
0.0
 70
               1
 75
               5
  0
VERTEX
  5
115
100
AcDbEntity
  8
____
  6
CONTINUOUS
 62
               2
100
AcDbVertex
100
AcDb2dVertex
 10
748.4437999999999
 20
-204.23439999999999
 30
0.0
  0
VERTEX
  5
116
100
AcDbEntity
  8
____
  6
CONTINUOUS
 62
               2
100
AcDbVertex
100
AcDb2dVertex
 10
876.4437999999999
 20
-204.23429999999999
 30
0.0
  0
VERTEX
  5
117
100
AcDbEntity
  8
____
  6
CONTINUOUS
 62
               2
100
AcDbVertex
100
AcDb2dVertex
 10
876.4437999999999
 20
-260.23429999999996
 30
0.0
  0
VERTEX
  5
118
100
AcDbEntity
  8
____
  6
CONTINUOUS
 62
               2
100
AcDbVertex
100
AcDb2dVertex
 10
748.4437999999999
 20
-260.23429999999996
 30
0.0
  0
SEQEND
  5
119
100
AcDbEntity
  8
____
  6
CONTINUOUS
 62
               2
  0
LINE
  5
11B
100
AcDbEntity
  8
____
  6
CONTINUOUS
 62
               2
100
AcDbLine
 10
630.44379944120635
 20
-1.2343998603016146
 30
0.0
 11
630.4437974021389
 21
-110.70599979560114
 31
0.0
  0
LINE
  5
11C
100
AcDbEntity
  8
____
  6
CONTINUOUS
 62
               2
100
AcDbLine
 10
980.44369944120638
 20
-1.2343998603016146
 30
0.0
 11
980.44369740213881
 21
-110.70600631485732
 31
0.0
  0
LINE
  5
11D
100
AcDbEntity
  8
____
  6
CONTINUOUS
 62
               2
100
AcDbLine
 10
610.44379786780019
 20
-90.705999516204372
 30
0.0
 11
630.44379777466793
 21
-90.705999888733402
 31
0.0
  0
LINE
  5
11E
100
AcDbEntity
  8
____
  6
CONTINUOUS
 62
               2
100
AcDbLine
 10
980.44369777466784
 20
-90.706006407989577
 30
0.0
 11
1000.4436976815356
 21
-90.706006780518607
 31
0.0
  0
LINE
  5
11F
100
AcDbEntity
  8
____
  6
CONTINUOUS
 62
               2
100
AcDbLine
 10
630.44379777466793
 20
-90.705999888733402
 30
0.0
 11
980.44369777466784
 21
-90.706006407989577
 31
0.0
  0
SOLID
  5
120
100
AcDbEntity
  8
____
 62
               2
100
AcDbTrace
 10
630.44379777466793
 20
-90.705999888733402
 30
0.0
 11
650.44257707154293
 21
-88.956333415899891
 31
0.0
 12
650.44257707154293
 22
-92.455666361566912
 32
0.0
 13
650.44257707154293
 23
-92.455666361566912
 33
0.0
  0
SOLID
  5
121
100
AcDbEntity
  8
____
 62
               2
100
AcDbTrace
 10
980.44369777466784
 20
-90.706006407989577
 30
0.0
 11
960.41742849833247
 21
-92.106379573605977
 31
0.0
 12
960.47850027915956
 22
-88.607579593295981
 32
0.0
 13
960.47850027915956
 23
-88.607579593295981
 33
0.0
  0
MTEXT
  5
122
100
AcDbEntity
  8
____
 62
               2
100
AcDbMText
 10
789.56872308689162
 20
-61.454227762460832
 30
0.0
 40
16.288437109375
 41
0.0
 71
               1
 72
               1
  1
350
  7
_______
 11
0.9999999999999998
 21
-0.0000000186264517
 31
0.0
  0
MTEXT
  5
123
100
AcDbEntity
  8
____
 62
               2
100
AcDbMText
 10
-1615.2500000535022
 20
397.39331718749997
 30
0.0
 40
24.4326171875
 41
0.0
 71
               1
 72
               1
  1
▽ＧＬ
  7
_______
 11
0.9999999999999998
 21
-0.0000000186264517
 31
0.0
  0
LINE
  5
124
100
AcDbEntity
  8
____
  6
CONTINUOUS
 62
               2
100
AcDbLine
 10
580.44380667758276
 20
-27.734399888241292
 30
0.0
 11
580.4438410149603
 21
-181.99999992549417
 31
0.0
  0
LINE
  5
125
100
AcDbEntity
  8
____
  6
CONTINUOUS
 62
               2
100
AcDbLine
 10
1030.4439066775828
 20
-27.734299888241292
 30
0.0
 11
1030.4439410149603
 21
-181.99989976172907
 31
0.0
  0
LINE
  5
126
100
AcDbEntity
  8
____
  6
CONTINUOUS
 62
               2
100
AcDbLine
 10
560.4438366377442
 20
-162.00000445172185
 30
0.0
 11
580.44383656323839
 21
-161.99999999999997
 31
0.0
  0
LINE
  5
127
100
AcDbEntity
  8
____
  6
CONTINUOUS
 62
               2
100
AcDbLine
 10
1030.4439365632384
 20
-161.99989983623487
 30
0.0
 11
1050.4439364887326
 21
-161.999895384513
 31
0.0
  0
LINE
  5
128
100
AcDbEntity
  8
____
  6
CONTINUOUS
 62
               2
100
AcDbLine
 10
580.44383656323839
 20
-161.99999999999997
 30
0.0
 11
1030.4439365632384
 21
-161.99989983623487
 31
0.0
  0
SOLID
  5
129
100
AcDbEntity
  8
____
 62
               2
100
AcDbTrace
 10
580.44383656323839
 20
-161.99999999999997
 30
0.0
 11
600.44261586011339
 21
-160.25033352716645
 31
0.0
 12
600.44261586011339
 22
-163.7496664728335
 32
0.0
 13
600.44261586011339
 23
-163.7496664728335
 33
0.0
  0
SOLID
  5
12A
100
AcDbEntity
  8
____
 62
               2
100
AcDbTrace
 10
1030.4439365632384
 20
-161.99989983623487
 30
0.0
 11
1010.4787390677301
 21
-164.09832665092847
 31
0.0
 12
1010.417667286903
 22
-160.59952667061847
 32
0.0
 13
1010.417667286903
 23
-160.59952667061847
 33
0.0
  0
MTEXT
  5
12B
100
AcDbEntity
  8
____
 62
               2
100
AcDbMText
 10
789.56885481956726
 20
-132.74817834230251
 30
0.0
 40
16.288437109375
 41
0.0
 71
               1
 72
               1
  1
450
  7
_______
 11
0.9999999999999752
 21
0.0000002225860953
 31
0.0
  0
LINE
  5
12C
100
AcDbEntity
  8
____
  6
CONTINUOUS
 62
               2
100
AcDbLine
 10
550.44380013969828
 20
2.2656005587935422
 30
0.0
 11
460.44380018626441
 21
2.2656022351741774
 31
0.0
  0
LINE
  5
12D
100
AcDbEntity
  8
____
  6
CONTINUOUS
 62
               2
100
AcDbLine
 10
550.44380013969828
 20
102.26560055879354
 30
0.0
 11
460.44380204890956
 21
102.26560223517414
 31
0.0
  0
LINE
  5
12E
100
AcDbEntity
  8
____
  6
CONTINUOUS
 62
               2
100
AcDbLine
 10
480.44379972060312
 20
-17.734398044222594
 30
0.0
 11
480.44380009313215
 21
2.2656018626451488
 31
0.0
  0
LINE
  5
12F
100
AcDbEntity
  8
____
  6
CONTINUOUS
 62
               2
100
AcDbLine
 10
480.4438019557773
 20
102.26560186264511
 30
0.0
 11
480.44380232830633
 21
122.26560176951286
 31
0.0
  0
LINE
  5
130
100
AcDbEntity
  8
____
  6
CONTINUOUS
 62
               2
100
AcDbLine
 10
480.44380009313215
 20
2.2656018626451488
 30
0.0
 11
480.4438019557773
 21
102.26560186264511
 31
0.0
  0
SOLID
  5
131
100
AcDbEntity
  8
____
 62
               2
100
AcDbTrace
 10
480.44380009313215
 20
2.2656018626451488
 30
0.0
 11
479.04342692751572
 21
22.29187113898055
 31
0.0
 12
482.54222690782575
 22
22.230799358153394
 32
0.0
 13
482.54222690782575
 23
22.230799358153394
 33
0.0
  0
SOLID
  5
132
100
AcDbEntity
  8
____
 62
               2
100
AcDbTrace
 10
480.4438019557773
 20
102.26560186264511
 30
0.0
 11
482.1934684286108
 21
82.266822565770113
 31
0.0
 12
478.69413548294381
 22
82.266822565770113
 32
0.0
 13
478.69413548294381
 23
82.266822565770113
 33
0.0
  0
MTEXT
  5
133
100
AcDbEntity
  8
____
 62
               2
100
AcDbMText
 10
451.19202563855413
 20
36.390577174868959
 30
0.0
 40
16.288437109375
 41
0.0
 71
               1
 72
               1
  1
100
  7
_______
 11
0.0000000186264516
 21
0.9999999999999998
 31
0.0
  0
LINE
  5
134
100
AcDbEntity
  8
____
  6
CONTINUOUS
 62
               2
100
AcDbLine
 10
550.44380013969828
 20
202.26560055879352
 30
0.0
 11
460.44380018626441
 21
202.26560223517416
 31
0.0
  0
LINE
  5
135
100
AcDbEntity
  8
____
  6
CONTINUOUS
 62
               2
100
AcDbLine
 10
600.44380013969828
 20
352.26560055879349
 30
0.0
 11
460.44380298023214
 21
352.26560316649665
 31
0.0
  0
LINE
  5
136
100
AcDbEntity
  8
____
  6
CONTINUOUS
 62
               2
100
AcDbLine
 10
480.44379972060312
 20
182.26560195577738
 30
0.0
 11
480.44380009313215
 21
202.26560186264513
 31
0.0
  0
LINE
  5
137
100
AcDbEntity
  8
____
  6
CONTINUOUS
 62
               2
100
AcDbLine
 10
480.44380288709988
 20
352.26560279396762
 30
0.0
 11
480.44380325962891
 21
372.26560270083536
 31
0.0
  0
LINE
  5
138
100
AcDbEntity
  8
____
  6
CONTINUOUS
 62
               2
100
AcDbLine
 10
480.44380009313215
 20
202.26560186264513
 30
0.0
 11
480.44380288709988
 21
352.26560279396762
 31
0.0
  0
SOLID
  5
139
100
AcDbEntity
  8
____
 62
               2
100
AcDbTrace
 10
480.44380009313215
 20
202.26560186264513
 30
0.0
 11
479.04342692751572
 21
222.29187113898053
 31
0.0
 12
482.54222690782575
 22
222.23079935815338
 32
0.0
 13
482.54222690782575
 23
222.23079935815338
 33
0.0
  0
SOLID
  5
13A
100
AcDbEntity
  8
____
 62
               2
100
AcDbTrace
 10
480.44380288709988
 20
352.26560279396762
 30
0.0
 11
482.19346935993337
 21
332.26682349709262
 31
0.0
 12
478.69413641426638
 22
332.26682349709262
 32
0.0
 13
478.69413641426638
 23
332.26682349709262
 33
0.0
  0
MTEXT
  5
13B
100
AcDbEntity
  8
____
 62
               2
100
AcDbMText
 10
451.19202610421542
 20
261.39057764053018
 30
0.0
 40
16.288437109375
 41
0.0
 71
               1
 72
               1
  1
150
  7
_______
 11
0.0000000186264516
 21
0.9999999999999998
 31
0.0
  0
LINE
  5
13C
100
AcDbEntity
  8
____
  6
CONTINUOUS
 62
               2
100
AcDbLine
 10
-485.32089999999994
 20
634.69489999999996
 30
0.0
 11
-649.55629999999996
 21
487.26569999999998
 31
0.0
  0
LINE
  5
13D
100
AcDbEntity
  8
____
  6
CONTINUOUS
 62
               2
100
AcDbLine
 10
1100.4438
 20
647.26569999999992
 30
0.0
 11
975.4437999999999
 21
522.26569999999992
 31
0.0
  0
MTEXT
  5
13E
100
AcDbEntity
  8
____
 62
               2
100
AcDbMText
 10
-478.05630003566824
 20
-4.5925248906249987
 30
0.0
 40
16.288437109375
 41
0.0
 71
               1
 72
               1
  1
再生クラッシャラン
  7
_______
 11
0.9999999999999998
 21
-0.0000000186264517
 31
0.0
  0
LINE
  5
13F
100
AcDbEntity
  8
____
  6
CONTINUOUS
 62
               2
100
AcDbLine
 10
-282.0
 20
-34.276799999999994
 30
0.0
 11
-484.30609999999996
 21
-34.276799999999994
 31
0.0
  0
LINE
  5
140
100
AcDbEntity
  8
____
  6
CONTINUOUS
 62
               2
100
AcDbLine
 10
-484.30609999999996
 20
-34.276799999999994
 30
0.0
 11
-631.0560999999999
 21
63.265799999999992
 31
0.0
  0
LINE
  5
141
100
AcDbEntity
  8
____
  6
CONTINUOUS
 62
               2
100
AcDbLine
 10
1111.8606
 20
-67.805099999999996
 30
0.0
 11
980.44369999999992
 21
52.265699999999995
 31
0.0
  0
LINE
  5
142
100
AcDbEntity
  8
____
  6
CONTINUOUS
 62
               2
100
AcDbLine
 10
-1161.0560998603014
 20
2.2658005587935421
 30
0.0
 11
-1238.7923998251567
 21
2.265802006744964
 31
0.0
  0
LINE
  5
143
100
AcDbEntity
  8
____
  6
CONTINUOUS
 62
               2
100
AcDbLine
 10
-1161.0560998603014
 20
102.26570055879354
 30
0.0
 11
-1238.7923979625134
 21
102.26570200674493
 31
0.0
  0
LINE
  5
144
100
AcDbEntity
  8
____
  6
CONTINUOUS
 62
               2
100
AcDbLine
 10
-1218.792400290818
 20
-17.734198272651806
 30
0.0
 11
-1218.792399918289
 21
2.2658016342159355
 31
0.0
  0
LINE
  5
145
100
AcDbEntity
  8
____
  6
CONTINUOUS
 62
               2
100
AcDbLine
 10
-1218.7923980556457
 20
102.2657016342159
 30
0.0
 11
-1218.7923976831166
 21
122.26570154108364
 31
0.0
  0
LINE
  5
146
100
AcDbEntity
  8
____
  6
CONTINUOUS
 62
               2
100
AcDbLine
 10
-1218.792399918289
 20
2.2658016342159355
 30
0.0
 11
-1218.7923980556457
 21
102.2657016342159
 31
0.0
  0
SOLID
  5
147
100
AcDbEntity
  8
____
 62
               2
100
AcDbTrace
 10
-1218.792399918289
 20
2.2658016342159355
 30
0.0
 11
-1220.1927730839054
 21
22.292070910551338
 31
0.0
 12
-1216.6939731035955
 22
22.230999129724182
 32
0.0
 13
-1216.6939731035955
 23
22.230999129724182
 33
0.0
  0
SOLID
  5
148
100
AcDbEntity
  8
____
 62
               2
100
AcDbTrace
 10
-1218.7923980556457
 20
102.2657016342159
 30
0.0
 11
-1217.0427315828122
 21
82.266922337340901
 31
0.0
 12
-1220.5420645284792
 22
82.266922337340901
 32
0.0
 13
-1220.5420645284792
 23
82.266922337340901
 33
0.0
  0
MTEXT
  5
149
100
AcDbEntity
  8
____
 62
               2
100
AcDbMText
 10
-1248.0441743728679
 20
36.390726946439734
 30
0.0
 40
16.288437109375
 41
0.0
 71
               1
 72
               1
  1
100
  7
_______
 11
0.0000000186264516
 21
0.9999999999999998
 31
0.0
  0
LINE
  5
14A
100
AcDbEntity
  8
____
  6
CONTINUOUS
 62
               2
100
AcDbLine
 10
-1161.0560998603014
 20
202.26570055879353
 30
0.0
 11
-1238.7923998251567
 21
202.26570200674496
 31
0.0
  0
LINE
  5
14B
100
AcDbEntity
  8
____
  6
CONTINUOUS
 62
               2
100
AcDbLine
 10
-1111.0560998603016
 20
352.2658005587935
 30
0.0
 11
-1238.7923970311872
 21
352.26580293806745
 31
0.0
  0
LINE
  5
14C
100
AcDbEntity
  8
____
  6
CONTINUOUS
 62
               2
100
AcDbLine
 10
-1218.792400290818
 20
182.26570172734819
 30
0.0
 11
-1218.792399918289
 21
202.26570163421593
 31
0.0
  0
LINE
  5
14D
100
AcDbEntity
  8
____
  6
CONTINUOUS
 62
               2
100
AcDbLine
 10
-1218.7923971243195
 20
352.26580256553842
 30
0.0
 11
-1218.7923967517904
 21
372.26580247240616
 31
0.0
  0
LINE
  5
14E
100
AcDbEntity
  8
____
  6
CONTINUOUS
 62
               2
100
AcDbLine
 10
-1218.792399918289
 20
202.26570163421593
 30
0.0
 11
-1218.7923971243195
 21
352.26580256553842
 31
0.0
  0
SOLID
  5
14F
100
AcDbEntity
  8
____
 62
               2
100
AcDbTrace
 10
-1218.792399918289
 20
202.26570163421593
 30
0.0
 11
-1220.1927730839054
 21
222.29197091055133
 31
0.0
 12
-1216.6939731035955
 22
222.23089912972418
 32
0.0
 13
-1216.6939731035955
 23
222.23089912972418
 33
0.0
  0
SOLID
  5
150
100
AcDbEntity
  8
____
 62
               2
100
AcDbTrace
 10
-1218.7923971243195
 20
352.26580256553842
 30
0.0
 11
-1217.042730651486
 21
332.26702326866342
 31
0.0
 12
-1220.5420635971529
 22
332.26702326866342
 32
0.0
 13
-1220.5420635971529
 23
332.26702326866342
 33
0.0
  0
MTEXT
  5
151
100
AcDbEntity
  8
____
 62
               2
100
AcDbMText
 10
-1248.0441739072048
 20
261.390727412101
 30
0.0
 40
16.288437109375
 41
0.0
 71
               1
 72
               1
  1
150
  7
_______
 11
0.0000000186264516
 21
0.9999999999999998
 31
0.0
  0
MTEXT
  5
152
100
AcDbEntity
  8
____
 62
               2
100
AcDbMText
 10
1118.1103999643315
 20
-38.120824890624995
 30
0.0
 40
16.288437109375
 41
0.0
 71
               1
 72
               1
  1
再生クラッシャラン
  7
_______
 11
0.9999999999999998
 21
-0.0000000186264517
 31
0.0
  0
LINE
  5
153
100
AcDbEntity
  8
____
  6
CONTINUOUS
 62
               2
100
AcDbLine
 10
1306.4437999999998
 20
-67.805199999999999
 30
0.0
 11
1111.8606
 21
-67.805099999999996
 31
0.0
  0
MTEXT
  5
154
100
AcDbEntity
  8
____
 62
               2
100
AcDbMText
 10
1084.7499999464976
 20
397.39331718749997
 30
0.0
 40
24.4326171875
 41
0.0
 71
               1
 72
               1
  1
▽ＧＬ
  7
_______
 11
0.9999999999999998
 21
-0.0000000186264517
 31
0.0
  0
LINE
  5
155
100
AcDbEntity
  8
____
  6
CONTINUOUS
 62
               2
100
AcDbLine
 10
-1191.0559998882411
 20
202.26569999999998
 30
0.0
 11
-1238.7921999254941
 21
202.26569999999998
 31
0.0
  0
LINE
  5
156
100
AcDbEntity
  8
____
  6
CONTINUOUS
 62
               2
100
AcDbLine
 10
-1191.0559998882411
 20
102.2657
 30
0.0
 11
-1238.7921999254941
 21
102.2657
 31
0.0
  0
LINE
  5
157
100
AcDbEntity
  8
____
  6
CONTINUOUS
 62
               2
100
AcDbLine
 10
-1218.7921999999999
 20
222.26569992549418
 30
0.0
 11
-1218.7921999999999
 21
202.26569999999998
 31
0.0
  0
LINE
  5
158
100
AcDbEntity
  8
____
  6
CONTINUOUS
 62
               2
100
AcDbLine
 10
-1218.7921999999999
 20
102.2657
 30
0.0
 11
-1218.7921999999999
 21
82.265700074505801
 31
0.0
  0
LINE
  5
159
100
AcDbEntity
  8
____
  6
CONTINUOUS
 62
               2
100
AcDbLine
 10
-1218.7921999999999
 20
202.26569999999998
 30
0.0
 11
-1218.7921999999999
 21
102.2657
 31
0.0
  0
SOLID
  5
15A
100
AcDbEntity
  8
____
 62
               2
100
AcDbTrace
 10
-1218.7921999999999
 20
202.26569999999998
 30
0.0
 11
-1217.0425335271664
 21
182.26692070312498
 31
0.0
 12
-1220.5418664728334
 22
182.26692070312498
 32
0.0
 13
-1220.5418664728334
 23
182.26692070312498
 33
0.0
  0
SOLID
  5
15B
100
AcDbEntity
  8
____
 62
               2
100
AcDbTrace
 10
-1218.7921999999999
 20
102.2657
 30
0.0
 11
-1220.5418664728334
 21
122.264479296875
 31
0.0
 12
-1217.0425335271664
 22
122.264479296875
 32
0.0
 13
-1217.0425335271664
 23
122.264479296875
 33
0.0
  0
MTEXT
  5
15C
100
AcDbEntity
  8
____
 62
               2
100
AcDbMText
 10
-1248.04378415625
 20
136.39075046526588
 30
0.0
 40
16.28836015625
 41
0.0
 71
               1
 72
               1
  1
100
  7
_______
 11
0.0
 21
1.0
 31
0.0
  0
LINE
  5
15D
100
AcDbEntity
  8
____
  6
CONTINUOUS
 62
               2
100
AcDbLine
 10
-1227.9999998882413
 20
352.26569999999998
 30
0.0
 11
-1353.5562999254942
 21
352.26569999999998
 31
0.0
  0
LINE
  5
15E
100
AcDbEntity
  8
____
  6
CONTINUOUS
 62
               2
100
AcDbLine
 10
-1161.0560998882411
 20
2.2657999999999996
 30
0.0
 11
-1353.5562999254942
 21
2.2657999999999996
 31
0.0
  0
LINE
  5
15F
100
AcDbEntity
  8
____
  6
CONTINUOUS
 62
               2
100
AcDbLine
 10
-1333.5563
 20
372.26569992549418
 30
0.0
 11
-1333.5563
 21
352.26569999999998
 31
0.0
  0
LINE
  5
160
100
AcDbEntity
  8
____
  6
CONTINUOUS
 62
               2
100
AcDbLine
 10
-1333.5563
 20
2.2657999999999996
 30
0.0
 11
-1333.5563
 21
-17.734199925494195
 31
0.0
  0
LINE
  5
161
100
AcDbEntity
  8
____
  6
CONTINUOUS
 62
               2
100
AcDbLine
 10
-1333.5563
 20
352.26569999999998
 30
0.0
 11
-1333.5563
 21
2.2657999999999996
 31
0.0
  0
SOLID
  5
162
100
AcDbEntity
  8
____
 62
               2
100
AcDbTrace
 10
-1333.5563
 20
352.26569999999998
 30
0.0
 11
-1331.8066335271665
 21
332.26692070312498
 31
0.0
 12
-1335.3059664728335
 22
332.26692070312498
 32
0.0
 13
-1335.3059664728335
 23
332.26692070312498
 33
0.0
  0
SOLID
  5
163
100
AcDbEntity
  8
____
 62
               2
100
AcDbTrace
 10
-1333.5563
 20
2.2657999999999996
 30
0.0
 11
-1335.3059664728335
 21
22.264579296874999
 31
0.0
 12
-1331.8066335271665
 22
22.264579296874999
 32
0.0
 13
-1331.8066335271665
 23
22.264579296874999
 33
0.0
  0
MTEXT
  5
164
100
AcDbEntity
  8
____
 62
               2
100
AcDbMText
 10
-1362.8078841562501
 20
161.3908004652659
 30
0.0
 40
16.28836015625
 41
0.0
 71
               1
 72
               1
  1
350
  7
_______
 11
0.0
 21
1.0
 31
0.0
  0
LINE
  5
165
100
AcDbEntity
  8
____
  6
CONTINUOUS
 62
               2
100
AcDbLine
 10
398.44370011175869
 20
352.26569999999998
 30
0.0
 11
356.44370007450578
 21
352.26569999999998
 31
0.0
  0
LINE
  5
166
100
AcDbEntity
  8
____
  6
CONTINUOUS
 62
               2
100
AcDbLine
 10
475.44380011175866
 20
2.2655999999999996
 30
0.0
 11
356.44370007450578
 21
2.2655999999999996
 31
0.0
  0
LINE
  5
167
100
AcDbEntity
  8
____
  6
CONTINUOUS
 62
               2
100
AcDbLine
 10
376.44369999999998
 20
372.26569992549418
 30
0.0
 11
376.44369999999998
 21
352.26569999999998
 31
0.0
  0
LINE
  5
168
100
AcDbEntity
  8
____
  6
CONTINUOUS
 62
               2
100
AcDbLine
 10
376.44369999999998
 20
2.2655999999999996
 30
0.0
 11
376.44369999999998
 21
-17.734399925494195
 31
0.0
  0
LINE
  5
169
100
AcDbEntity
  8
____
  6
CONTINUOUS
 62
               2
100
AcDbLine
 10
376.44369999999998
 20
352.26569999999998
 30
0.0
 11
376.44369999999998
 21
2.2655999999999996
 31
0.0
  0
SOLID
  5
16A
100
AcDbEntity
  8
____
 62
               2
100
AcDbTrace
 10
376.44369999999998
 20
352.26569999999998
 30
0.0
 11
378.19336647283347
 21
332.26692070312498
 31
0.0
 12
374.69403352716648
 22
332.26692070312498
 32
0.0
 13
374.69403352716648
 23
332.26692070312498
 33
0.0
  0
SOLID
  5
16B
100
AcDbEntity
  8
____
 62
               2
100
AcDbTrace
 10
376.44369999999998
 20
2.2655999999999996
 30
0.0
 11
374.69403352716648
 21
22.264379296874999
 31
0.0
 12
378.19336647283347
 22
22.264379296874999
 32
0.0
 13
378.19336647283347
 23
22.264379296874999
 33
0.0
  0
MTEXT
  5
16C
100
AcDbEntity
  8
____
 62
               2
100
AcDbMText
 10
347.19211584375
 20
161.39070046526589
 30
0.0
 40
16.28836015625
 41
0.0
 71
               1
 72
               1
  1
350
  7
_______
 11
0.0
 21
1.0
 31
0.0
  0
LINE
  5
16D
100
AcDbEntity
  8
____
  6
CONTINUOUS
 62
               2
100
AcDbLine
 10
514.00000011175871
 20
202.26559999999998
 30
0.0
 11
460.44390007450579
 21
202.26559999999998
 31
0.0
  0
LINE
  5
16E
100
AcDbEntity
  8
____
  6
CONTINUOUS
 62
               2
100
AcDbLine
 10
520.44380011175861
 20
102.26559999999999
 30
0.0
 11
460.44390007450579
 21
102.26559999999999
 31
0.0
  0
LINE
  5
16F
100
AcDbEntity
  8
____
  6
CONTINUOUS
 62
               2
100
AcDbLine
 10
480.44389999999999
 20
222.26559992549417
 30
0.0
 11
480.44389999999999
 21
202.26559999999998
 31
0.0
  0
LINE
  5
170
100
AcDbEntity
  8
____
  6
CONTINUOUS
 62
               2
100
AcDbLine
 10
480.44389999999999
 20
102.26559999999999
 30
0.0
 11
480.44389999999999
 21
82.265600074505798
 31
0.0
  0
LINE
  5
171
100
AcDbEntity
  8
____
  6
CONTINUOUS
 62
               2
100
AcDbLine
 10
480.44389999999999
 20
202.26559999999998
 30
0.0
 11
480.44389999999999
 21
102.26559999999999
 31
0.0
  0
SOLID
  5
172
100
AcDbEntity
  8
____
 62
               2
100
AcDbTrace
 10
480.44389999999999
 20
202.26559999999998
 30
0.0
 11
482.19356647283348
 21
182.26682070312498
 31
0.0
 12
478.69423352716649
 22
182.26682070312498
 32
0.0
 13
478.69423352716649
 23
182.26682070312498
 33
0.0
  0
SOLID
  5
173
100
AcDbEntity
  8
____
 62
               2
100
AcDbTrace
 10
480.44389999999999
 20
102.26559999999999
 30
0.0
 11
478.69423352716649
 21
122.26437929687499
 31
0.0
 12
482.19356647283348
 22
122.26437929687499
 32
0.0
 13
482.19356647283348
 23
122.26437929687499
 33
0.0
  0
MTEXT
  5
174
100
AcDbEntity
  8
____
 62
               2
100
AcDbMText
 10
451.19231584375001
 20
136.39065046526588
 30
0.0
 40
16.28836015625
 41
0.0
 71
               1
 72
               1
  1
100
  7
_______
 11
0.0
 21
1.0
 31
0.0
  0
LINE
  5
175
100
AcDbEntity
  8
____
  6
CONTINUOUS
 62
               2
100
AcDbLine
 10
1111.8606
 20
62.194899999999997
 30
0.0
 11
1001.9999999999999
 21
162.57039999999998
 31
0.0
  0
MTEXT
  5
176
100
AcDbEntity
  8
____
 62
               2
100
AcDbMText
 10
1118.1103999643315
 20
91.879175109374984
 30
0.0
 40
16.288437109375
 41
0.0
 71
               1
 72
               1
  1
均しコンクリート
  7
_______
 11
0.9999999999999998
 21
-0.0000000186264517
 31
0.0
  0
LINE
  5
177
100
AcDbEntity
  8
____
  6
CONTINUOUS
 62
               2
100
AcDbLine
 10
1306.4437999999998
 20
62.194799999999994
 30
0.0
 11
1111.8606
 21
62.194899999999997
 31
0.0
  0
MTEXT
  5
178
100
AcDbEntity
  8
____
 62
               2
100
AcDbMText
 10
-478.05630003566824
 20
95.407475109374985
 30
0.0
 40
16.288437109375
 41
0.0
 71
               1
 72
               1
  1
均しコンクリート
  7
_______
 11
0.9999999999999998
 21
-0.0000000186264517
 31
0.0
  0
LINE
  5
179
100
AcDbEntity
  8
____
  6
CONTINUOUS
 62
               2
100
AcDbLine
 10
-292.0
 20
65.723199999999991
 30
0.0
 11
-484.30609999999996
 21
65.723199999999991
 31
0.0
  0
LINE
  5
17A
100
AcDbEntity
  8
____
  6
CONTINUOUS
 62
               2
100
AcDbLine
 10
-484.30609999999996
 20
65.723199999999991
 30
0.0
 11
-596.96929999999998
 21
140.60879999999997
 31
0.0
  0
LINE
  5
17B
100
AcDbEntity
  8
____
  6
CONTINUOUS
 62
               2
100
AcDbLine
 10
-1081.0561
 20
172.26570011175869
 30
0.0
 11
-1081.0561
 21
-105.99999992549419
 31
0.0
  0
LINE
  5
17C
100
AcDbEntity
  8
____
  6
CONTINUOUS
 62
               2
100
AcDbLine
 10
-631.05619999999999
 20
172.26560011175869
 30
0.0
 11
-631.05619999999999
 21
-105.99999992549417
 31
0.0
  0
LINE
  5
17D
100
AcDbEntity
  8
____
  6
CONTINUOUS
 62
               2
100
AcDbLine
 10
-1101.0560999254942
 20
-86.0
 30
0.0
 11
-1081.0561
 21
-86.0
 31
0.0
  0
LINE
  5
17E
100
AcDbEntity
  8
____
  6
CONTINUOUS
 62
               2
100
AcDbLine
 10
-631.05619999999999
 20
-85.999999999999972
 30
0.0
 11
-611.0562000745058
 21
-85.999999999999972
 31
0.0
  0
LINE
  5
17F
100
AcDbEntity
  8
____
  6
CONTINUOUS
 62
               2
100
AcDbLine
 10
-1081.0561
 20
-86.0
 30
0.0
 11
-631.05619999999999
 21
-85.999999999999972
 31
0.0
  0
SOLID
  5
180
100
AcDbEntity
  8
____
 62
               2
100
AcDbTrace
 10
-1081.0561
 20
-86.0
 30
0.0
 11
-1061.057320703125
 21
-84.250333527166489
 31
0.0
 12
-1061.057320703125
 22
-87.749666472833511
 32
0.0
 13
-1061.057320703125
 23
-87.749666472833511
 33
0.0
  0
SOLID
  5
181
100
AcDbEntity
  8
____
 62
               2
100
AcDbTrace
 10
-631.05619999999999
 20
-85.999999999999972
 30
0.0
 11
-651.05497929687499
 21
-87.749666472833482
 31
0.0
 12
-651.05497929687499
 22
-84.250333527166461
 32
0.0
 13
-651.05497929687499
 23
-84.250333527166461
 33
0.0
  0
MTEXT
  5
182
100
AcDbEntity
  8
____
 62
               2
100
AcDbMText
 10
-871.93115
 20
-56.748255245586222
 30
0.0
 40
16.288411458333332
 41
0.0
 71
               1
 72
               1
  1
450
  7
_______
  0
LINE
  5
183
100
AcDbEntity
  8
____
  6
CONTINUOUS
 62
               2
100
AcDbLine
 10
-1131.0560999999998
 20
-27.734199888241292
 30
0.0
 11
-1131.0560999999998
 21
-176.99999992549417
 31
0.0
  0
LINE
  5
184
100
AcDbEntity
  8
____
  6
CONTINUOUS
 62
               2
100
AcDbLine
 10
-581.05599999999993
 20
-27.734199888241292
 30
0.0
 11
-581.05599999999993
 21
-176.99999992549417
 31
0.0
  0
LINE
  5
185
100
AcDbEntity
  8
____
  6
CONTINUOUS
 62
               2
100
AcDbLine
 10
-1151.056099925494
 20
-156.99999999999997
 30
0.0
 11
-1131.0560999999998
 21
-156.99999999999997
 31
0.0
  0
LINE
  5
186
100
AcDbEntity
  8
____
  6
CONTINUOUS
 62
               2
100
AcDbLine
 10
-581.05599999999993
 20
-156.99999999999997
 30
0.0
 11
-561.05600007450573
 21
-156.99999999999997
 31
0.0
  0
LINE
  5
187
100
AcDbEntity
  8
____
  6
CONTINUOUS
 62
               2
100
AcDbLine
 10
-1131.0560999999998
 20
-156.99999999999997
 30
0.0
 11
-581.05599999999993
 21
-156.99999999999997
 31
0.0
  0
SOLID
  5
188
100
AcDbEntity
  8
____
 62
               2
100
AcDbTrace
 10
-1131.0560999999998
 20
-156.99999999999997
 30
0.0
 11
-1111.0573207031248
 21
-155.25033352716645
 31
0.0
 12
-1111.0573207031248
 22
-158.7496664728335
 32
0.0
 13
-1111.0573207031248
 23
-158.7496664728335
 33
0.0
  0
SOLID
  5
189
100
AcDbEntity
  8
____
 62
               2
100
AcDbTrace
 10
-581.05599999999993
 20
-156.99999999999997
 30
0.0
 11
-601.05477929687493
 21
-158.7496664728335
 31
0.0
 12
-601.05477929687493
 22
-155.25033352716648
 32
0.0
 13
-601.05477929687493
 23
-155.25033352716648
 33
0.0
  0
MTEXT
  5
18A
100
AcDbEntity
  8
____
 62
               2
100
AcDbMText
 10
-871.93104999999991
 20
-127.74825524558622
 30
0.0
 40
16.288411458333332
 41
0.0
 71
               1
 72
               1
  1
550
  7
_______
  0
LINE
  5
18B
100
AcDbEntity
  8
____
  6
CONTINUOUS
 62
               2
100
AcDbLine
 10
-1111.0560998603016
 20
747.26570055879347
 30
0.0
 11
-1238.792399987698
 21
747.26570293806742
 31
0.0
  0
LINE
  5
18C
100
AcDbEntity
  8
____
  6
CONTINUOUS
 62
               2
100
AcDbLine
 10
-1111.0559998603014
 20
772.26570055879347
 30
0.0
 11
-1238.7923995220367
 21
772.26570293806935
 31
0.0
  0
LINE
  5
18D
100
AcDbEntity
  8
____
  6
CONTINUOUS
 62
               2
100
AcDbLine
 10
-1218.7924004533593
 20
727.26570265867065
 30
0.0
 11
-1218.7924000808302
 21
747.26570256553839
 31
0.0
  0
LINE
  5
18E
100
AcDbEntity
  8
____
  6
CONTINUOUS
 62
               2
100
AcDbLine
 10
-1218.792399615169
 20
772.26570256554032
 30
0.0
 11
-1218.7923992426399
 21
792.26570247240807
 31
0.0
  0
LINE
  5
18F
100
AcDbEntity
  8
____
  6
CONTINUOUS
 62
               2
100
AcDbLine
 10
-1218.7924000808302
 20
747.26570256553839
 30
0.0
 11
-1218.792399615169
 21
772.26570256554032
 31
0.0
  0
SOLID
  5
190
100
AcDbEntity
  8
____
 62
               2
100
AcDbTrace
 10
-1218.7924000808302
 20
747.26570256553839
 30
0.0
 11
-1220.1927732464467
 21
767.29197184187376
 31
0.0
 12
-1216.6939732661367
 22
767.23090006104667
 32
0.0
 13
-1216.6939732661367
 23
767.23090006104667
 33
0.0
  0
SOLID
  5
191
100
AcDbEntity
  8
____
 62
               2
100
AcDbTrace
 10
-1218.792399615169
 20
772.26570256554032
 30
0.0
 11
-1217.0427331423355
 21
752.26692326866532
 31
0.0
 12
-1220.5420660880025
 22
752.26692326866532
 32
0.0
 13
-1220.5420660880025
 23
752.26692326866532
 33
0.0
  0
MTEXT
  5
192
100
AcDbEntity
  8
____
 62
               2
100
AcDbMText
 10
-1248.0441751819014
 20
746.68235289011398
 30
0.0
 40
16.288437109375
 41
0.0
 71
               1
 72
               1
  1
25
  7
_______
 11
0.0000000186264516
 21
0.9999999999999998
 31
0.0
  0
POLYLINE
  5
193
100
AcDbEntity
  8
____
  6
CONTINUOUS
 62
              30
100
AcDb2dPolyline
 66
               1
 10
0.0
 20
0.0
 30
0.0
 70
               1
 75
               5
  0
VERTEX
  5
194
100
AcDbEntity
  8
____
  6
CONTINUOUS
 62
              30
100
AcDbVertex
100
AcDb2dVertex
 10
-756.05619999999999
 20
747.26559999999995
 30
0.0
  0
VERTEX
  5
195
100
AcDbEntity
  8
____
  6
CONTINUOUS
 62
              30
100
AcDbVertex
100
AcDb2dVertex
 10
-706.05619999999999
 20
747.26559999999995
 30
0.0
  0
VERTEX
  5
196
100
AcDbEntity
  8
____
  6
CONTINUOUS
 62
              30
100
AcDbVertex
100
AcDb2dVertex
 10
-706.05589999999995
 20
722.2657999999999
 30
0.0
  0
VERTEX
  5
197
100
AcDbEntity
  8
____
  6
CONTINUOUS
 62
              30
100
AcDbVertex
100
AcDb2dVertex
 10
-756.05579999999998
 20
722.26569999999992
 30
0.0
  0
SEQEND
  5
198
100
AcDbEntity
  8
____
  6
CONTINUOUS
 62
              30
  0
POLYLINE
  5
19A
100
AcDbEntity
  8
____
  6
CONTINUOUS
 62
              30
100
AcDb2dPolyline
 66
               1
 10
0.0
 20
0.0
 30
0.0
 70
               1
 75
               5
  0
VERTEX
  5
19B
100
AcDbEntity
  8
____
  6
CONTINUOUS
 62
              30
100
AcDbVertex
100
AcDb2dVertex
 10
-754.05569999999989
 20
745.2657999999999
 30
0.0
  0
VERTEX
  5
19C
100
AcDbEntity
  8
____
  6
CONTINUOUS
 62
              30
100
AcDbVertex
100
AcDb2dVertex
 10
-708.05579999999998
 20
745.26569999999992
 30
0.0
  0
VERTEX
  5
19D
100
AcDbEntity
  8
____
  6
CONTINUOUS
 62
              30
100
AcDbVertex
100
AcDb2dVertex
 10
-708.05589999999995
 20
724.26539999999989
 30
0.0
  0
VERTEX
  5
19E
100
AcDbEntity
  8
____
  6
CONTINUOUS
 62
              30
100
AcDbVertex
100
AcDb2dVertex
 10
-754.05579999999998
 20
724.26569999999992
 30
0.0
  0
SEQEND
  5
19F
100
AcDbEntity
  8
____
  6
CONTINUOUS
 62
              30
  0
POLYLINE
  5
1A1
100
AcDbEntity
  8
____
  6
CONTINUOUS
 62
              30
100
AcDb2dPolyline
 66
               1
 10
0.0
 20
0.0
 30
0.0
 70
               1
 75
               5
  0
VERTEX
  5
1A2
100
AcDbEntity
  8
____
  6
CONTINUOUS
 62
              30
100
AcDbVertex
100
AcDb2dVertex
 10
-1081.0561
 20
769.10449999999992
 30
0.0
  0
VERTEX
  5
1A3
100
AcDbEntity
  8
____
  6
CONTINUOUS
 62
              30
100
AcDbVertex
100
AcDb2dVertex
 10
-631.05619999999999
 20
769.10429999999997
 30
0.0
  0
VERTEX
  5
1A4
100
AcDbEntity
  8
____
  6
CONTINUOUS
 62
              30
100
AcDbVertex
100
AcDb2dVertex
 10
-631.05619999999999
 20
789.10429999999997
 30
0.0
  0
VERTEX
  5
1A5
100
AcDbEntity
  8
____
  6
CONTINUOUS
 62
              30
100
AcDbVertex
100
AcDb2dVertex
 10
-636.0560999999999
 20
794.10429999999997
 30
0.0
  0
VERTEX
  5
1A6
100
AcDbEntity
  8
____
  6
CONTINUOUS
 62
              30
100
AcDbVertex
100
AcDb2dVertex
 10
-1076.0561
 20
794.10439999999994
 30
0.0
  0
VERTEX
  5
1A7
100
AcDbEntity
  8
____
  6
CONTINUOUS
 62
              30
100
AcDbVertex
100
AcDb2dVertex
 10
-1081.0562
 20
789.10429999999997
 30
0.0
  0
SEQEND
  5
1A8
100
AcDbEntity
  8
____
  6
CONTINUOUS
 62
              30
  0
POLYLINE
  5
1AA
100
AcDbEntity
  8
____
  6
CONTINUOUS
 62
              30
100
AcDb2dPolyline
 66
               1
 10
0.0
 20
0.0
 30
0.0
 70
               1
 75
               5
  0
VERTEX
  5
1AB
100
AcDbEntity
  8
____
  6
CONTINUOUS
 62
              30
100
AcDbVertex
100
AcDb2dVertex
 10
-631.05619999999999
 20
-420.23439999999994
 30
0.0
  0
VERTEX
  5
1AC
100
AcDbEntity
  8
____
  6
CONTINUOUS
 62
              30
100
AcDbVertex
100
AcDb2dVertex
 10
-636.05629999999996
 20
-415.23429999999996
 30
0.0
  0
VERTEX
  5
1AD
100
AcDbEntity
  8
____
  6
CONTINUOUS
 62
              30
100
AcDbVertex
100
AcDb2dVertex
 10
-1076.0562
 20
-415.23419999999999
 30
0.0
  0
VERTEX
  5
1AE
100
AcDbEntity
  8
____
  6
CONTINUOUS
 62
              30
100
AcDbVertex
100
AcDb2dVertex
 10
-1081.0561
 20
-420.23429999999996
 30
0.0
  0
SEQEND
  5
1AF
100
AcDbEntity
  8
____
  6
CONTINUOUS
 62
              30
  0
POLYLINE
  5
1B1
100
AcDbEntity
  8
____
  6
CONTINUOUS
 62
              30
100
AcDb2dPolyline
 66
               1
 10
0.0
 20
0.0
 30
0.0
 70
               1
 75
               5
  0
VERTEX
  5
1B2
100
AcDbEntity
  8
____
  6
CONTINUOUS
 62
              30
100
AcDbVertex
100
AcDb2dVertex
 10
-1081.0561
 20
352.26579999999996
 30
0.0
  0
VERTEX
  5
1B3
100
AcDbEntity
  8
____
  6
CONTINUOUS
 62
              30
100
AcDbVertex
100
AcDb2dVertex
 10
-1081.0561
 20
722.26560779327087
 30
0.0
  0
VERTEX
  5
1B4
100
AcDbEntity
  8
____
  6
CONTINUOUS
 62
              30
100
AcDbVertex
100
AcDb2dVertex
 10
-1064.0561
 20
722.26560779327087
 30
0.0
  0
VERTEX
  5
1B5
100
AcDbEntity
  8
____
  6
CONTINUOUS
 62
              30
100
AcDbVertex
100
AcDb2dVertex
 10
-641.05619863013726
 20
722.26569950484952
 30
0.0
  0
VERTEX
  5
1B6
100
AcDbEntity
  8
____
  6
CONTINUOUS
 62
              30
100
AcDbVertex
100
AcDb2dVertex
 10
-636.05599999999993
 20
722.26569999999992
 30
0.0
  0
VERTEX
  5
1B7
100
AcDbEntity
  8
____
  6
CONTINUOUS
 62
              30
100
AcDbVertex
100
AcDb2dVertex
 10
-631.05619863013726
 20
722.26569950484952
 30
0.0
  0
VERTEX
  5
1B8
100
AcDbEntity
  8
____
  6
CONTINUOUS
 62
              30
100
AcDbVertex
100
AcDb2dVertex
 10
-631.05619863013726
 20
712.26569950484952
 30
0.0
  0
VERTEX
  5
1B9
100
AcDbEntity
  8
____
  6
CONTINUOUS
 62
              30
100
AcDbVertex
100
AcDb2dVertex
 10
-631.0560999999999
 20
352.26559999999995
 30
0.0
  0
SEQEND
  5
1BA
100
AcDbEntity
  8
____
  6
CONTINUOUS
 62
              30
  0
INSERT
  5
1BC
100
AcDbEntity
  8
____
 62
              30
100
AcDbBlockReference
  2
*X0
 10
0.0
 20
0.0
 30
0.0
  0
POLYLINE
  5
1BD
100
AcDbEntity
  8
____
  6
CONTINUOUS
 62
              30
100
AcDb2dPolyline
 66
               1
 10
0.0
 20
0.0
 30
0.0
 70
               1
 75
               5
  0
VERTEX
  5
1BE
100
AcDbEntity
  8
____
  6
CONTINUOUS
 62
              30
100
AcDbVertex
100
AcDb2dVertex
 10
-1081.0562
 20
402.26569999999998
 30
0.0
  0
VERTEX
  5
1BF
100
AcDbEntity
  8
____
  6
CONTINUOUS
 62
              30
100
AcDbVertex
100
AcDb2dVertex
 10
-1081.0561
 20
352.26579999999996
 30
0.0
  0
VERTEX
  5
1C0
100
AcDbEntity
  8
____
  6
CONTINUOUS
 62
              30
100
AcDbVertex
100
AcDb2dVertex
 10
-631.0560999999999
 20
352.26559999999995
 30
0.0
  0
VERTEX
  5
1C1
100
AcDbEntity
  8
____
  6
CONTINUOUS
 62
              30
100
AcDbVertex
100
AcDb2dVertex
 10
-631.05619999999999
 20
402.26559999999995
 30
0.0
  0
SEQEND
  5
1C2
100
AcDbEntity
  8
____
  6
CONTINUOUS
 62
              30
  0
INSERT
  5
1C4
100
AcDbEntity
  8
____
 62
              30
100
AcDbBlockReference
  2
*X1
 10
0.0
 20
0.0
 30
0.0
  0
POLYLINE
  5
1C5
100
AcDbEntity
  8
____
  6
CONTINUOUS
 62
              30
100
AcDb2dPolyline
 66
               1
 10
0.0
 20
0.0
 30
0.0
 70
               1
 75
               5
  0
VERTEX
  5
1C6
100
AcDbEntity
  8
____
  6
CONTINUOUS
 62
              30
100
AcDbVertex
100
AcDb2dVertex
 10
-1076.0561
 20
-720.23419999999999
 30
0.0
  0
VERTEX
  5
1C7
100
AcDbEntity
  8
____
  6
CONTINUOUS
 62
              30
100
AcDbVertex
100
AcDb2dVertex
 10
-1081.0561
 20
-725.23429999999996
 30
0.0
  0
VERTEX
  5
1C8
100
AcDbEntity
  8
____
  6
CONTINUOUS
 62
              30
100
AcDbVertex
100
AcDb2dVertex
 10
-1081.0561
 20
-860.23429999999996
 30
0.0
  0
VERTEX
  5
1C9
100
AcDbEntity
  8
____
  6
CONTINUOUS
 62
              30
100
AcDbVertex
100
AcDb2dVertex
 10
-1076.0562
 20
-865.23429999999996
 30
0.0
  0
VERTEX
  5
1CA
100
AcDbEntity
  8
____
  6
CONTINUOUS
 62
              30
100
AcDbVertex
100
AcDb2dVertex
 10
-636.0560999999999
 20
-865.23429999999996
 30
0.0
  0
VERTEX
  5
1CB
100
AcDbEntity
  8
____
  6
CONTINUOUS
 62
              30
100
AcDbVertex
100
AcDb2dVertex
 10
-631.05619999999999
 20
-860.23439999999994
 30
0.0
  0
VERTEX
  5
1CC
100
AcDbEntity
  8
____
  6
CONTINUOUS
 62
              30
100
AcDbVertex
100
AcDb2dVertex
 10
-631.05619999999999
 20
-725.23449999999991
 30
0.0
  0
VERTEX
  5
1CD
100
AcDbEntity
  8
____
  6
CONTINUOUS
 62
              30
100
AcDbVertex
100
AcDb2dVertex
 10
-636.05619999999999
 20
-720.23429999999996
 30
0.0
  0
SEQEND
  5
1CE
100
AcDbEntity
  8
____
  6
CONTINUOUS
 62
              30
  0
POLYLINE
  5
1D0
100
AcDbEntity
  8
____
  6
CONTINUOUS
 62
              30
100
AcDb2dPolyline
 66
               1
 10
0.0
 20
0.0
 30
0.0
 70
               1
 75
               5
  0
VERTEX
  5
1D1
100
AcDbEntity
  8
____
  6
CONTINUOUS
 62
              30
100
AcDbVertex
100
AcDb2dVertex
 10
-1076.0561
 20
-570.23439999999994
 30
0.0
  0
VERTEX
  5
1D2
100
AcDbEntity
  8
____
  6
CONTINUOUS
 62
              30
100
AcDbVertex
100
AcDb2dVertex
 10
-1081.0562
 20
-575.23419999999999
 30
0.0
  0
VERTEX
  5
1D3
100
AcDbEntity
  8
____
  6
CONTINUOUS
 62
              30
100
AcDbVertex
100
AcDb2dVertex
 10
-1081.0562
 20
-710.23439999999994
 30
0.0
  0
VERTEX
  5
1D4
100
AcDbEntity
  8
____
  6
CONTINUOUS
 62
              30
100
AcDbVertex
100
AcDb2dVertex
 10
-1076.0562
 20
-715.23429999999996
 30
0.0
  0
VERTEX
  5
1D5
100
AcDbEntity
  8
____
  6
CONTINUOUS
 62
              30
100
AcDbVertex
100
AcDb2dVertex
 10
-636.0560999999999
 20
-715.23429999999996
 30
0.0
  0
VERTEX
  5
1D6
100
AcDbEntity
  8
____
  6
CONTINUOUS
 62
              30
100
AcDbVertex
100
AcDb2dVertex
 10
-631.05619999999999
 20
-710.23439999999994
 30
0.0
  0
VERTEX
  5
1D7
100
AcDbEntity
  8
____
  6
CONTINUOUS
 62
              30
100
AcDbVertex
100
AcDb2dVertex
 10
-631.05619999999999
 20
-575.23439999999994
 30
0.0
  0
VERTEX
  5
1D8
100
AcDbEntity
  8
____
  6
CONTINUOUS
 62
              30
100
AcDbVertex
100
AcDb2dVertex
 10
-636.05619999999999
 20
-570.23439999999994
 30
0.0
  0
SEQEND
  5
1D9
100
AcDbEntity
  8
____
  6
CONTINUOUS
 62
              30
  0
POLYLINE
  5
1DB
100
AcDbEntity
  8
____
  6
CONTINUOUS
 62
              30
100
AcDb2dPolyline
 66
               1
 10
0.0
 20
0.0
 30
0.0
 70
               1
 75
               5
  0
VERTEX
  5
1DC
100
AcDbEntity
  8
____
  6
CONTINUOUS
 62
              30
100
AcDbVertex
100
AcDb2dVertex
 10
-631.05619999999999
 20
-560.23429999999996
 30
0.0
  0
VERTEX
  5
1DD
100
AcDbEntity
  8
____
  6
CONTINUOUS
 62
              30
100
AcDbVertex
100
AcDb2dVertex
 10
-631.05619999999999
 20
-420.23439999999994
 30
0.0
  0
VERTEX
  5
1DE
100
AcDbEntity
  8
____
  6
CONTINUOUS
 62
              30
100
AcDbVertex
100
AcDb2dVertex
 10
-1081.0561
 20
-420.23429999999996
 30
0.0
  0
VERTEX
  5
1DF
100
AcDbEntity
  8
____
  6
CONTINUOUS
 62
              30
100
AcDbVertex
100
AcDb2dVertex
 10
-1081.0561
 20
-560.23429999999996
 30
0.0
  0
VERTEX
  5
1E0
100
AcDbEntity
  8
____
  6
CONTINUOUS
 62
              30
100
AcDbVertex
100
AcDb2dVertex
 10
-1076.0562
 20
-565.23429999999996
 30
0.0
  0
VERTEX
  5
1E1
100
AcDbEntity
  8
____
  6
CONTINUOUS
 62
              30
100
AcDbVertex
100
AcDb2dVertex
 10
-636.0560999999999
 20
-565.23439999999994
 30
0.0
  0
SEQEND
  5
1E2
100
AcDbEntity
  8
____
  6
CONTINUOUS
 62
              30
  0
LINE
  5
1E4
100
AcDbEntity
  8
____
  6
CONTINUOUS
 62
              30
100
AcDbLine
 10
530.44380000000001
 20
672.26559999999995
 30
0.0
 11
630.44369999999992
 21
402.26559999999995
 31
0.0
  0
POLYLINE
  5
1E5
100
AcDbEntity
  8
____
  6
CONTINUOUS
 62
              30
100
AcDb2dPolyline
 66
               1
 10
0.0
 20
0.0
 30
0.0
 70
               1
 75
               5
  0
VERTEX
  5
1E6
100
AcDbEntity
  8
____
  6
CONTINUOUS
 62
              30
100
AcDbVertex
100
AcDb2dVertex
 10
967.47079999999994
 20
743.61709999999994
 30
0.0
  0
VERTEX
  5
1E7
100
AcDbEntity
  8
____
  6
CONTINUOUS
 62
              30
100
AcDbVertex
100
AcDb2dVertex
 10
966.2222999999999
 20
768.58589999999992
 30
0.0
  0
VERTEX
  5
1E8
100
AcDbEntity
  8
____
  6
CONTINUOUS
 62
              30
100
AcDbVertex
100
AcDb2dVertex
 10
539.19529999999997
 20
747.23449999999991
 30
0.0
  0
VERTEX
  5
1E9
100
AcDbEntity
  8
____
  6
CONTINUOUS
 62
              30
100
AcDbVertex
100
AcDb2dVertex
 10
540.4437999999999
 20
722.26559999999995
 30
0.0
  0
SEQEND
  5
1EA
100
AcDbEntity
  8
____
  6
CONTINUOUS
 62
              30
  0
POLYLINE
  5
1EC
100
AcDbEntity
  8
____
  6
CONTINUOUS
 62
              30
100
AcDb2dPolyline
 66
               1
 10
0.0
 20
0.0
 30
0.0
 70
               1
 75
               5
  0
VERTEX
  5
1ED
100
AcDbEntity
  8
____
  6
CONTINUOUS
 62
              30
100
AcDbVertex
100
AcDb2dVertex
 10
-1081.0561
 20
761.73289999999997
 30
0.0
  0
VERTEX
  5
1EE
100
AcDbEntity
  8
____
  6
CONTINUOUS
 62
              30
100
AcDbVertex
100
AcDb2dVertex
 10
-631.0560999999999
 20
761.73279999999988
 30
0.0
  0
VERTEX
  5
1EF
100
AcDbEntity
  8
____
  6
CONTINUOUS
 62
              30
100
AcDbVertex
100
AcDb2dVertex
 10
-631.05619999999999
 20
781.73269999999991
 30
0.0
  0
VERTEX
  5
1F0
100
AcDbEntity
  8
____
  6
CONTINUOUS
 62
              30
100
AcDbVertex
100
AcDb2dVertex
 10
-636.05619999999999
 20
786.73269999999991
 30
0.0
  0
VERTEX
  5
1F1
100
AcDbEntity
  8
____
  6
CONTINUOUS
 62
              30
100
AcDbVertex
100
AcDb2dVertex
 10
-1076.0561
 20
786.73279999999988
 30
0.0
  0
VERTEX
  5
1F2
100
AcDbEntity
  8
____
  6
CONTINUOUS
 62
              30
100
AcDbVertex
100
AcDb2dVertex
 10
-1081.0561
 20
781.73269999999991
 30
0.0
  0
SEQEND
  5
1F3
100
AcDbEntity
  8
____
  6
CONTINUOUS
 62
              30
  0
POLYLINE
  5
1F5
100
AcDbEntity
  8
____
  6
CONTINUOUS
 62
              30
100
AcDb2dPolyline
 66
               1
 10
0.0
 20
0.0
 30
0.0
 70
               1
 75
               5
  0
VERTEX
  5
1F6
100
AcDbEntity
  8
____
  6
CONTINUOUS
 62
              30
100
AcDbVertex
100
AcDb2dVertex
 10
-1076.0561
 20
772.26569999999992
 30
0.0
  0
VERTEX
  5
1F7
100
AcDbEntity
  8
____
  6
CONTINUOUS
 62
              30
100
AcDbVertex
100
AcDb2dVertex
 10
-1081.0561
 20
767.2657999999999
 30
0.0
  0
VERTEX
  5
1F8
100
AcDbEntity
  8
____
  6
CONTINUOUS
 62
              30
100
AcDbVertex
100
AcDb2dVertex
 10
-1081.0561
 20
752.2657999999999
 30
0.0
  0
VERTEX
  5
1F9
100
AcDbEntity
  8
____
  6
CONTINUOUS
 62
              30
100
AcDbVertex
100
AcDb2dVertex
 10
-1076.0561
 20
747.26569999999992
 30
0.0
  0
VERTEX
  5
1FA
100
AcDbEntity
  8
____
  6
CONTINUOUS
 62
              30
100
AcDbVertex
100
AcDb2dVertex
 10
-636.0560999999999
 20
747.26559999999995
 30
0.0
  0
VERTEX
  5
1FB
100
AcDbEntity
  8
____
  6
CONTINUOUS
 62
              30
100
AcDbVertex
100
AcDb2dVertex
 10
-631.0560999999999
 20
752.26559999999995
 30
0.0
  0
VERTEX
  5
1FC
100
AcDbEntity
  8
____
  6
CONTINUOUS
 62
              30
100
AcDbVertex
100
AcDb2dVertex
 10
-631.05619999999999
 20
767.26559999999995
 30
0.0
  0
VERTEX
  5
1FD
100
AcDbEntity
  8
____
  6
CONTINUOUS
 62
              30
100
AcDbVertex
100
AcDb2dVertex
 10
-636.05599999999993
 20
772.26569999999992
 30
0.0
  0
SEQEND
  5
1FE
100
AcDbEntity
  8
____
  6
CONTINUOUS
 62
              30
  0
POLYLINE
  5
200
100
AcDbEntity
  8
____
  6
CONTINUOUS
 62
              30
100
AcDb2dPolyline
 66
               1
 10
0.0
 20
0.0
 30
0.0
 70
               1
 75
               5
  0
VERTEX
  5
201
100
AcDbEntity
  8
____
  6
CONTINUOUS
 62
              30
100
AcDbVertex
100
AcDb2dVertex
 10
529.4609999999999
 20
767.23759999999993
 30
0.0
  0
VERTEX
  5
202
100
AcDbEntity
  8
____
  6
CONTINUOUS
 62
              30
100
AcDbVertex
100
AcDb2dVertex
 10
530.19819999999993
 20
752.25569999999993
 30
0.0
  0
VERTEX
  5
203
100
AcDbEntity
  8
____
  6
CONTINUOUS
 62
              30
100
AcDbVertex
100
AcDb2dVertex
 10
535.44179999999994
 20
747.51149999999996
 30
0.0
  0
VERTEX
  5
204
100
AcDbEntity
  8
____
  6
CONTINUOUS
 62
              30
100
AcDbVertex
100
AcDb2dVertex
 10
675.2684999999999
 20
754.39149999999995
 30
0.0
  0
VERTEX
  5
205
100
AcDbEntity
  8
____
  6
CONTINUOUS
 62
              30
100
AcDbVertex
100
AcDb2dVertex
 10
674.28539999999998
 20
774.37139999999988
 30
0.0
  0
VERTEX
  5
206
100
AcDbEntity
  8
____
  6
CONTINUOUS
 62
              30
100
AcDbVertex
100
AcDb2dVertex
 10
669.04189999999994
 20
779.11539999999991
 30
0.0
  0
VERTEX
  5
207
100
AcDbEntity
  8
____
  6
CONTINUOUS
 62
              30
100
AcDbVertex
100
AcDb2dVertex
 10
534.20499999999993
 20
772.48099999999988
 30
0.0
  0
SEQEND
  5
208
100
AcDbEntity
  8
____
  6
CONTINUOUS
 62
              30
  0
POLYLINE
  5
20A
100
AcDbEntity
  8
____
  6
CONTINUOUS
 62
              30
100
AcDb2dPolyline
 66
               1
 10
0.0
 20
0.0
 30
0.0
 70
               1
 75
               5
  0
VERTEX
  5
20B
100
AcDbEntity
  8
____
  6
CONTINUOUS
 62
              30
100
AcDbVertex
100
AcDb2dVertex
 10
825.08739999999989
 20
761.76299999999992
 30
0.0
  0
VERTEX
  5
20C
100
AcDbEntity
  8
____
  6
CONTINUOUS
 62
              30
100
AcDbVertex
100
AcDb2dVertex
 10
824.10419999999988
 20
781.74279999999999
 30
0.0
  0
VERTEX
  5
20D
100
AcDbEntity
  8
____
  6
CONTINUOUS
 62
              30
100
AcDbVertex
100
AcDb2dVertex
 10
818.86079999999993
 20
786.48689999999988
 30
0.0
  0
VERTEX
  5
20E
100
AcDbEntity
  8
____
  6
CONTINUOUS
 62
              30
100
AcDbVertex
100
AcDb2dVertex
 10
684.02379999999994
 20
779.85249999999996
 30
0.0
  0
VERTEX
  5
20F
100
AcDbEntity
  8
____
  6
CONTINUOUS
 62
              30
100
AcDbVertex
100
AcDb2dVertex
 10
679.27979999999991
 20
774.6090999999999
 30
0.0
  0
VERTEX
  5
210
100
AcDbEntity
  8
____
  6
CONTINUOUS
 62
              30
100
AcDbVertex
100
AcDb2dVertex
 10
680.26249999999993
 20
754.63729999999998
 30
0.0
  0
SEQEND
  5
211
100
AcDbEntity
  8
____
  6
CONTINUOUS
 62
              30
  0
POLYLINE
  5
213
100
AcDbEntity
  8
____
  6
CONTINUOUS
 62
              30
100
AcDb2dPolyline
 66
               1
 10
0.0
 20
0.0
 30
0.0
 70
               1
 75
               5
  0
VERTEX
  5
214
100
AcDbEntity
  8
____
  6
CONTINUOUS
 62
              30
100
AcDbVertex
100
AcDb2dVertex
 10
830.08129999999994
 20
762.00879999999995
 30
0.0
  0
VERTEX
  5
215
100
AcDbEntity
  8
____
  6
CONTINUOUS
 62
              30
100
AcDbVertex
100
AcDb2dVertex
 10
969.92779999999993
 20
768.88959999999997
 30
0.0
  0
VERTEX
  5
216
100
AcDbEntity
  8
____
  6
CONTINUOUS
 62
              30
100
AcDbVertex
100
AcDb2dVertex
 10
974.66139999999996
 20
774.10469999999998
 30
0.0
  0
VERTEX
  5
217
100
AcDbEntity
  8
____
  6
CONTINUOUS
 62
              30
100
AcDbVertex
100
AcDb2dVertex
 10
973.92289999999991
 20
789.11439999999993
 30
0.0
  0
VERTEX
  5
218
100
AcDbEntity
  8
____
  6
CONTINUOUS
 62
              30
100
AcDbVertex
100
AcDb2dVertex
 10
968.67939999999987
 20
793.85839999999996
 30
0.0
  0
VERTEX
  5
219
100
AcDbEntity
  8
____
  6
CONTINUOUS
 62
              30
100
AcDbVertex
100
AcDb2dVertex
 10
833.84269999999992
 20
787.22399999999993
 30
0.0
  0
VERTEX
  5
21A
100
AcDbEntity
  8
____
  6
CONTINUOUS
 62
              30
100
AcDbVertex
100
AcDb2dVertex
 10
829.09859999999992
 20
781.98049999999989
 30
0.0
  0
SEQEND
  5
21B
100
AcDbEntity
  8
____
  6
CONTINUOUS
 62
              30
  0
POLYLINE
  5
21D
100
AcDbEntity
  8
____
  6
CONTINUOUS
 62
              30
100
AcDb2dPolyline
 66
               1
 10
0.0
 20
0.0
 30
0.0
 70
               1
 75
               5
  0
VERTEX
  5
21E
100
AcDbEntity
  8
____
  6
CONTINUOUS
 62
              30
100
AcDbVertex
100
AcDb2dVertex
 10
630.44369999999992
 20
402.26559999999995
 30
0.0
  0
VERTEX
  5
21F
100
AcDbEntity
  8
____
  6
CONTINUOUS
 62
              30
100
AcDbVertex
100
AcDb2dVertex
 10
530.44380000000001
 20
672.26559999999995
 30
0.0
  0
VERTEX
  5
220
100
AcDbEntity
  8
____
  6
CONTINUOUS
 62
              30
100
AcDbVertex
100
AcDb2dVertex
 10
530.44380000000001
 20
722.26561414884918
 30
0.0
  0
VERTEX
  5
221
100
AcDbEntity
  8
____
  6
CONTINUOUS
 62
              30
100
AcDbVertex
100
AcDb2dVertex
 10
975.44999999999993
 20
744.51599999999996
 30
0.0
  0
VERTEX
  5
222
100
AcDbEntity
  8
____
  6
CONTINUOUS
 62
              30
100
AcDbVertex
100
AcDb2dVertex
 10
980.44370585032652
 20
744.76568614369171
 30
0.0
  0
VERTEX
  5
223
100
AcDbEntity
  8
____
  6
CONTINUOUS
 62
              30
100
AcDbVertex
100
AcDb2dVertex
 10
980.44370980003703
 20
701.99999999999989
 30
0.0
  0
VERTEX
  5
224
100
AcDbEntity
  8
____
  6
CONTINUOUS
 62
              30
100
AcDbVertex
100
AcDb2dVertex
 10
980.4437999999999
 20
352.26569999999998
 30
0.0
  0
VERTEX
  5
225
100
AcDbEntity
  8
____
  6
CONTINUOUS
 62
              30
100
AcDbVertex
100
AcDb2dVertex
 10
980.44369999999992
 20
202.26569999999998
 30
0.0
  0
VERTEX
  5
226
100
AcDbEntity
  8
____
  6
CONTINUOUS
 62
              30
100
AcDbVertex
100
AcDb2dVertex
 10
630.4437999999999
 20
202.26549999999997
 30
0.0
  0
VERTEX
  5
227
100
AcDbEntity
  8
____
  6
CONTINUOUS
 62
              30
100
AcDbVertex
100
AcDb2dVertex
 10
630.4437999999999
 20
352.26559999999995
 30
0.0
  0
SEQEND
  5
228
100
AcDbEntity
  8
____
  6
CONTINUOUS
 62
              30
  0
INSERT
  5
22A
100
AcDbEntity
  8
____
 62
              30
100
AcDbBlockReference
  2
*X2
 10
0.0
 20
0.0
 30
0.0
  0
LINE
  5
22B
100
AcDbEntity
  8
____
  6
CONTINUOUS
 62
              30
100
AcDbLine
 10
1260.0
 20
352.26569999999998
 30
0.0
 11
265.0
 21
352.26569999999998
 31
0.0
  0
POLYLINE
  5
22C
100
AcDbEntity
  8
____
  6
CONTINUOUS
 62
              30
100
AcDb2dPolyline
 66
               1
 10
0.0
 20
0.0
 30
0.0
 70
               1
 75
               5
  0
VERTEX
  5
22D
100
AcDbEntity
  8
____
  6
CONTINUOUS
 62
              30
100
AcDbVertex
100
AcDb2dVertex
 10
580.4437999999999
 20
102.26559999999999
 30
0.0
  0
VERTEX
  5
22E
100
AcDbEntity
  8
____
  6
CONTINUOUS
 62
              30
100
AcDbVertex
100
AcDb2dVertex
 10
1030.4438
 20
102.2657
 30
0.0
  0
VERTEX
  5
22F
100
AcDbEntity
  8
____
  6
CONTINUOUS
 62
              30
100
AcDbVertex
100
AcDb2dVertex
 10
1030.4439
 20
2.2656999999999998
 30
0.0
  0
VERTEX
  5
230
100
AcDbEntity
  8
____
  6
CONTINUOUS
 62
              30
100
AcDbVertex
100
AcDb2dVertex
 10
580.4437999999999
 20
2.2655999999999996
 30
0.0
  0
SEQEND
  5
231
100
AcDbEntity
  8
____
  6
CONTINUOUS
 62
              30
  0
LINE
  5
233
100
AcDbEntity
  8
____
  6
CONTINUOUS
 62
              30
100
AcDbLine
 10
597.4437999999999
 20
102.2657
 30
0.0
 11
590.51559999999995
 21
90.265699999999995
 31
0.0
  0
LINE
  5
234
100
AcDbEntity
  8
____
  6
CONTINUOUS
 62
              30
100
AcDbLine
 10
583.4437999999999
 20
102.26559999999999
 30
0.0
 11
641.1789
 21
2.2656999999999998
 31
0.0
  0
LINE
  5
235
100
AcDbEntity
  8
____
  6
CONTINUOUS
 62
              30
100
AcDbLine
 10
633.67329999999993
 20
15.265799999999999
 30
0.0
 11
626.16769999999997
 21
2.2656999999999998
 31
0.0
  0
LINE
  5
236
100
AcDbEntity
  8
____
  6
CONTINUOUS
 62
              30
100
AcDbLine
 10
667.4437999999999
 20
102.26559999999999
 30
0.0
 11
660.51569999999992
 21
90.265699999999995
 31
0.0
  0
LINE
  5
237
100
AcDbEntity
  8
____
  6
CONTINUOUS
 62
              30
100
AcDbLine
 10
653.44369999999992
 20
102.2657
 30
0.0
 11
711.17889999999989
 21
2.2656999999999998
 31
0.0
  0
LINE
  5
238
100
AcDbEntity
  8
____
  6
CONTINUOUS
 62
              30
100
AcDbLine
 10
703.67319999999995
 20
15.265599999999999
 30
0.0
 11
696.16769999999997
 21
2.2656999999999998
 31
0.0
  0
LINE
  5
239
100
AcDbEntity
  8
____
  6
CONTINUOUS
 62
              30
100
AcDbLine
 10
737.44369999999992
 20
102.26559999999999
 30
0.0
 11
730.51559999999995
 21
90.265599999999992
 31
0.0
  0
LINE
  5
23A
100
AcDbEntity
  8
____
  6
CONTINUOUS
 62
              30
100
AcDbLine
 10
723.4437999999999
 20
102.2657
 30
0.0
 11
781.17899999999997
 21
2.2655999999999996
 31
0.0
  0
LINE
  5
23B
100
AcDbEntity
  8
____
  6
CONTINUOUS
 62
              30
100
AcDbLine
 10
773.67319999999995
 20
15.265699999999999
 30
0.0
 11
766.16779999999994
 21
2.2655999999999996
 31
0.0
  0
LINE
  5
23C
100
AcDbEntity
  8
____
  6
CONTINUOUS
 62
              30
100
AcDbLine
 10
807.4437999999999
 20
102.2657
 30
0.0
 11
800.51559999999995
 21
90.265699999999995
 31
0.0
  0
LINE
  5
23D
100
AcDbEntity
  8
____
  6
CONTINUOUS
 62
              30
100
AcDbLine
 10
793.4437999999999
 20
102.26559999999999
 30
0.0
 11
851.17889999999989
 21
2.2656999999999998
 31
0.0
  0
LINE
  5
23E
100
AcDbEntity
  8
____
  6
CONTINUOUS
 62
              30
100
AcDbLine
 10
843.67329999999993
 20
15.265699999999999
 30
0.0
 11
836.16769999999997
 21
2.2656999999999998
 31
0.0
  0
LINE
  5
23F
100
AcDbEntity
  8
____
  6
CONTINUOUS
 62
              30
100
AcDbLine
 10
877.44369999999992
 20
102.26559999999999
 30
0.0
 11
870.51569999999992
 21
90.265699999999995
 31
0.0
  0
LINE
  5
240
100
AcDbEntity
  8
____
  6
CONTINUOUS
 62
              30
100
AcDbLine
 10
863.44369999999992
 20
102.2657
 30
0.0
 11
921.17889999999989
 21
2.2656999999999998
 31
0.0
  0
LINE
  5
241
100
AcDbEntity
  8
____
  6
CONTINUOUS
 62
              30
100
AcDbLine
 10
913.67319999999995
 20
15.265599999999999
 30
0.0
 11
906.16769999999997
 21
2.2656999999999998
 31
0.0
  0
LINE
  5
242
100
AcDbEntity
  8
____
  6
CONTINUOUS
 62
              30
100
AcDbLine
 10
947.4437999999999
 20
102.26559999999999
 30
0.0
 11
940.51559999999995
 21
90.265599999999992
 31
0.0
  0
LINE
  5
243
100
AcDbEntity
  8
____
  6
CONTINUOUS
 62
              30
100
AcDbLine
 10
933.4437999999999
 20
102.2657
 30
0.0
 11
991.17889999999989
 21
2.2655999999999996
 31
0.0
  0
LINE
  5
244
100
AcDbEntity
  8
____
  6
CONTINUOUS
 62
              30
100
AcDbLine
 10
983.67319999999995
 20
15.265699999999999
 30
0.0
 11
976.16769999999997
 21
2.2656999999999998
 31
0.0
  0
LINE
  5
245
100
AcDbEntity
  8
____
  6
CONTINUOUS
 62
              30
100
AcDbLine
 10
1017.4437999999999
 20
102.2657
 30
0.0
 11
1010.5155999999999
 21
90.265699999999995
 31
0.0
  0
LINE
  5
246
100
AcDbEntity
  8
____
  6
CONTINUOUS
 62
              30
100
AcDbLine
 10
1003.4436999999999
 20
102.26559999999999
 30
0.0
 11
1030.4438
 21
55.500199999999992
 31
0.0
  0
POLYLINE
  5
247
100
AcDbEntity
  8
____
  6
CONTINUOUS
 62
              30
100
AcDb2dPolyline
 66
               1
 10
0.0
 20
0.0
 30
0.0
 70
               1
 75
               5
  0
VERTEX
  5
248
100
AcDbEntity
  8
____
  6
CONTINUOUS
 62
              30
100
AcDbVertex
100
AcDb2dVertex
 10
-631.05619999999999
 20
402.26559999999995
 30
0.0
  0
VERTEX
  5
249
100
AcDbEntity
  8
____
  6
CONTINUOUS
 62
              30
100
AcDbVertex
100
AcDb2dVertex
 10
-1081.0562
 20
402.26569999999998
 30
0.0
  0
VERTEX
  5
24A
100
AcDbEntity
  8
____
  6
CONTINUOUS
 62
              30
100
AcDbVertex
100
AcDb2dVertex
 10
-1081.0561
 20
672.26569999999992
 30
0.0
  0
VERTEX
  5
24B
100
AcDbEntity
  8
____
  6
CONTINUOUS
 62
              30
100
AcDbVertex
100
AcDb2dVertex
 10
-631.0560999999999
 20
672.26559999999995
 30
0.0
  0
SEQEND
  5
24C
100
AcDbEntity
  8
____
  6
CONTINUOUS
 62
              30
  0
INSERT
  5
24E
100
AcDbEntity
  8
____
 62
              30
100
AcDbBlockReference
  2
*X3
 10
0.0
 20
0.0
 30
0.0
  0
POLYLINE
  5
24F
100
AcDbEntity
  8
____
  6
CONTINUOUS
 62
              30
100
AcDb2dPolyline
 66
               1
 10
0.0
 20
0.0
 30
0.0
 70
               1
 75
               5
  0
VERTEX
  5
250
100
AcDbEntity
  8
____
  6
CONTINUOUS
 62
              30
100
AcDbVertex
100
AcDb2dVertex
 10
-631.0560999999999
 20
352.26559999999995
 30
0.0
  0
VERTEX
  5
251
100
AcDbEntity
  8
____
  6
CONTINUOUS
 62
              30
100
AcDbVertex
100
AcDb2dVertex
 10
-631.05619999999999
 20
202.26559999999998
 30
0.0
  0
VERTEX
  5
252
100
AcDbEntity
  8
____
  6
CONTINUOUS
 62
              30
100
AcDbVertex
100
AcDb2dVertex
 10
-1081.0561
 20
202.26569999999998
 30
0.0
  0
VERTEX
  5
253
100
AcDbEntity
  8
____
  6
CONTINUOUS
 62
              30
100
AcDbVertex
100
AcDb2dVertex
 10
-1081.0561
 20
352.26579999999996
 30
0.0
  0
SEQEND
  5
254
100
AcDbEntity
  8
____
  6
CONTINUOUS
 62
              30
  0
INSERT
  5
256
100
AcDbEntity
  8
____
 62
              30
100
AcDbBlockReference
  2
*X4
 10
0.0
 20
0.0
 30
0.0
  0
POLYLINE
  5
257
100
AcDbEntity
  8
____
  6
CONTINUOUS
 62
              30
100
AcDb2dPolyline
 66
               1
 10
0.0
 20
0.0
 30
0.0
 70
               1
 75
               5
  0
VERTEX
  5
258
100
AcDbEntity
  8
____
  6
CONTINUOUS
 62
              30
100
AcDbVertex
100
AcDb2dVertex
 10
-1131.0560999999998
 20
102.2657
 30
0.0
  0
VERTEX
  5
259
100
AcDbEntity
  8
____
  6
CONTINUOUS
 62
              30
100
AcDbVertex
100
AcDb2dVertex
 10
-581.0560999999999
 20
102.2657
 30
0.0
  0
VERTEX
  5
25A
100
AcDbEntity
  8
____
  6
CONTINUOUS
 62
              30
100
AcDbVertex
100
AcDb2dVertex
 10
-581.05599999999993
 20
2.2657999999999996
 30
0.0
  0
VERTEX
  5
25B
100
AcDbEntity
  8
____
  6
CONTINUOUS
 62
              30
100
AcDbVertex
100
AcDb2dVertex
 10
-1131.0560999999998
 20
2.2657999999999996
 30
0.0
  0
SEQEND
  5
25C
100
AcDbEntity
  8
____
  6
CONTINUOUS
 62
              30
  0
LINE
  5
25E
100
AcDbEntity
  8
____
  6
CONTINUOUS
 62
              30
100
AcDbLine
 10
-1112.5147999999999
 20
102.26559999999999
 30
0.0
 11
-1119.5354
 21
90.105399999999989
 31
0.0
  0
LINE
  5
25F
100
AcDbEntity
  8
____
  6
CONTINUOUS
 62
              30
100
AcDbLine
 10
-1126.5562
 20
102.2657
 30
0.0
 11
-1068.8210999999999
 21
2.2656999999999998
 31
0.0
  0
LINE
  5
260
100
AcDbEntity
  8
____
  6
CONTINUOUS
 62
              30
100
AcDbLine
 10
-1075.7492999999999
 20
14.265699999999999
 30
0.0
 11
-1082.6775
 21
2.2655999999999996
 31
0.0
  0
LINE
  5
261
100
AcDbEntity
  8
____
  6
CONTINUOUS
 62
              30
100
AcDbLine
 10
-1042.5146999999999
 20
102.2657
 30
0.0
 11
-1049.5353
 21
90.105399999999989
 31
0.0
  0
LINE
  5
262
100
AcDbEntity
  8
____
  6
CONTINUOUS
 62
              30
100
AcDbLine
 10
-1056.5562
 20
102.26559999999999
 30
0.0
 11
-998.82109999999989
 21
2.2656999999999998
 31
0.0
  0
LINE
  5
263
100
AcDbEntity
  8
____
  6
CONTINUOUS
 62
              30
100
AcDbLine
 10
-1005.7493999999999
 20
14.265699999999999
 30
0.0
 11
-1012.6774999999999
 21
2.2656999999999998
 31
0.0
  0
LINE
  5
264
100
AcDbEntity
  8
____
  6
CONTINUOUS
 62
              30
100
AcDbLine
 10
-972.51469999999995
 20
102.2657
 30
0.0
 11
-979.53539999999987
 21
90.105399999999989
 31
0.0
  0
LINE
  5
265
100
AcDbEntity
  8
____
  6
CONTINUOUS
 62
              30
100
AcDbLine
 10
-986.55629999999996
 20
102.2657
 30
0.0
 11
-928.82099999999991
 21
2.2656999999999998
 31
0.0
  0
LINE
  5
266
100
AcDbEntity
  8
____
  6
CONTINUOUS
 62
              30
100
AcDbLine
 10
-935.74929999999995
 20
14.265699999999999
 30
0.0
 11
-942.6774999999999
 21
2.2656999999999998
 31
0.0
  0
LINE
  5
267
100
AcDbEntity
  8
____
  6
CONTINUOUS
 62
              30
100
AcDbLine
 10
-902.51479999999992
 20
102.26559999999999
 30
0.0
 11
-909.53539999999987
 21
90.105299999999986
 31
0.0
  0
LINE
  5
268
100
AcDbEntity
  8
____
  6
CONTINUOUS
 62
              30
100
AcDbLine
 10
-916.55619999999988
 20
102.2657
 30
0.0
 11
-858.82109999999989
 21
2.2657999999999996
 31
0.0
  0
LINE
  5
269
100
AcDbEntity
  8
____
  6
CONTINUOUS
 62
              30
100
AcDbLine
 10
-865.74929999999995
 20
14.265699999999999
 30
0.0
 11
-872.67739999999992
 21
2.2656999999999998
 31
0.0
  0
LINE
  5
26A
100
AcDbEntity
  8
____
  6
CONTINUOUS
 62
              30
100
AcDbLine
 10
-832.51469999999995
 20
102.2657
 30
0.0
 11
-839.53529999999989
 21
90.105399999999989
 31
0.0
  0
LINE
  5
26B
100
AcDbEntity
  8
____
  6
CONTINUOUS
 62
              30
100
AcDbLine
 10
-846.55619999999988
 20
102.26559999999999
 30
0.0
 11
-788.82099999999991
 21
2.2656999999999998
 31
0.0
  0
LINE
  5
26C
100
AcDbEntity
  8
____
  6
CONTINUOUS
 62
              30
100
AcDbLine
 10
-795.74939999999992
 20
14.265599999999999
 30
0.0
 11
-802.6774999999999
 21
2.2656999999999998
 31
0.0
  0
LINE
  5
26D
100
AcDbEntity
  8
____
  6
CONTINUOUS
 62
              30
100
AcDbLine
 10
-762.51469999999995
 20
102.2657
 30
0.0
 11
-769.53539999999998
 21
90.105499999999992
 31
0.0
  0
LINE
  5
26E
100
AcDbEntity
  8
____
  6
CONTINUOUS
 62
              30
100
AcDbLine
 10
-776.55629999999996
 20
102.2657
 30
0.0
 11
-718.82119999999998
 21
2.2656999999999998
 31
0.0
  0
LINE
  5
26F
100
AcDbEntity
  8
____
  6
CONTINUOUS
 62
              30
100
AcDbLine
 10
-725.74929999999995
 20
14.265699999999999
 30
0.0
 11
-732.6774999999999
 21
2.2656999999999998
 31
0.0
  0
LINE
  5
270
100
AcDbEntity
  8
____
  6
CONTINUOUS
 62
              30
100
AcDbLine
 10
-692.51479999999992
 20
102.26559999999999
 30
0.0
 11
-699.53539999999998
 21
90.105299999999986
 31
0.0
  0
LINE
  5
271
100
AcDbEntity
  8
____
  6
CONTINUOUS
 62
              30
100
AcDbLine
 10
-706.55629999999996
 20
102.26559999999999
 30
0.0
 11
-648.82109999999989
 21
2.2656999999999998
 31
0.0
  0
LINE
  5
272
100
AcDbEntity
  8
____
  6
CONTINUOUS
 62
              30
100
AcDbLine
 10
-655.74929999999995
 20
14.265699999999999
 30
0.0
 11
-662.67739999999992
 21
2.2656999999999998
 31
0.0
  0
LINE
  5
273
100
AcDbEntity
  8
____
  6
CONTINUOUS
 62
              30
100
AcDbLine
 10
-622.51469999999995
 20
102.2657
 30
0.0
 11
-629.53539999999998
 21
90.105399999999989
 31
0.0
  0
LINE
  5
274
100
AcDbEntity
  8
____
  6
CONTINUOUS
 62
              30
100
AcDbLine
 10
-636.55619999999999
 20
102.2657
 30
0.0
 11
-581.0560999999999
 21
6.1367999999999991
 31
0.0
  0
LINE
  5
275
100
AcDbEntity
  8
____
  6
CONTINUOUS
 62
              30
100
AcDbLine
 10
-585.74929999999995
 20
14.265599999999999
 30
0.0
 11
-592.6774999999999
 21
2.2655999999999996
 31
0.0
  0
POLYLINE
  5
276
100
AcDbEntity
  8
____
  6
CONTINUOUS
 62
              30
100
AcDb2dPolyline
 66
               1
 10
0.0
 20
0.0
 30
0.0
 70
               1
 75
               5
  0
VERTEX
  5
277
100
AcDbEntity
  8
____
  6
CONTINUOUS
 62
              30
100
AcDbVertex
100
AcDb2dVertex
 10
-1006.0560999999999
 20
747.26569999999992
 30
0.0
  0
VERTEX
  5
278
100
AcDbEntity
  8
____
  6
CONTINUOUS
 62
              30
100
AcDbVertex
100
AcDb2dVertex
 10
-956.0560999999999
 20
747.26569999999992
 30
0.0
  0
VERTEX
  5
279
100
AcDbEntity
  8
____
  6
CONTINUOUS
 62
              30
100
AcDbVertex
100
AcDb2dVertex
 10
-956.05599999999993
 20
722.2657999999999
 30
0.0
  0
VERTEX
  5
27A
100
AcDbEntity
  8
____
  6
CONTINUOUS
 62
              30
100
AcDbVertex
100
AcDb2dVertex
 10
-1006.0557999999999
 20
722.26569999999992
 30
0.0
  0
SEQEND
  5
27B
100
AcDbEntity
  8
____
  6
CONTINUOUS
 62
              30
  0
POLYLINE
  5
27D
100
AcDbEntity
  8
____
  6
CONTINUOUS
 62
              30
100
AcDb2dPolyline
 66
               1
 10
0.0
 20
0.0
 30
0.0
 70
               1
 75
               5
  0
VERTEX
  5
27E
100
AcDbEntity
  8
____
  6
CONTINUOUS
 62
              30
100
AcDbVertex
100
AcDb2dVertex
 10
-1004.0557999999999
 20
745.26589999999999
 30
0.0
  0
VERTEX
  5
27F
100
AcDbEntity
  8
____
  6
CONTINUOUS
 62
              30
100
AcDbVertex
100
AcDb2dVertex
 10
-958.05589999999995
 20
745.26569999999992
 30
0.0
  0
VERTEX
  5
280
100
AcDbEntity
  8
____
  6
CONTINUOUS
 62
              30
100
AcDbVertex
100
AcDb2dVertex
 10
-958.05599999999993
 20
724.26539999999989
 30
0.0
  0
VERTEX
  5
281
100
AcDbEntity
  8
____
  6
CONTINUOUS
 62
              30
100
AcDbVertex
100
AcDb2dVertex
 10
-1004.0557999999999
 20
724.26559999999995
 30
0.0
  0
SEQEND
  5
282
100
AcDbEntity
  8
____
  6
CONTINUOUS
 62
              30
  0
POLYLINE
  5
284
100
AcDbEntity
  8
____
  6
CONTINUOUS
 62
              30
100
AcDb2dPolyline
 66
               1
 10
0.0
 20
0.0
 30
0.0
 70
               1
 75
               5
  0
VERTEX
  5
285
100
AcDbEntity
  8
____
  6
CONTINUOUS
 62
              30
100
AcDbVertex
100
AcDb2dVertex
 10
-981.05579999999986
 20
730.26549999999997
 30
0.0
  0
VERTEX
  5
286
100
AcDbEntity
  8
____
  6
CONTINUOUS
 62
              30
100
AcDbVertex
100
AcDb2dVertex
 10
-985.45899999999995
 20
687.76589999999999
 30
0.0
  0
VERTEX
  5
287
100
AcDbEntity
  8
____
  6
CONTINUOUS
 62
              30
100
AcDbVertex
100
AcDb2dVertex
 10
-976.65319999999997
 20
687.76549999999997
 30
0.0
  0
SEQEND
  5
288
100
AcDbEntity
  8
____
  6
CONTINUOUS
 62
              30
  0
POLYLINE
  5
28A
100
AcDbEntity
  8
____
  6
CONTINUOUS
 62
              30
100
AcDb2dPolyline
 66
               1
 10
0.0
 20
0.0
 30
0.0
 70
               1
 75
               5
  0
VERTEX
  5
28B
100
AcDbEntity
  8
____
  6
CONTINUOUS
 62
              30
100
AcDbVertex
100
AcDb2dVertex
 10
-984.05579999999986
 20
737.76589999999999
 30
0.0
  0
VERTEX
  5
28C
100
AcDbEntity
  8
____
  6
CONTINUOUS
 62
              30
100
AcDbVertex
100
AcDb2dVertex
 10
-978.05599999999993
 20
737.7657999999999
 30
0.0
  0
VERTEX
  5
28D
100
AcDbEntity
  8
____
  6
CONTINUOUS
 62
              30
100
AcDbVertex
100
AcDb2dVertex
 10
-978.05589999999995
 20
705.2657999999999
 30
0.0
  0
VERTEX
  5
28E
100
AcDbEntity
  8
____
  6
CONTINUOUS
 62
              30
100
AcDbVertex
100
AcDb2dVertex
 10
-984.05579999999986
 20
705.2657999999999
 30
0.0
  0
SEQEND
  5
28F
100
AcDbEntity
  8
____
  6
CONTINUOUS
 62
              30
  0
POLYLINE
  5
291
100
AcDbEntity
  8
____
  6
CONTINUOUS
 62
              30
100
AcDb2dPolyline
 66
               1
 10
0.0
 20
0.0
 30
0.0
 70
               1
 75
               5
  0
VERTEX
  5
292
100
AcDbEntity
  8
____
  6
CONTINUOUS
 62
              30
100
AcDbVertex
100
AcDb2dVertex
 10
-986.82939999999996
 20
730.51909999999998
 30
0.0
  0
VERTEX
  5
293
100
AcDbEntity
  8
____
  6
CONTINUOUS
 62
              30
100
AcDbVertex
100
AcDb2dVertex
 10
-986.05599999999993
 20
730.96559999999988
 30
0.0
  0
VERTEX
  5
294
100
AcDbEntity
  8
____
  6
CONTINUOUS
 62
              30
100
AcDbVertex
100
AcDb2dVertex
 10
-976.0560999999999
 20
730.96539999999993
 30
0.0
  0
VERTEX
  5
295
100
AcDbEntity
  8
____
  6
CONTINUOUS
 62
              30
100
AcDbVertex
100
AcDb2dVertex
 10
-975.28239999999994
 20
730.51919999999996
 30
0.0
  0
VERTEX
  5
296
100
AcDbEntity
  8
____
  6
CONTINUOUS
 62
              30
100
AcDbVertex
100
AcDb2dVertex
 10
-975.28219999999988
 20
726.21229999999991
 30
0.0
  0
VERTEX
  5
297
100
AcDbEntity
  8
____
  6
CONTINUOUS
 62
              30
100
AcDbVertex
100
AcDb2dVertex
 10
-976.05589999999995
 20
725.7657999999999
 30
0.0
  0
VERTEX
  5
298
100
AcDbEntity
  8
____
  6
CONTINUOUS
 62
              30
100
AcDbVertex
100
AcDb2dVertex
 10
-986.05589999999995
 20
725.7657999999999
 30
0.0
  0
VERTEX
  5
299
100
AcDbEntity
  8
____
  6
CONTINUOUS
 62
              30
100
AcDbVertex
100
AcDb2dVertex
 10
-986.82939999999996
 20
726.21239999999989
 30
0.0
  0
SEQEND
  5
29A
100
AcDbEntity
  8
____
  6
CONTINUOUS
 62
              30
  0
SPLINE
  5
29C
100
AcDbEntity
  8
____
  6
CONTINUOUS
 62
              30
100
AcDbSpline
210
0.0
220
0.0
230
1.0
 70
               8
 71
               2
 72
              10
 73
               7
 74
               0
 42
0.000001
 43
0.000001
 40
0.0
 40
0.0
 40
0.0
 40
1.0
 40
1.0
 40
2.0
 40
2.0
 40
3.0
 40
3.0
 40
3.0
 10
-986.82939999999996
 20
730.51909999999998
 30
0.0
 10
-985.38639917695457
 20
731.41066172839498
 30
0.0
 10
-983.94259999999997
 20
730.51909999999998
 30
0.0
 10
-981.05614938271594
 20
731.41046213991763
 30
0.0
 10
-978.16909999999996
 20
730.51909999999998
 30
0.0
 10
-976.72589958847732
 20
731.41046213991763
 30
0.0
 10
-975.28229999999996
 20
730.51909999999998
 30
0.0
  0
SPLINE
  5
29D
100
AcDbEntity
  8
____
  6
CONTINUOUS
 62
              30
100
AcDbSpline
210
0.0
220
0.0
230
1.0
 70
               8
 71
               2
 72
              10
 73
               7
 74
               0
 42
0.000001
 43
0.000001
 40
0.0
 40
0.0
 40
0.0
 40
1.0
 40
1.0
 40
2.0
 40
2.0
 40
3.0
 40
3.0
 40
3.0
 10
-986.8291999999999
 20
726.21229999999991
 30
0.0
 10
-985.38609917695453
 20
725.32078806584354
 30
0.0
 10
-983.94219999999996
 20
726.21219999999994
 30
0.0
 10
-981.05584938271591
 20
725.32143662551448
 30
0.0
 10
-978.16889999999989
 20
726.21219999999994
 30
0.0
 10
-976.72500082304509
 20
725.32088806584352
 30
0.0
 10
-975.28189999999995
 20
726.21249999999998
 30
0.0
  0
LINE
  5
29E
100
AcDbEntity
  8
____
  6
CONTINUOUS
 62
              30
100
AcDbLine
 10
-983.94269999999995
 20
730.51919999999996
 30
0.0
 11
-983.94249999999988
 21
726.21249999999998
 31
0.0
  0
LINE
  5
29F
100
AcDbEntity
  8
____
  6
CONTINUOUS
 62
              30
100
AcDbLine
 10
-978.16919999999993
 20
726.21229999999991
 30
0.0
 11
-978.16929999999991
 21
730.51919999999996
 31
0.0
  0
POLYLINE
  5
2A0
100
AcDbEntity
  8
____
  6
CONTINUOUS
 62
              30
100
AcDb2dPolyline
 66
               1
 10
0.0
 20
0.0
 30
0.0
 70
               1
 75
               5
  0
VERTEX
  5
2A1
100
AcDbEntity
  8
____
  6
CONTINUOUS
 62
              30
100
AcDbVertex
100
AcDb2dVertex
 10
-988.55569999999989
 20
725.76589999999999
 30
0.0
  0
VERTEX
  5
2A2
100
AcDbEntity
  8
____
  6
CONTINUOUS
 62
              30
100
AcDbVertex
100
AcDb2dVertex
 10
-973.55569999999989
 20
725.76599999999996
 30
0.0
  0
VERTEX
  5
2A3
100
AcDbEntity
  8
____
  6
CONTINUOUS
 62
              30
100
AcDbVertex
100
AcDb2dVertex
 10
-973.55569999999989
 20
724.26549999999997
 30
0.0
  0
VERTEX
  5
2A4
100
AcDbEntity
  8
____
  6
CONTINUOUS
 62
              30
100
AcDbVertex
100
AcDb2dVertex
 10
-988.55559999999991
 20
724.26559999999995
 30
0.0
  0
SEQEND
  5
2A5
100
AcDbEntity
  8
____
  6
CONTINUOUS
 62
              30
  0
POLYLINE
  5
2A7
100
AcDbEntity
  8
____
  6
STYLE_05
 62
              30
100
AcDb2dPolyline
 66
               1
 10
0.0
 20
0.0
 30
0.0
 70
               1
 75
               5
  0
VERTEX
  5
2A8
100
AcDbEntity
  8
____
  6
STYLE_05
 62
              30
100
AcDbVertex
100
AcDb2dVertex
 10
-986.05589999999995
 20
722.2657999999999
 30
0.0
  0
VERTEX
  5
2A9
100
AcDbEntity
  8
____
  6
STYLE_05
 62
              30
100
AcDbVertex
100
AcDb2dVertex
 10
-976.05599999999993
 20
722.26589999999999
 30
0.0
  0
VERTEX
  5
2AA
100
AcDbEntity
  8
____
  6
STYLE_05
 62
              30
100
AcDbVertex
100
AcDb2dVertex
 10
-976.05589999999995
 20
705.26569999999992
 30
0.0
  0
VERTEX
  5
2AB
100
AcDbEntity
  8
____
  6
STYLE_05
 62
              30
100
AcDbVertex
100
AcDb2dVertex
 10
-986.05589999999995
 20
705.26569999999992
 30
0.0
  0
SEQEND
  5
2AC
100
AcDbEntity
  8
____
  6
STYLE_05
 62
              30
  0
POLYLINE
  5
2AE
100
AcDbEntity
  8
____
  6
STYLE_05
 62
              30
100
AcDb2dPolyline
 66
               1
 10
0.0
 20
0.0
 30
0.0
 70
               1
 75
               5
  0
VERTEX
  5
2AF
100
AcDbEntity
  8
____
  6
STYLE_05
 62
              30
100
AcDbVertex
100
AcDb2dVertex
 10
-986.05589999999995
 20
705.26569999999992
 30
0.0
  0
VERTEX
  5
2B0
100
AcDbEntity
  8
____
  6
STYLE_05
 62
              30
100
AcDbVertex
100
AcDb2dVertex
 10
-990.15579999999989
 20
692.46559999999999
 30
0.0
  0
VERTEX
  5
2B1
100
AcDbEntity
  8
____
  6
STYLE_05
 62
              30
100
AcDbVertex
100
AcDb2dVertex
 10
-984.2734999999999
 20
691.85649999999998
 30
0.0
  0
VERTEX
  5
2B2
100
AcDbEntity
  8
____
  6
STYLE_05
 62
              30
100
AcDbVertex
100
AcDb2dVertex
 10
-981.0560999999999
 20
705.26569999999992
 30
0.0
  0
SEQEND
  5
2B3
100
AcDbEntity
  8
____
  6
STYLE_05
 62
              30
  0
POLYLINE
  5
2B5
100
AcDbEntity
  8
____
  6
STYLE_05
 62
              30
100
AcDb2dPolyline
 66
               1
 10
0.0
 20
0.0
 30
0.0
 70
               1
 75
               5
  0
VERTEX
  5
2B6
100
AcDbEntity
  8
____
  6
STYLE_05
 62
              30
100
AcDbVertex
100
AcDb2dVertex
 10
-976.05589999999995
 20
705.26569999999992
 30
0.0
  0
VERTEX
  5
2B7
100
AcDbEntity
  8
____
  6
STYLE_05
 62
              30
100
AcDbVertex
100
AcDb2dVertex
 10
-971.9559999999999
 20
692.46589999999992
 30
0.0
  0
VERTEX
  5
2B8
100
AcDbEntity
  8
____
  6
STYLE_05
 62
              30
100
AcDbVertex
100
AcDb2dVertex
 10
-977.83829999999989
 20
691.85649999999998
 30
0.0
  0
VERTEX
  5
2B9
100
AcDbEntity
  8
____
  6
STYLE_05
 62
              30
100
AcDbVertex
100
AcDb2dVertex
 10
-981.0560999999999
 20
705.26569999999992
 30
0.0
  0
SEQEND
  5
2BA
100
AcDbEntity
  8
____
  6
STYLE_05
 62
              30
  0
POLYLINE
  5
2BC
100
AcDbEntity
  8
____
  6
CONTINUOUS
 62
              30
100
AcDb2dPolyline
 66
               1
 10
0.0
 20
0.0
 30
0.0
 70
               1
 75
               5
  0
VERTEX
  5
2BD
100
AcDbEntity
  8
____
  6
CONTINUOUS
 62
              30
100
AcDbVertex
100
AcDb2dVertex
 10
-731.05579999999998
 20
730.26559999999995
 30
0.0
  0
VERTEX
  5
2BE
100
AcDbEntity
  8
____
  6
CONTINUOUS
 62
              30
100
AcDbVertex
100
AcDb2dVertex
 10
-735.45889999999997
 20
687.76599999999996
 30
0.0
  0
VERTEX
  5
2BF
100
AcDbEntity
  8
____
  6
CONTINUOUS
 62
              30
100
AcDbVertex
100
AcDb2dVertex
 10
-726.65319999999997
 20
687.76559999999995
 30
0.0
  0
SEQEND
  5
2C0
100
AcDbEntity
  8
____
  6
CONTINUOUS
 62
              30
  0
POLYLINE
  5
2C2
100
AcDbEntity
  8
____
  6
CONTINUOUS
 62
              30
100
AcDb2dPolyline
 66
               1
 10
0.0
 20
0.0
 30
0.0
 70
               1
 75
               5
  0
VERTEX
  5
2C3
100
AcDbEntity
  8
____
  6
CONTINUOUS
 62
              30
100
AcDbVertex
100
AcDb2dVertex
 10
-734.05579999999998
 20
737.7657999999999
 30
0.0
  0
VERTEX
  5
2C4
100
AcDbEntity
  8
____
  6
CONTINUOUS
 62
              30
100
AcDbVertex
100
AcDb2dVertex
 10
-728.05599999999993
 20
737.7657999999999
 30
0.0
  0
VERTEX
  5
2C5
100
AcDbEntity
  8
____
  6
CONTINUOUS
 62
              30
100
AcDbVertex
100
AcDb2dVertex
 10
-728.05589999999995
 20
705.2657999999999
 30
0.0
  0
VERTEX
  5
2C6
100
AcDbEntity
  8
____
  6
CONTINUOUS
 62
              30
100
AcDbVertex
100
AcDb2dVertex
 10
-734.05589999999995
 20
705.26569999999992
 30
0.0
  0
SEQEND
  5
2C7
100
AcDbEntity
  8
____
  6
CONTINUOUS
 62
              30
  0
POLYLINE
  5
2C9
100
AcDbEntity
  8
____
  6
CONTINUOUS
 62
              30
100
AcDb2dPolyline
 66
               1
 10
0.0
 20
0.0
 30
0.0
 70
               1
 75
               5
  0
VERTEX
  5
2CA
100
AcDbEntity
  8
____
  6
CONTINUOUS
 62
              30
100
AcDbVertex
100
AcDb2dVertex
 10
-736.82949999999994
 20
730.51909999999998
 30
0.0
  0
VERTEX
  5
2CB
100
AcDbEntity
  8
____
  6
CONTINUOUS
 62
              30
100
AcDbVertex
100
AcDb2dVertex
 10
-736.0560999999999
 20
730.96559999999988
 30
0.0
  0
VERTEX
  5
2CC
100
AcDbEntity
  8
____
  6
CONTINUOUS
 62
              30
100
AcDbVertex
100
AcDb2dVertex
 10
-726.0560999999999
 20
730.96549999999991
 30
0.0
  0
VERTEX
  5
2CD
100
AcDbEntity
  8
____
  6
CONTINUOUS
 62
              30
100
AcDbVertex
100
AcDb2dVertex
 10
-725.28249999999991
 20
730.51919999999996
 30
0.0
  0
VERTEX
  5
2CE
100
AcDbEntity
  8
____
  6
CONTINUOUS
 62
              30
100
AcDbVertex
100
AcDb2dVertex
 10
-725.28219999999999
 20
726.21229999999991
 30
0.0
  0
VERTEX
  5
2CF
100
AcDbEntity
  8
____
  6
CONTINUOUS
 62
              30
100
AcDbVertex
100
AcDb2dVertex
 10
-726.05579999999998
 20
725.7657999999999
 30
0.0
  0
VERTEX
  5
2D0
100
AcDbEntity
  8
____
  6
CONTINUOUS
 62
              30
100
AcDbVertex
100
AcDb2dVertex
 10
-736.05599999999993
 20
725.76589999999999
 30
0.0
  0
VERTEX
  5
2D1
100
AcDbEntity
  8
____
  6
CONTINUOUS
 62
              30
100
AcDbVertex
100
AcDb2dVertex
 10
-736.82939999999996
 20
726.21239999999989
 30
0.0
  0
SEQEND
  5
2D2
100
AcDbEntity
  8
____
  6
CONTINUOUS
 62
              30
  0
SPLINE
  5
2D4
100
AcDbEntity
  8
____
  6
CONTINUOUS
 62
              30
100
AcDbSpline
210
0.0
220
0.0
230
1.0
 70
               8
 71
               2
 72
              10
 73
               7
 74
               0
 42
0.000001
 43
0.000001
 40
0.0
 40
0.0
 40
0.0
 40
1.0
 40
1.0
 40
2.0
 40
2.0
 40
3.0
 40
3.0
 40
3.0
 10
-736.82949999999994
 20
730.51909999999998
 30
0.0
 10
-735.3862995884773
 20
731.41046213991763
 30
0.0
 10
-733.94269999999995
 20
730.51909999999998
 30
0.0
 10
-731.05604979423856
 20
731.41046213991763
 30
0.0
 10
-728.16919999999993
 20
730.51909999999998
 30
0.0
 10
-726.72579999999994
 20
731.41066172839498
 30
0.0
 10
-725.28239999999994
 20
730.51909999999998
 30
0.0
  0
SPLINE
  5
2D5
100
AcDbEntity
  8
____
  6
CONTINUOUS
 62
              30
100
AcDbSpline
210
0.0
220
0.0
230
1.0
 70
               8
 71
               2
 72
              10
 73
               7
 74
               0
 42
0.000001
 43
0.000001
 40
0.0
 40
0.0
 40
0.0
 40
1.0
 40
1.0
 40
2.0
 40
2.0
 40
3.0
 40
3.0
 40
3.0
 10
-736.8291999999999
 20
726.21229999999991
 30
0.0
 10
-735.38609917695476
 20
725.32083786008229
 30
0.0
 10
-733.94219999999996
 20
726.21209999999996
 30
0.0
 10
-731.05584938271591
 20
725.32148641975311
 30
0.0
 10
-728.16889999999989
 20
726.21219999999994
 30
0.0
 10
-726.72500082304532
 20
725.32088806584352
 30
0.0
 10
-725.28189999999995
 20
726.21249999999998
 30
0.0
  0
LINE
  5
2D6
100
AcDbEntity
  8
____
  6
CONTINUOUS
 62
              30
100
AcDbLine
 10
-733.94279999999992
 20
730.51919999999996
 30
0.0
 11
-733.94249999999988
 21
726.21229999999991
 31
0.0
  0
LINE
  5
2D7
100
AcDbEntity
  8
____
  6
CONTINUOUS
 62
              30
100
AcDbLine
 10
-728.16919999999993
 20
726.21229999999991
 30
0.0
 11
-728.16939999999988
 21
730.51909999999998
 31
0.0
  0
POLYLINE
  5
2D8
100
AcDbEntity
  8
____
  6
CONTINUOUS
 62
              30
100
AcDb2dPolyline
 66
               1
 10
0.0
 20
0.0
 30
0.0
 70
               1
 75
               5
  0
VERTEX
  5
2D9
100
AcDbEntity
  8
____
  6
CONTINUOUS
 62
              30
100
AcDbVertex
100
AcDb2dVertex
 10
-738.55559999999991
 20
725.76589999999999
 30
0.0
  0
VERTEX
  5
2DA
100
AcDbEntity
  8
____
  6
CONTINUOUS
 62
              30
100
AcDbVertex
100
AcDb2dVertex
 10
-723.55559999999991
 20
725.76589999999999
 30
0.0
  0
VERTEX
  5
2DB
100
AcDbEntity
  8
____
  6
CONTINUOUS
 62
              30
100
AcDbVertex
100
AcDb2dVertex
 10
-723.55569999999989
 20
724.26559999999995
 30
0.0
  0
VERTEX
  5
2DC
100
AcDbEntity
  8
____
  6
CONTINUOUS
 62
              30
100
AcDbVertex
100
AcDb2dVertex
 10
-738.55559999999991
 20
724.26559999999995
 30
0.0
  0
SEQEND
  5
2DD
100
AcDbEntity
  8
____
  6
CONTINUOUS
 62
              30
  0
POLYLINE
  5
2DF
100
AcDbEntity
  8
____
  6
STYLE_05
 62
              30
100
AcDb2dPolyline
 66
               1
 10
0.0
 20
0.0
 30
0.0
 70
               1
 75
               5
  0
VERTEX
  5
2E0
100
AcDbEntity
  8
____
  6
STYLE_05
 62
              30
100
AcDbVertex
100
AcDb2dVertex
 10
-736.05589999999995
 20
722.26569999999992
 30
0.0
  0
VERTEX
  5
2E1
100
AcDbEntity
  8
____
  6
STYLE_05
 62
              30
100
AcDbVertex
100
AcDb2dVertex
 10
-726.05599999999993
 20
722.26589999999999
 30
0.0
  0
VERTEX
  5
2E2
100
AcDbEntity
  8
____
  6
STYLE_05
 62
              30
100
AcDbVertex
100
AcDb2dVertex
 10
-726.05589999999995
 20
705.26559999999995
 30
0.0
  0
VERTEX
  5
2E3
100
AcDbEntity
  8
____
  6
STYLE_05
 62
              30
100
AcDbVertex
100
AcDb2dVertex
 10
-736.05599999999993
 20
705.26569999999992
 30
0.0
  0
SEQEND
  5
2E4
100
AcDbEntity
  8
____
  6
STYLE_05
 62
              30
  0
POLYLINE
  5
2E6
100
AcDbEntity
  8
____
  6
STYLE_05
 62
              30
100
AcDb2dPolyline
 66
               1
 10
0.0
 20
0.0
 30
0.0
 70
               1
 75
               5
  0
VERTEX
  5
2E7
100
AcDbEntity
  8
____
  6
STYLE_05
 62
              30
100
AcDbVertex
100
AcDb2dVertex
 10
-736.05599999999993
 20
705.26569999999992
 30
0.0
  0
VERTEX
  5
2E8
100
AcDbEntity
  8
____
  6
STYLE_05
 62
              30
100
AcDbVertex
100
AcDb2dVertex
 10
-740.15589999999997
 20
692.46559999999999
 30
0.0
  0
VERTEX
  5
2E9
100
AcDbEntity
  8
____
  6
STYLE_05
 62
              30
100
AcDbVertex
100
AcDb2dVertex
 10
-734.2734999999999
 20
691.85639999999989
 30
0.0
  0
VERTEX
  5
2EA
100
AcDbEntity
  8
____
  6
STYLE_05
 62
              30
100
AcDbVertex
100
AcDb2dVertex
 10
-731.0560999999999
 20
705.26569999999992
 30
0.0
  0
SEQEND
  5
2EB
100
AcDbEntity
  8
____
  6
STYLE_05
 62
              30
  0
POLYLINE
  5
2ED
100
AcDbEntity
  8
____
  6
STYLE_05
 62
              30
100
AcDb2dPolyline
 66
               1
 10
0.0
 20
0.0
 30
0.0
 70
               1
 75
               5
  0
VERTEX
  5
2EE
100
AcDbEntity
  8
____
  6
STYLE_05
 62
              30
100
AcDbVertex
100
AcDb2dVertex
 10
-726.05589999999995
 20
705.26559999999995
 30
0.0
  0
VERTEX
  5
2EF
100
AcDbEntity
  8
____
  6
STYLE_05
 62
              30
100
AcDbVertex
100
AcDb2dVertex
 10
-721.9559999999999
 20
692.46589999999992
 30
0.0
  0
VERTEX
  5
2F0
100
AcDbEntity
  8
____
  6
STYLE_05
 62
              30
100
AcDbVertex
100
AcDb2dVertex
 10
-727.83839999999998
 20
691.85649999999998
 30
0.0
  0
VERTEX
  5
2F1
100
AcDbEntity
  8
____
  6
STYLE_05
 62
              30
100
AcDbVertex
100
AcDb2dVertex
 10
-731.0560999999999
 20
705.26569999999992
 30
0.0
  0
SEQEND
  5
2F2
100
AcDbEntity
  8
____
  6
STYLE_05
 62
              30
  0
LINE
  5
2F4
100
AcDbEntity
  8
____
  6
CONTINUOUS
 62
              30
100
AcDbLine
 10
-1081.0561
 20
752.2657999999999
 30
0.0
 11
-631.0560999999999
 21
752.26559999999995
 31
0.0
  0
LINE
  5
2F5
100
AcDbEntity
  8
____
  6
CONTINUOUS
 62
              30
100
AcDbLine
 10
-631.05619999999999
 20
767.26559999999995
 30
0.0
 11
-1081.0561
 21
767.2657999999999
 31
0.0
  0
LINE
  5
2F6
100
AcDbEntity
  8
____
  6
CONTINUOUS
 62
              30
100
AcDbLine
 10
-1076.0561
 20
794.10439999999994
 30
0.0
 11
-1076.0561
 21
747.26569999999992
 31
0.0
  0
LINE
  5
2F7
100
AcDbEntity
  8
____
  6
CONTINUOUS
 62
              30
100
AcDbLine
 10
-636.0560999999999
 20
794.10429999999997
 30
0.0
 11
-636.0560999999999
 21
747.26559999999995
 31
0.0
  0
LINE
  5
2F8
100
AcDbEntity
  8
____
  6
CONTINUOUS
 62
              30
100
AcDbLine
 10
-1081.0562
 20
789.10429999999997
 30
0.0
 11
-631.05619999999999
 21
789.10429999999997
 31
0.0
  0
LINE
  5
2F9
100
AcDbEntity
  8
____
  6
CONTINUOUS
 62
              30
100
AcDbLine
 10
-1081.0561
 20
781.73269999999991
 30
0.0
 11
-631.05619999999999
 21
781.73269999999991
 31
0.0
  0
LINE
  5
2FA
100
AcDbEntity
  8
____
  6
CONTINUOUS
 62
              30
100
AcDbLine
 10
-1076.0559999999998
 20
722.26559999999995
 30
0.0
 11
-1076.0559999999998
 21
202.26569999999998
 31
0.0
  0
LINE
  5
2FB
100
AcDbEntity
  8
____
  6
CONTINUOUS
 62
              30
100
AcDbLine
 10
-636.05599999999993
 20
722.26569999999992
 30
0.0
 11
-636.0560999999999
 21
202.26559999999998
 31
0.0
  0
POLYLINE
  5
2FC
100
AcDbEntity
  8
____
  6
STYLE_05
 62
              30
100
AcDb2dPolyline
 66
               1
 10
0.0
 20
0.0
 30
0.0
 70
               1
 75
               5
  0
VERTEX
  5
2FD
100
AcDbEntity
  8
____
  6
STYLE_05
 62
              30
100
AcDbVertex
100
AcDb2dVertex
 10
941.88209999999992
 20
789.21039999999994
 30
0.0
  0
VERTEX
  5
2FE
100
AcDbEntity
  8
____
  6
STYLE_05
 62
              30
100
AcDbVertex
100
AcDb2dVertex
 10
945.01309999999989
 20
792.67109999999991
 30
0.0
  0
VERTEX
  5
2FF
100
AcDbEntity
  8
____
  6
STYLE_05
 62
              30
100
AcDbVertex
100
AcDb2dVertex
 10
932.42899999999997
 20
792.04189999999994
 30
0.0
  0
VERTEX
  5
300
100
AcDbEntity
  8
____
  6
STYLE_05
 62
              30
100
AcDbVertex
100
AcDb2dVertex
 10
935.88959999999997
 20
788.91079999999988
 30
0.0
  0
SEQEND
  5
301
100
AcDbEntity
  8
____
  6
STYLE_05
 62
              30
  0
POLYLINE
  5
303
100
AcDbEntity
  8
____
  6
STYLE_05
 62
              30
100
AcDb2dPolyline
 66
               1
 10
0.0
 20
0.0
 30
0.0
 70
             129
  0
VERTEX
  5
304
100
AcDbEntity
  8
____
  6
STYLE_05
 62
              30
100
AcDbVertex
100
AcDb2dVertex
 10
942.08369999999991
 20
776.50469999999996
 30
0.0
  0
VERTEX
  5
305
100
AcDbEntity
  8
____
  6
STYLE_05
 62
              30
100
AcDbVertex
100
AcDb2dVertex
 10
942.08369999999991
 20
776.50469999999996
 30
0.0
  0
VERTEX
  5
306
100
AcDbEntity
  8
____
  6
STYLE_05
 62
              30
100
AcDbVertex
100
AcDb2dVertex
 10
941.44969999999989
 20
789.1887999999999
 30
0.0
  0
VERTEX
  5
307
100
AcDbEntity
  8
____
  6
STYLE_05
 62
              30
100
AcDbVertex
100
AcDb2dVertex
 10
936.32199999999989
 20
788.93239999999992
 30
0.0
  0
VERTEX
  5
308
100
AcDbEntity
  8
____
  6
STYLE_05
 62
              30
100
AcDbVertex
100
AcDb2dVertex
 10
936.32199999999989
 20
788.93239999999992
 30
0.0
  0
VERTEX
  5
309
100
AcDbEntity
  8
____
  6
STYLE_05
 62
              30
100
AcDbVertex
100
AcDb2dVertex
 10
936.95609999999988
 20
776.24829999999997
 30
0.0
  0
SEQEND
  5
30A
100
AcDbEntity
  8
____
  6
STYLE_05
 62
              30
  0
POLYLINE
  5
30B
100
AcDbEntity
  8
____
  6
STYLE_05
 62
              30
100
AcDb2dPolyline
 66
               1
 10
0.0
 20
0.0
 30
0.0
 70
               1
 75
               5
  0
VERTEX
  5
30C
100
AcDbEntity
  8
____
  6
STYLE_05
 62
              30
100
AcDbVertex
100
AcDb2dVertex
 10
942.51619999999991
 20
776.52609999999993
 30
0.0
  0
VERTEX
  5
30D
100
AcDbEntity
  8
____
  6
STYLE_05
 62
              30
100
AcDbVertex
100
AcDb2dVertex
 10
942.51619999999991
 20
776.52609999999993
 30
0.0
  0
VERTEX
  5
30E
100
AcDbEntity
  8
____
  6
STYLE_05
 62
              30
100
AcDbVertex
100
AcDb2dVertex
 10
943.67139999999995
 20
753.42109999999991
 30
0.0
  0
VERTEX
  5
30F
100
AcDbEntity
  8
____
  6
STYLE_05
 62
              30
100
AcDbVertex
100
AcDb2dVertex
 10
942.84969999999987
 20
752.51299999999992
 30
0.0
  0
VERTEX
  5
310
100
AcDbEntity
  8
____
  6
STYLE_05
 62
              30
100
AcDbVertex
100
AcDb2dVertex
 10
938.58719999999994
 20
752.29979999999989
 30
0.0
  0
VERTEX
  5
311
100
AcDbEntity
  8
____
  6
STYLE_05
 62
              30
100
AcDbVertex
100
AcDb2dVertex
 10
937.67899999999997
 20
753.12149999999997
 30
0.0
  0
VERTEX
  5
312
100
AcDbEntity
  8
____
  6
STYLE_05
 62
              30
100
AcDbVertex
100
AcDb2dVertex
 10
936.52389999999991
 20
776.22669999999994
 30
0.0
  0
SEQEND
  5
313
100
AcDbEntity
  8
____
  6
STYLE_05
 62
              30
  0
LINE
  5
315
100
AcDbEntity
  8
____
  6
STYLE_05
 62
              30
100
AcDbLine
 10
937.67899999999997
 20
753.12149999999997
 30
0.0
 11
943.67139999999995
 21
753.42119999999989
 31
0.0
  0
LINE
  5
316
100
AcDbEntity
  8
____
  6
STYLE_05
 62
               1
100
AcDbLine
 10
942.84979999999996
 20
752.51269999999988
 30
0.0
 11
941.65129999999988
 21
776.48299999999995
 31
0.0
  0
LINE
  5
317
100
AcDbEntity
  8
____
  6
STYLE_05
 62
               1
100
AcDbLine
 10
938.58729999999991
 20
752.29989999999998
 30
0.0
 11
937.38869999999997
 21
776.27009999999996
 31
0.0
  0
POLYLINE
  5
318
100
AcDbEntity
  8
____
  6
STYLE_05
 62
              30
100
AcDb2dPolyline
 66
               1
 10
0.0
 20
0.0
 30
0.0
 70
               1
 75
               5
  0
VERTEX
  5
319
100
AcDbEntity
  8
____
  6
STYLE_05
 62
              30
100
AcDbVertex
100
AcDb2dVertex
 10
866.97569999999996
 20
785.46509999999989
 30
0.0
  0
VERTEX
  5
31A
100
AcDbEntity
  8
____
  6
STYLE_05
 62
              30
100
AcDbVertex
100
AcDb2dVertex
 10
870.10669999999993
 20
788.92579999999998
 30
0.0
  0
VERTEX
  5
31B
100
AcDbEntity
  8
____
  6
STYLE_05
 62
              30
100
AcDbVertex
100
AcDb2dVertex
 10
857.5225999999999
 20
788.2965999999999
 30
0.0
  0
VERTEX
  5
31C
100
AcDbEntity
  8
____
  6
STYLE_05
 62
              30
100
AcDbVertex
100
AcDb2dVertex
 10
860.9831999999999
 20
785.16549999999995
 30
0.0
  0
SEQEND
  5
31D
100
AcDbEntity
  8
____
  6
STYLE_05
 62
              30
  0
POLYLINE
  5
31F
100
AcDbEntity
  8
____
  6
STYLE_05
 62
              30
100
AcDb2dPolyline
 66
               1
 10
0.0
 20
0.0
 30
0.0
 70
             129
  0
VERTEX
  5
320
100
AcDbEntity
  8
____
  6
STYLE_05
 62
              30
100
AcDbVertex
100
AcDb2dVertex
 10
867.17719999999997
 20
772.75939999999991
 30
0.0
  0
VERTEX
  5
321
100
AcDbEntity
  8
____
  6
STYLE_05
 62
              30
100
AcDbVertex
100
AcDb2dVertex
 10
867.17719999999997
 20
772.75939999999991
 30
0.0
  0
VERTEX
  5
322
100
AcDbEntity
  8
____
  6
STYLE_05
 62
              30
100
AcDbVertex
100
AcDb2dVertex
 10
866.54319999999996
 20
785.44349999999997
 30
0.0
  0
VERTEX
  5
323
100
AcDbEntity
  8
____
  6
STYLE_05
 62
              30
100
AcDbVertex
100
AcDb2dVertex
 10
861.41549999999995
 20
785.18709999999999
 30
0.0
  0
VERTEX
  5
324
100
AcDbEntity
  8
____
  6
STYLE_05
 62
              30
100
AcDbVertex
100
AcDb2dVertex
 10
861.41549999999995
 20
785.18709999999999
 30
0.0
  0
VERTEX
  5
325
100
AcDbEntity
  8
____
  6
STYLE_05
 62
              30
100
AcDbVertex
100
AcDb2dVertex
 10
862.04959999999994
 20
772.50299999999993
 30
0.0
  0
SEQEND
  5
326
100
AcDbEntity
  8
____
  6
STYLE_05
 62
              30
  0
POLYLINE
  5
327
100
AcDbEntity
  8
____
  6
STYLE_05
 62
              30
100
AcDb2dPolyline
 66
               1
 10
0.0
 20
0.0
 30
0.0
 70
               1
 75
               5
  0
VERTEX
  5
328
100
AcDbEntity
  8
____
  6
STYLE_05
 62
              30
100
AcDbVertex
100
AcDb2dVertex
 10
867.60979999999995
 20
772.78079999999989
 30
0.0
  0
VERTEX
  5
329
100
AcDbEntity
  8
____
  6
STYLE_05
 62
              30
100
AcDbVertex
100
AcDb2dVertex
 10
867.60979999999995
 20
772.78079999999989
 30
0.0
  0
VERTEX
  5
32A
100
AcDbEntity
  8
____
  6
STYLE_05
 62
              30
100
AcDbVertex
100
AcDb2dVertex
 10
868.76499999999987
 20
749.67579999999998
 30
0.0
  0
VERTEX
  5
32B
100
AcDbEntity
  8
____
  6
STYLE_05
 62
              30
100
AcDbVertex
100
AcDb2dVertex
 10
867.94329999999991
 20
748.76769999999999
 30
0.0
  0
VERTEX
  5
32C
100
AcDbEntity
  8
____
  6
STYLE_05
 62
              30
100
AcDbVertex
100
AcDb2dVertex
 10
863.68079999999998
 20
748.55449999999996
 30
0.0
  0
VERTEX
  5
32D
100
AcDbEntity
  8
____
  6
STYLE_05
 62
              30
100
AcDbVertex
100
AcDb2dVertex
 10
862.7725999999999
 20
749.37619999999993
 30
0.0
  0
VERTEX
  5
32E
100
AcDbEntity
  8
____
  6
STYLE_05
 62
              30
100
AcDbVertex
100
AcDb2dVertex
 10
861.61749999999995
 20
772.48139999999989
 30
0.0
  0
SEQEND
  5
32F
100
AcDbEntity
  8
____
  6
STYLE_05
 62
              30
  0
LINE
  5
331
100
AcDbEntity
  8
____
  6
STYLE_05
 62
              30
100
AcDbLine
 10
862.7725999999999
 20
749.37619999999993
 30
0.0
 11
868.76499999999987
 21
749.67589999999996
 31
0.0
  0
LINE
  5
332
100
AcDbEntity
  8
____
  6
STYLE_05
 62
               1
100
AcDbLine
 10
867.94339999999988
 20
748.76739999999995
 30
0.0
 11
866.74489999999992
 21
772.7376999999999
 31
0.0
  0
LINE
  5
333
100
AcDbEntity
  8
____
  6
STYLE_05
 62
               1
100
AcDbLine
 10
863.68089999999995
 20
748.55449999999996
 30
0.0
 11
862.4822999999999
 21
772.52479999999991
 31
0.0
  0
POLYLINE
  5
334
100
AcDbEntity
  8
____
  6
STYLE_05
 62
              30
100
AcDb2dPolyline
 66
               1
 10
0.0
 20
0.0
 30
0.0
 70
               1
 75
               5
  0
VERTEX
  5
335
100
AcDbEntity
  8
____
  6
STYLE_05
 62
              30
100
AcDbVertex
100
AcDb2dVertex
 10
792.06929999999988
 20
781.71979999999996
 30
0.0
  0
VERTEX
  5
336
100
AcDbEntity
  8
____
  6
STYLE_05
 62
              30
100
AcDbVertex
100
AcDb2dVertex
 10
795.20029999999997
 20
785.18049999999994
 30
0.0
  0
VERTEX
  5
337
100
AcDbEntity
  8
____
  6
STYLE_05
 62
              30
100
AcDbVertex
100
AcDb2dVertex
 10
782.61619999999994
 20
784.55129999999997
 30
0.0
  0
VERTEX
  5
338
100
AcDbEntity
  8
____
  6
STYLE_05
 62
              30
100
AcDbVertex
100
AcDb2dVertex
 10
786.07679999999993
 20
781.42019999999991
 30
0.0
  0
SEQEND
  5
339
100
AcDbEntity
  8
____
  6
STYLE_05
 62
              30
  0
POLYLINE
  5
33B
100
AcDbEntity
  8
____
  6
STYLE_05
 62
              30
100
AcDb2dPolyline
 66
               1
 10
0.0
 20
0.0
 30
0.0
 70
             129
  0
VERTEX
  5
33C
100
AcDbEntity
  8
____
  6
STYLE_05
 62
              30
100
AcDbVertex
100
AcDb2dVertex
 10
792.27079999999989
 20
769.01409999999998
 30
0.0
  0
VERTEX
  5
33D
100
AcDbEntity
  8
____
  6
STYLE_05
 62
              30
100
AcDbVertex
100
AcDb2dVertex
 10
792.27079999999989
 20
769.01409999999998
 30
0.0
  0
VERTEX
  5
33E
100
AcDbEntity
  8
____
  6
STYLE_05
 62
              30
100
AcDbVertex
100
AcDb2dVertex
 10
791.63679999999988
 20
781.69819999999993
 30
0.0
  0
VERTEX
  5
33F
100
AcDbEntity
  8
____
  6
STYLE_05
 62
              30
100
AcDbVertex
100
AcDb2dVertex
 10
786.50909999999988
 20
781.44179999999994
 30
0.0
  0
VERTEX
  5
340
100
AcDbEntity
  8
____
  6
STYLE_05
 62
              30
100
AcDbVertex
100
AcDb2dVertex
 10
786.50909999999988
 20
781.44179999999994
 30
0.0
  0
VERTEX
  5
341
100
AcDbEntity
  8
____
  6
STYLE_05
 62
              30
100
AcDbVertex
100
AcDb2dVertex
 10
787.14319999999998
 20
768.75769999999989
 30
0.0
  0
SEQEND
  5
342
100
AcDbEntity
  8
____
  6
STYLE_05
 62
              30
  0
POLYLINE
  5
343
100
AcDbEntity
  8
____
  6
STYLE_05
 62
              30
100
AcDb2dPolyline
 66
               1
 10
0.0
 20
0.0
 30
0.0
 70
               1
 75
               5
  0
VERTEX
  5
344
100
AcDbEntity
  8
____
  6
STYLE_05
 62
              30
100
AcDbVertex
100
AcDb2dVertex
 10
792.70339999999987
 20
769.03549999999996
 30
0.0
  0
VERTEX
  5
345
100
AcDbEntity
  8
____
  6
STYLE_05
 62
              30
100
AcDbVertex
100
AcDb2dVertex
 10
792.70339999999987
 20
769.03549999999996
 30
0.0
  0
VERTEX
  5
346
100
AcDbEntity
  8
____
  6
STYLE_05
 62
              30
100
AcDbVertex
100
AcDb2dVertex
 10
793.85859999999991
 20
745.93049999999994
 30
0.0
  0
VERTEX
  5
347
100
AcDbEntity
  8
____
  6
STYLE_05
 62
              30
100
AcDbVertex
100
AcDb2dVertex
 10
793.03689999999995
 20
745.02229999999997
 30
0.0
  0
VERTEX
  5
348
100
AcDbEntity
  8
____
  6
STYLE_05
 62
              30
100
AcDbVertex
100
AcDb2dVertex
 10
788.7743999999999
 20
744.80919999999992
 30
0.0
  0
VERTEX
  5
349
100
AcDbEntity
  8
____
  6
STYLE_05
 62
              30
100
AcDbVertex
100
AcDb2dVertex
 10
787.86619999999994
 20
745.63089999999988
 30
0.0
  0
VERTEX
  5
34A
100
AcDbEntity
  8
____
  6
STYLE_05
 62
              30
100
AcDbVertex
100
AcDb2dVertex
 10
786.71109999999999
 20
768.73609999999996
 30
0.0
  0
SEQEND
  5
34B
100
AcDbEntity
  8
____
  6
STYLE_05
 62
              30
  0
LINE
  5
34D
100
AcDbEntity
  8
____
  6
STYLE_05
 62
              30
100
AcDbLine
 10
787.86619999999994
 20
745.63089999999988
 30
0.0
 11
793.85859999999991
 21
745.93059999999991
 31
0.0
  0
LINE
  5
34E
100
AcDbEntity
  8
____
  6
STYLE_05
 62
               1
100
AcDbLine
 10
793.03699999999992
 20
745.02199999999993
 30
0.0
 11
791.83849999999995
 21
768.99229999999989
 31
0.0
  0
LINE
  5
34F
100
AcDbEntity
  8
____
  6
STYLE_05
 62
               1
100
AcDbLine
 10
788.77449999999988
 20
744.80919999999992
 30
0.0
 11
787.57589999999993
 21
768.77949999999998
 31
0.0
  0
POLYLINE
  5
350
100
AcDbEntity
  8
____
  6
STYLE_05
 62
              30
100
AcDb2dPolyline
 66
               1
 10
0.0
 20
0.0
 30
0.0
 70
               1
 75
               5
  0
VERTEX
  5
351
100
AcDbEntity
  8
____
  6
STYLE_05
 62
              30
100
AcDbVertex
100
AcDb2dVertex
 10
717.16279999999995
 20
777.97449999999992
 30
0.0
  0
VERTEX
  5
352
100
AcDbEntity
  8
____
  6
STYLE_05
 62
              30
100
AcDbVertex
100
AcDb2dVertex
 10
720.29379999999992
 20
781.4351999999999
 30
0.0
  0
VERTEX
  5
353
100
AcDbEntity
  8
____
  6
STYLE_05
 62
              30
100
AcDbVertex
100
AcDb2dVertex
 10
707.70969999999988
 20
780.80599999999993
 30
0.0
  0
VERTEX
  5
354
100
AcDbEntity
  8
____
  6
STYLE_05
 62
              30
100
AcDbVertex
100
AcDb2dVertex
 10
711.17029999999988
 20
777.67479999999989
 30
0.0
  0
SEQEND
  5
355
100
AcDbEntity
  8
____
  6
STYLE_05
 62
              30
  0
POLYLINE
  5
357
100
AcDbEntity
  8
____
  6
STYLE_05
 62
              30
100
AcDb2dPolyline
 66
               1
 10
0.0
 20
0.0
 30
0.0
 70
             129
  0
VERTEX
  5
358
100
AcDbEntity
  8
____
  6
STYLE_05
 62
              30
100
AcDbVertex
100
AcDb2dVertex
 10
717.36439999999993
 20
765.26869999999997
 30
0.0
  0
VERTEX
  5
359
100
AcDbEntity
  8
____
  6
STYLE_05
 62
              30
100
AcDbVertex
100
AcDb2dVertex
 10
717.36439999999993
 20
765.26869999999997
 30
0.0
  0
VERTEX
  5
35A
100
AcDbEntity
  8
____
  6
STYLE_05
 62
              30
100
AcDbVertex
100
AcDb2dVertex
 10
716.73039999999992
 20
777.95279999999991
 30
0.0
  0
VERTEX
  5
35B
100
AcDbEntity
  8
____
  6
STYLE_05
 62
              30
100
AcDbVertex
100
AcDb2dVertex
 10
711.60269999999991
 20
777.6964999999999
 30
0.0
  0
VERTEX
  5
35C
100
AcDbEntity
  8
____
  6
STYLE_05
 62
              30
100
AcDbVertex
100
AcDb2dVertex
 10
711.60269999999991
 20
777.6964999999999
 30
0.0
  0
VERTEX
  5
35D
100
AcDbEntity
  8
____
  6
STYLE_05
 62
              30
100
AcDbVertex
100
AcDb2dVertex
 10
712.2367999999999
 20
765.01239999999996
 30
0.0
  0
SEQEND
  5
35E
100
AcDbEntity
  8
____
  6
STYLE_05
 62
              30
  0
POLYLINE
  5
35F
100
AcDbEntity
  8
____
  6
STYLE_05
 62
              30
100
AcDb2dPolyline
 66
               1
 10
0.0
 20
0.0
 30
0.0
 70
               1
 75
               5
  0
VERTEX
  5
360
100
AcDbEntity
  8
____
  6
STYLE_05
 62
              30
100
AcDbVertex
100
AcDb2dVertex
 10
717.79689999999994
 20
765.29019999999991
 30
0.0
  0
VERTEX
  5
361
100
AcDbEntity
  8
____
  6
STYLE_05
 62
              30
100
AcDbVertex
100
AcDb2dVertex
 10
717.79689999999994
 20
765.29019999999991
 30
0.0
  0
VERTEX
  5
362
100
AcDbEntity
  8
____
  6
STYLE_05
 62
              30
100
AcDbVertex
100
AcDb2dVertex
 10
718.95209999999997
 20
742.1851999999999
 30
0.0
  0
VERTEX
  5
363
100
AcDbEntity
  8
____
  6
STYLE_05
 62
              30
100
AcDbVertex
100
AcDb2dVertex
 10
718.1303999999999
 20
741.27699999999993
 30
0.0
  0
VERTEX
  5
364
100
AcDbEntity
  8
____
  6
STYLE_05
 62
              30
100
AcDbVertex
100
AcDb2dVertex
 10
713.86799999999994
 20
741.06389999999999
 30
0.0
  0
VERTEX
  5
365
100
AcDbEntity
  8
____
  6
STYLE_05
 62
              30
100
AcDbVertex
100
AcDb2dVertex
 10
712.95969999999988
 20
741.88549999999998
 30
0.0
  0
VERTEX
  5
366
100
AcDbEntity
  8
____
  6
STYLE_05
 62
              30
100
AcDbVertex
100
AcDb2dVertex
 10
711.80459999999994
 20
764.99069999999995
 30
0.0
  0
SEQEND
  5
367
100
AcDbEntity
  8
____
  6
STYLE_05
 62
              30
  0
LINE
  5
369
100
AcDbEntity
  8
____
  6
STYLE_05
 62
              30
100
AcDbLine
 10
712.95969999999988
 20
741.88549999999998
 30
0.0
 11
718.95209999999997
 21
742.18529999999998
 31
0.0
  0
LINE
  5
36A
100
AcDbEntity
  8
____
  6
STYLE_05
 62
               1
100
AcDbLine
 10
718.13049999999998
 20
741.27669999999989
 30
0.0
 11
716.9319999999999
 21
765.24699999999996
 31
0.0
  0
LINE
  5
36B
100
AcDbEntity
  8
____
  6
STYLE_05
 62
               1
100
AcDbLine
 10
713.86809999999991
 20
741.06389999999999
 30
0.0
 11
712.66949999999997
 21
765.03419999999994
 31
0.0
  0
POLYLINE
  5
36C
100
AcDbEntity
  8
____
  6
STYLE_05
 62
              30
100
AcDb2dPolyline
 66
               1
 10
0.0
 20
0.0
 30
0.0
 70
               1
 75
               5
  0
VERTEX
  5
36D
100
AcDbEntity
  8
____
  6
STYLE_05
 62
              30
100
AcDbVertex
100
AcDb2dVertex
 10
642.25639999999999
 20
774.2290999999999
 30
0.0
  0
VERTEX
  5
36E
100
AcDbEntity
  8
____
  6
STYLE_05
 62
              30
100
AcDbVertex
100
AcDb2dVertex
 10
645.38739999999996
 20
777.68979999999988
 30
0.0
  0
VERTEX
  5
36F
100
AcDbEntity
  8
____
  6
STYLE_05
 62
              30
100
AcDbVertex
100
AcDb2dVertex
 10
632.80329999999992
 20
777.06059999999991
 30
0.0
  0
VERTEX
  5
370
100
AcDbEntity
  8
____
  6
STYLE_05
 62
              30
100
AcDbVertex
100
AcDb2dVertex
 10
636.26389999999992
 20
773.92949999999996
 30
0.0
  0
SEQEND
  5
371
100
AcDbEntity
  8
____
  6
STYLE_05
 62
              30
  0
POLYLINE
  5
373
100
AcDbEntity
  8
____
  6
STYLE_05
 62
              30
100
AcDb2dPolyline
 66
               1
 10
0.0
 20
0.0
 30
0.0
 70
             129
  0
VERTEX
  5
374
100
AcDbEntity
  8
____
  6
STYLE_05
 62
              30
100
AcDbVertex
100
AcDb2dVertex
 10
642.45799999999997
 20
761.52339999999992
 30
0.0
  0
VERTEX
  5
375
100
AcDbEntity
  8
____
  6
STYLE_05
 62
              30
100
AcDbVertex
100
AcDb2dVertex
 10
642.45799999999997
 20
761.52339999999992
 30
0.0
  0
VERTEX
  5
376
100
AcDbEntity
  8
____
  6
STYLE_05
 62
              30
100
AcDbVertex
100
AcDb2dVertex
 10
641.82399999999996
 20
774.20749999999998
 30
0.0
  0
VERTEX
  5
377
100
AcDbEntity
  8
____
  6
STYLE_05
 62
              30
100
AcDbVertex
100
AcDb2dVertex
 10
636.69629999999995
 20
773.95109999999988
 30
0.0
  0
VERTEX
  5
378
100
AcDbEntity
  8
____
  6
STYLE_05
 62
              30
100
AcDbVertex
100
AcDb2dVertex
 10
636.69629999999995
 20
773.95109999999988
 30
0.0
  0
VERTEX
  5
379
100
AcDbEntity
  8
____
  6
STYLE_05
 62
              30
100
AcDbVertex
100
AcDb2dVertex
 10
637.33039999999994
 20
761.26699999999994
 30
0.0
  0
SEQEND
  5
37A
100
AcDbEntity
  8
____
  6
STYLE_05
 62
              30
  0
POLYLINE
  5
37B
100
AcDbEntity
  8
____
  6
STYLE_05
 62
              30
100
AcDb2dPolyline
 66
               1
 10
0.0
 20
0.0
 30
0.0
 70
               1
 75
               5
  0
VERTEX
  5
37C
100
AcDbEntity
  8
____
  6
STYLE_05
 62
              30
100
AcDbVertex
100
AcDb2dVertex
 10
642.89049999999997
 20
761.5447999999999
 30
0.0
  0
VERTEX
  5
37D
100
AcDbEntity
  8
____
  6
STYLE_05
 62
              30
100
AcDbVertex
100
AcDb2dVertex
 10
642.89049999999997
 20
761.5447999999999
 30
0.0
  0
VERTEX
  5
37E
100
AcDbEntity
  8
____
  6
STYLE_05
 62
              30
100
AcDbVertex
100
AcDb2dVertex
 10
644.0456999999999
 20
738.43979999999999
 30
0.0
  0
VERTEX
  5
37F
100
AcDbEntity
  8
____
  6
STYLE_05
 62
              30
100
AcDbVertex
100
AcDb2dVertex
 10
643.22399999999993
 20
737.53169999999989
 30
0.0
  0
VERTEX
  5
380
100
AcDbEntity
  8
____
  6
STYLE_05
 62
              30
100
AcDbVertex
100
AcDb2dVertex
 10
638.96149999999989
 20
737.31859999999995
 30
0.0
  0
VERTEX
  5
381
100
AcDbEntity
  8
____
  6
STYLE_05
 62
              30
100
AcDbVertex
100
AcDb2dVertex
 10
638.05329999999992
 20
738.14019999999994
 30
0.0
  0
VERTEX
  5
382
100
AcDbEntity
  8
____
  6
STYLE_05
 62
              30
100
AcDbVertex
100
AcDb2dVertex
 10
636.89819999999997
 20
761.2453999999999
 30
0.0
  0
SEQEND
  5
383
100
AcDbEntity
  8
____
  6
STYLE_05
 62
              30
  0
LINE
  5
385
100
AcDbEntity
  8
____
  6
STYLE_05
 62
              30
100
AcDbLine
 10
638.05329999999992
 20
738.14019999999994
 30
0.0
 11
644.0456999999999
 21
738.43989999999997
 31
0.0
  0
LINE
  5
386
100
AcDbEntity
  8
____
  6
STYLE_05
 62
               1
100
AcDbLine
 10
643.22409999999991
 20
737.53139999999996
 30
0.0
 11
642.02559999999994
 21
761.50169999999991
 31
0.0
  0
LINE
  5
387
100
AcDbEntity
  8
____
  6
STYLE_05
 62
               1
100
AcDbLine
 10
638.96159999999998
 20
737.31859999999995
 30
0.0
 11
637.76299999999992
 21
761.2888999999999
 31
0.0
  0
POLYLINE
  5
388
100
AcDbEntity
  8
____
  6
STYLE_05
 62
              30
100
AcDb2dPolyline
 66
               1
 10
0.0
 20
0.0
 30
0.0
 70
               1
 75
               5
  0
VERTEX
  5
389
100
AcDbEntity
  8
____
  6
STYLE_05
 62
              30
100
AcDbVertex
100
AcDb2dVertex
 10
567.34999999999991
 20
770.48379999999997
 30
0.0
  0
VERTEX
  5
38A
100
AcDbEntity
  8
____
  6
STYLE_05
 62
              30
100
AcDbVertex
100
AcDb2dVertex
 10
570.48099999999999
 20
773.94449999999995
 30
0.0
  0
VERTEX
  5
38B
100
AcDbEntity
  8
____
  6
STYLE_05
 62
              30
100
AcDbVertex
100
AcDb2dVertex
 10
557.89689999999996
 20
773.31529999999998
 30
0.0
  0
VERTEX
  5
38C
100
AcDbEntity
  8
____
  6
STYLE_05
 62
              30
100
AcDbVertex
100
AcDb2dVertex
 10
561.35749999999996
 20
770.18419999999992
 30
0.0
  0
SEQEND
  5
38D
100
AcDbEntity
  8
____
  6
STYLE_05
 62
              30
  0
POLYLINE
  5
38F
100
AcDbEntity
  8
____
  6
STYLE_05
 62
              30
100
AcDb2dPolyline
 66
               1
 10
0.0
 20
0.0
 30
0.0
 70
             129
  0
VERTEX
  5
390
100
AcDbEntity
  8
____
  6
STYLE_05
 62
              30
100
AcDbVertex
100
AcDb2dVertex
 10
567.55149999999992
 20
757.77809999999988
 30
0.0
  0
VERTEX
  5
391
100
AcDbEntity
  8
____
  6
STYLE_05
 62
              30
100
AcDbVertex
100
AcDb2dVertex
 10
567.55149999999992
 20
757.77809999999988
 30
0.0
  0
VERTEX
  5
392
100
AcDbEntity
  8
____
  6
STYLE_05
 62
              30
100
AcDbVertex
100
AcDb2dVertex
 10
566.9174999999999
 20
770.46219999999994
 30
0.0
  0
VERTEX
  5
393
100
AcDbEntity
  8
____
  6
STYLE_05
 62
              30
100
AcDbVertex
100
AcDb2dVertex
 10
561.7897999999999
 20
770.20579999999995
 30
0.0
  0
VERTEX
  5
394
100
AcDbEntity
  8
____
  6
STYLE_05
 62
              30
100
AcDbVertex
100
AcDb2dVertex
 10
561.7897999999999
 20
770.20579999999995
 30
0.0
  0
VERTEX
  5
395
100
AcDbEntity
  8
____
  6
STYLE_05
 62
              30
100
AcDbVertex
100
AcDb2dVertex
 10
562.4239
 20
757.5216999999999
 30
0.0
  0
SEQEND
  5
396
100
AcDbEntity
  8
____
  6
STYLE_05
 62
              30
  0
POLYLINE
  5
397
100
AcDbEntity
  8
____
  6
STYLE_05
 62
              30
100
AcDb2dPolyline
 66
               1
 10
0.0
 20
0.0
 30
0.0
 70
               1
 75
               5
  0
VERTEX
  5
398
100
AcDbEntity
  8
____
  6
STYLE_05
 62
              30
100
AcDbVertex
100
AcDb2dVertex
 10
567.9840999999999
 20
757.79949999999997
 30
0.0
  0
VERTEX
  5
399
100
AcDbEntity
  8
____
  6
STYLE_05
 62
              30
100
AcDbVertex
100
AcDb2dVertex
 10
567.9840999999999
 20
757.79949999999997
 30
0.0
  0
VERTEX
  5
39A
100
AcDbEntity
  8
____
  6
STYLE_05
 62
              30
100
AcDbVertex
100
AcDb2dVertex
 10
569.13929999999993
 20
734.69449999999995
 30
0.0
  0
VERTEX
  5
39B
100
AcDbEntity
  8
____
  6
STYLE_05
 62
              30
100
AcDbVertex
100
AcDb2dVertex
 10
568.31759999999997
 20
733.78639999999996
 30
0.0
  0
VERTEX
  5
39C
100
AcDbEntity
  8
____
  6
STYLE_05
 62
              30
100
AcDbVertex
100
AcDb2dVertex
 10
564.05509999999992
 20
733.57319999999993
 30
0.0
  0
VERTEX
  5
39D
100
AcDbEntity
  8
____
  6
STYLE_05
 62
              30
100
AcDbVertex
100
AcDb2dVertex
 10
563.14689999999996
 20
734.39489999999989
 30
0.0
  0
VERTEX
  5
39E
100
AcDbEntity
  8
____
  6
STYLE_05
 62
              30
100
AcDbVertex
100
AcDb2dVertex
 10
561.9917999999999
 20
757.50009999999997
 30
0.0
  0
SEQEND
  5
39F
100
AcDbEntity
  8
____
  6
STYLE_05
 62
              30
  0
LINE
  5
3A1
100
AcDbEntity
  8
____
  6
STYLE_05
 62
              30
100
AcDbLine
 10
563.14689999999996
 20
734.39489999999989
 30
0.0
 11
569.13929999999993
 21
734.69459999999992
 31
0.0
  0
LINE
  5
3A2
100
AcDbEntity
  8
____
  6
STYLE_05
 62
               1
100
AcDbLine
 10
568.31769999999995
 20
733.78609999999992
 30
0.0
 11
567.11919999999998
 21
757.75639999999999
 31
0.0
  0
LINE
  5
3A3
100
AcDbEntity
  8
____
  6
STYLE_05
 62
               1
100
AcDbLine
 10
564.0551999999999
 20
733.5732999999999
 30
0.0
 11
562.85659999999996
 21
757.54349999999988
 31
0.0
  0
LINE
  5
3A4
100
AcDbEntity
  8
____
  6
CONTINUOUS
 62
              30
100
AcDbLine
 10
529.4609999999999
 20
767.23759999999993
 30
0.0
 11
674.28539999999998
 21
774.37139999999988
 31
0.0
  0
LINE
  5
3A5
100
AcDbEntity
  8
____
  6
CONTINUOUS
 62
              30
100
AcDbLine
 10
669.04189999999994
 20
779.11539999999991
 30
0.0
 11
670.29029999999989
 21
754.14659999999992
 31
0.0
  0
LINE
  5
3A6
100
AcDbEntity
  8
____
  6
CONTINUOUS
 62
              30
100
AcDbLine
 10
534.20499999999993
 20
772.48099999999988
 30
0.0
 11
535.45349999999996
 21
747.51209999999992
 31
0.0
  0
LINE
  5
3A7
100
AcDbEntity
  8
____
  6
CONTINUOUS
 62
              30
100
AcDbLine
 10
679.27979999999991
 20
774.6090999999999
 30
0.0
 11
824.10419999999988
 21
781.74279999999999
 31
0.0
  0
LINE
  5
3A8
100
AcDbEntity
  8
____
  6
CONTINUOUS
 62
              30
100
AcDbLine
 10
818.86079999999993
 20
786.48689999999988
 30
0.0
 11
820.10929999999996
 21
761.51809999999989
 31
0.0
  0
LINE
  5
3A9
100
AcDbEntity
  8
____
  6
CONTINUOUS
 62
              30
100
AcDbLine
 10
684.02379999999994
 20
779.85249999999996
 30
0.0
 11
685.27219999999988
 21
754.88369999999998
 31
0.0
  0
LINE
  5
3AA
100
AcDbEntity
  8
____
  6
CONTINUOUS
 62
              30
100
AcDbLine
 10
829.09859999999992
 20
781.98049999999989
 30
0.0
 11
973.92289999999991
 21
789.11439999999993
 31
0.0
  0
LINE
  5
3AB
100
AcDbEntity
  8
____
  6
CONTINUOUS
 62
              30
100
AcDbLine
 10
968.67939999999987
 20
793.85839999999996
 30
0.0
 11
969.92779999999993
 21
768.88959999999997
 31
0.0
  0
LINE
  5
3AC
100
AcDbEntity
  8
____
  6
CONTINUOUS
 62
              30
100
AcDbLine
 10
833.84269999999992
 20
787.22399999999993
 30
0.0
 11
835.09119999999996
 21
762.25529999999992
 31
0.0
  0
LINE
  5
3AD
100
AcDbEntity
  8
____
  6
CONTINUOUS
 62
              30
100
AcDbLine
 10
975.44999999999993
 20
744.51599999999996
 30
0.0
 11
975.44999999999993
 21
202.26569999999998
 31
0.0
  0
LINE
  5
3AE
100
AcDbEntity
  8
____
  6
CONTINUOUS
 62
              30
100
AcDbLine
 10
535.4375
 20
722.51529999999991
 30
0.0
 11
535.4437999999999
 21
672.26559999999995
 31
0.0
  0
LINE
  5
3AF
100
AcDbEntity
  8
____
  6
CONTINUOUS
 62
              30
100
AcDbLine
 10
535.4437999999999
 20
672.26559999999995
 30
0.0
 11
635.44369999999992
 21
402.26559999999995
 31
0.0
  0
LINE
  5
3B0
100
AcDbEntity
  8
____
  6
CONTINUOUS
 62
              30
100
AcDbLine
 10
635.44369999999992
 20
402.26559999999995
 30
0.0
 11
635.4437999999999
 21
202.26549999999997
 31
0.0
  0
POLYLINE
  5
3B1
100
AcDbEntity
  8
____
  6
STYLE_05
 62
              30
100
AcDb2dPolyline
 66
               1
 10
0.0
 20
0.0
 30
0.0
 70
               1
 75
               5
  0
VERTEX
  5
3B2
100
AcDbEntity
  8
____
  6
STYLE_05
 62
              30
100
AcDbVertex
100
AcDb2dVertex
 10
-1006.0560999999999
 20
-427.73429999999996
 30
0.0
  0
VERTEX
  5
3B3
100
AcDbEntity
  8
____
  6
STYLE_05
 62
              30
100
AcDbVertex
100
AcDb2dVertex
 10
-956.0560999999999
 20
-427.73429999999996
 30
0.0
  0
VERTEX
  5
3B4
100
AcDbEntity
  8
____
  6
STYLE_05
 62
              30
100
AcDbVertex
100
AcDb2dVertex
 10
-956.05629999999996
 20
-857.73429999999996
 30
0.0
  0
VERTEX
  5
3B5
100
AcDbEntity
  8
____
  6
STYLE_05
 62
              30
100
AcDbVertex
100
AcDb2dVertex
 10
-1006.0560999999999
 20
-857.73429999999996
 30
0.0
  0
SEQEND
  5
3B6
100
AcDbEntity
  8
____
  6
STYLE_05
 62
              30
  0
CIRCLE
  5
3B8
100
AcDbEntity
  8
____
  6
CONTINUOUS
 62
              30
100
AcDbCircle
 10
-981.05619999999988
 20
-455.23419999999999
 30
0.0
 40
6.2999999999999545
  0
POLYLINE
  5
3B9
100
AcDbEntity
  8
____
  6
CONTINUOUS
 62
              30
100
AcDb2dPolyline
 66
               1
 10
0.0
 20
0.0
 30
0.0
 70
             129
  0
VERTEX
  5
3BA
100
AcDbEntity
  8
____
  6
CONTINUOUS
 62
              30
100
AcDbVertex
100
AcDb2dVertex
 10
-982.00609999999995
 20
-451.29679999999996
 30
0.0
  0
VERTEX
  5
3BB
100
AcDbEntity
  8
____
  6
CONTINUOUS
 62
              30
100
AcDbVertex
100
AcDb2dVertex
 10
-980.10609999999997
 20
-451.29679999999996
 30
0.0
  0
VERTEX
  5
3BC
100
AcDbEntity
  8
____
  6
CONTINUOUS
 62
              30
100
AcDbVertex
100
AcDb2dVertex
 10
-980.10614999665268
 20
-452.79044999832638
 30
0.0
 42
0.4142233663641816
 70
               2
 50
-0.0019178503587056
  0
VERTEX
  5
3BD
100
AcDbEntity
  8
____
  6
CONTINUOUS
 62
              30
100
AcDbVertex
100
AcDb2dVertex
 10
-978.61234999748956
 20
-454.28429999999997
 30
0.0
  0
VERTEX
  5
3BE
100
AcDbEntity
  8
____
  6
CONTINUOUS
 62
              30
100
AcDbVertex
100
AcDb2dVertex
 10
-977.1185999999999
 20
-454.28429999999997
 30
0.0
  0
VERTEX
  5
3BF
100
AcDbEntity
  8
____
  6
CONTINUOUS
 62
              30
100
AcDbVertex
100
AcDb2dVertex
 10
-977.11869999999988
 20
-456.18429999999995
 30
0.0
  0
VERTEX
  5
3C0
100
AcDbEntity
  8
____
  6
CONTINUOUS
 62
              30
100
AcDbVertex
100
AcDb2dVertex
 10
-978.61235000083684
 20
-456.18429999999995
 30
0.0
 42
0.4142037584499851
 70
               2
 50
9.3574199307792870E+17
  0
VERTEX
  5
3C1
100
AcDbEntity
  8
____
  6
CONTINUOUS
 62
              30
100
AcDbVertex
100
AcDb2dVertex
 10
-980.10614999999996
 20
-457.6780499983264
 30
0.0
  0
VERTEX
  5
3C2
100
AcDbEntity
  8
____
  6
CONTINUOUS
 62
              30
100
AcDbVertex
100
AcDb2dVertex
 10
-980.10619999999994
 20
-459.17179999999996
 30
0.0
  0
VERTEX
  5
3C3
100
AcDbEntity
  8
____
  6
CONTINUOUS
 62
              30
100
AcDbVertex
100
AcDb2dVertex
 10
-982.00619999999992
 20
-459.17169999999999
 30
0.0
  0
VERTEX
  5
3C4
100
AcDbEntity
  8
____
  6
CONTINUOUS
 62
              30
100
AcDbVertex
100
AcDb2dVertex
 10
-982.00619999999992
 20
-457.67815000251045
 30
0.0
 42
0.4142233663641816
 70
               2
  0
VERTEX
  5
3C5
100
AcDbEntity
  8
____
  6
CONTINUOUS
 62
              30
100
AcDbVertex
100
AcDb2dVertex
 10
-983.50005000167346
 20
-456.18435000334728
 30
0.0
  0
VERTEX
  5
3C6
100
AcDbEntity
  8
____
  6
CONTINUOUS
 62
              30
100
AcDbVertex
100
AcDb2dVertex
 10
-984.99369999999988
 20
-456.18439999999998
 30
0.0
  0
VERTEX
  5
3C7
100
AcDbEntity
  8
____
  6
CONTINUOUS
 62
              30
100
AcDbVertex
100
AcDb2dVertex
 10
-984.99369999999988
 20
-454.28439999999995
 30
0.0
  0
VERTEX
  5
3C8
100
AcDbEntity
  8
____
  6
CONTINUOUS
 62
              30
100
AcDbVertex
100
AcDb2dVertex
 10
-983.49984999999992
 20
-454.28434999832638
 30
0.0
 42
0.4142037587781156
 70
               2
 50
-1711768.7082062177
  0
VERTEX
  5
3C9
100
AcDbEntity
  8
____
  6
CONTINUOUS
 62
              30
100
AcDbVertex
100
AcDb2dVertex
 10
-982.00609999999995
 20
-452.79054999916315
 30
0.0
  0
SEQEND
  5
3CA
100
AcDbEntity
  8
____
  6
CONTINUOUS
 62
              30
  0
CIRCLE
  5
3CB
100
AcDbEntity
  8
____
  6
CONTINUOUS
 62
              30
100
AcDbCircle
 10
-981.0560999999999
 20
-530.23439999999994
 30
0.0
 40
6.2999999999999545
  0
POLYLINE
  5
3CC
100
AcDbEntity
  8
____
  6
CONTINUOUS
 62
              30
100
AcDb2dPolyline
 66
               1
 10
0.0
 20
0.0
 30
0.0
 70
             129
  0
VERTEX
  5
3CD
100
AcDbEntity
  8
____
  6
CONTINUOUS
 62
              30
100
AcDbVertex
100
AcDb2dVertex
 10
-982.00619999999992
 20
-526.29669999999999
 30
0.0
  0
VERTEX
  5
3CE
100
AcDbEntity
  8
____
  6
CONTINUOUS
 62
              30
100
AcDbVertex
100
AcDb2dVertex
 10
-980.10629999999992
 20
-526.29679999999996
 30
0.0
  0
VERTEX
  5
3CF
100
AcDbEntity
  8
____
  6
CONTINUOUS
 62
              30
100
AcDbVertex
100
AcDb2dVertex
 10
-980.10619999665244
 20
-527.79060000334698
 30
0.0
 42
0.4141939545948052
 70
               2
 50
0.0038357007194742
  0
VERTEX
  5
3D0
100
AcDbEntity
  8
____
  6
CONTINUOUS
 62
              30
100
AcDbVertex
100
AcDb2dVertex
 10
-978.61239999999987
 20
-529.28429999999992
 30
0.0
  0
VERTEX
  5
3D1
100
AcDbEntity
  8
____
  6
CONTINUOUS
 62
              30
100
AcDbVertex
100
AcDb2dVertex
 10
-977.1185999999999
 20
-529.28429999999992
 30
0.0
  0
VERTEX
  5
3D2
100
AcDbEntity
  8
____
  6
CONTINUOUS
 62
              30
100
AcDbVertex
100
AcDb2dVertex
 10
-977.1185999999999
 20
-531.18439999999998
 30
0.0
  0
VERTEX
  5
3D3
100
AcDbEntity
  8
____
  6
CONTINUOUS
 62
              30
100
AcDbVertex
100
AcDb2dVertex
 10
-978.61234999999999
 20
-531.18435000167358
 30
0.0
 42
0.4142233660360354
 70
               2
 50
1711768.7082050478
  0
VERTEX
  5
3D4
100
AcDbEntity
  8
____
  6
CONTINUOUS
 62
              30
100
AcDbVertex
100
AcDb2dVertex
 10
-980.10619999999994
 20
-532.67815000083681
 30
0.0
  0
VERTEX
  5
3D5
100
AcDbEntity
  8
____
  6
CONTINUOUS
 62
              30
100
AcDbVertex
100
AcDb2dVertex
 10
-980.10619999999994
 20
-534.17179999999996
 30
0.0
  0
VERTEX
  5
3D6
100
AcDbEntity
  8
____
  6
CONTINUOUS
 62
              30
100
AcDbVertex
100
AcDb2dVertex
 10
-982.00609999999995
 20
-534.17179999999996
 30
0.0
  0
VERTEX
  5
3D7
100
AcDbEntity
  8
____
  6
CONTINUOUS
 62
              30
100
AcDbVertex
100
AcDb2dVertex
 10
-982.00609999999995
 20
-532.67809999999997
 30
0.0
 42
0.414213562373095
 70
               2
  0
VERTEX
  5
3D8
100
AcDbEntity
  8
____
  6
CONTINUOUS
 62
              30
100
AcDbVertex
100
AcDb2dVertex
 10
-983.49989999999991
 20
-531.18430000000001
 30
0.0
  0
VERTEX
  5
3D9
100
AcDbEntity
  8
____
  6
CONTINUOUS
 62
              30
100
AcDbVertex
100
AcDb2dVertex
 10
-984.99369999999988
 20
-531.18430000000001
 30
0.0
  0
VERTEX
  5
3DA
100
AcDbEntity
  8
____
  6
CONTINUOUS
 62
              30
100
AcDbVertex
100
AcDb2dVertex
 10
-984.9935999999999
 20
-529.28440000000001
 30
0.0
  0
VERTEX
  5
3DB
100
AcDbEntity
  8
____
  6
CONTINUOUS
 62
              30
100
AcDbVertex
100
AcDb2dVertex
 10
-983.49989999748936
 20
-529.28435000167349
 30
0.0
 42
0.4142135620449511
 70
               2
 50
-1711711.4143429783
  0
VERTEX
  5
3DC
100
AcDbEntity
  8
____
  6
CONTINUOUS
 62
              30
100
AcDbVertex
100
AcDb2dVertex
 10
-982.00614999999982
 20
-527.79050000251038
 30
0.0
  0
SEQEND
  5
3DD
100
AcDbEntity
  8
____
  6
CONTINUOUS
 62
              30
  0
CIRCLE
  5
3DE
100
AcDbEntity
  8
____
  6
CONTINUOUS
 62
              30
100
AcDbCircle
 10
-981.05619999999988
 20
-605.23429999999996
 30
0.0
 40
6.3000999999999294
  0
POLYLINE
  5
3DF
100
AcDbEntity
  8
____
  6
CONTINUOUS
 62
              30
100
AcDb2dPolyline
 66
               1
 10
0.0
 20
0.0
 30
0.0
 70
             129
  0
VERTEX
  5
3E0
100
AcDbEntity
  8
____
  6
CONTINUOUS
 62
              30
100
AcDbVertex
100
AcDb2dVertex
 10
-982.00609999999995
 20
-601.29679999999996
 30
0.0
  0
VERTEX
  5
3E1
100
AcDbEntity
  8
____
  6
CONTINUOUS
 62
              30
100
AcDbVertex
100
AcDb2dVertex
 10
-980.10619999999994
 20
-601.29679999999996
 30
0.0
  0
VERTEX
  5
3E2
100
AcDbEntity
  8
____
  6
CONTINUOUS
 62
              30
100
AcDbVertex
100
AcDb2dVertex
 10
-980.10619999999994
 20
-602.79055000083679
 30
0.0
 42
0.414203758449974
 70
               2
  0
VERTEX
  5
3E3
100
AcDbEntity
  8
____
  6
CONTINUOUS
 62
              30
100
AcDbVertex
100
AcDb2dVertex
 10
-978.61245000167355
 20
-604.2843499999999
 30
0.0
  0
VERTEX
  5
3E4
100
AcDbEntity
  8
____
  6
CONTINUOUS
 62
              30
100
AcDbVertex
100
AcDb2dVertex
 10
-977.11869999999988
 20
-604.28439999999989
 30
0.0
  0
VERTEX
  5
3E5
100
AcDbEntity
  8
____
  6
CONTINUOUS
 62
              30
100
AcDbVertex
100
AcDb2dVertex
 10
-977.11869999999988
 20
-606.18429999999989
 30
0.0
  0
VERTEX
  5
3E6
100
AcDbEntity
  8
____
  6
CONTINUOUS
 62
              30
100
AcDbVertex
100
AcDb2dVertex
 10
-978.61234999748956
 20
-606.18429999999989
 30
0.0
 42
0.4142233663641816
 70
               2
 50
9.3574199307792870E+17
  0
VERTEX
  5
3E7
100
AcDbEntity
  8
____
  6
CONTINUOUS
 62
              30
100
AcDbVertex
100
AcDb2dVertex
 10
-980.10614999665268
 20
-607.67815000167343
 30
0.0
  0
VERTEX
  5
3E8
100
AcDbEntity
  8
____
  6
CONTINUOUS
 62
              30
100
AcDbVertex
100
AcDb2dVertex
 10
-980.10609999999997
 20
-609.17179999999996
 30
0.0
  0
VERTEX
  5
3E9
100
AcDbEntity
  8
____
  6
CONTINUOUS
 62
              30
100
AcDbVertex
100
AcDb2dVertex
 10
-982.00609999999995
 20
-609.17179999999996
 30
0.0
  0
VERTEX
  5
3EA
100
AcDbEntity
  8
____
  6
CONTINUOUS
 62
              30
100
AcDbVertex
100
AcDb2dVertex
 10
-982.00614999832635
 20
-607.67809999916312
 30
0.0
 42
0.4142135623731174
 70
               2
 50
0.0019178503587069
  0
VERTEX
  5
3EB
100
AcDbEntity
  8
____
  6
CONTINUOUS
 62
              30
100
AcDbVertex
100
AcDb2dVertex
 10
-983.49999999916315
 20
-606.18435000167358
 30
0.0
  0
VERTEX
  5
3EC
100
AcDbEntity
  8
____
  6
CONTINUOUS
 62
              30
100
AcDbVertex
100
AcDb2dVertex
 10
-984.99369999999988
 20
-606.18439999999998
 30
0.0
  0
VERTEX
  5
3ED
100
AcDbEntity
  8
____
  6
CONTINUOUS
 62
              30
100
AcDbVertex
100
AcDb2dVertex
 10
-984.99369999999988
 20
-604.28439999999989
 30
0.0
  0
VERTEX
  5
3EE
100
AcDbEntity
  8
____
  6
CONTINUOUS
 62
              30
100
AcDbVertex
100
AcDb2dVertex
 10
-983.49984999999992
 20
-604.28434999832632
 30
0.0
 42
0.4142037587781156
 70
               2
 50
-1711768.7082062177
  0
VERTEX
  5
3EF
100
AcDbEntity
  8
____
  6
CONTINUOUS
 62
              30
100
AcDbVertex
100
AcDb2dVertex
 10
-982.00609999999995
 20
-602.79054999916309
 30
0.0
  0
SEQEND
  5
3F0
100
AcDbEntity
  8
____
  6
CONTINUOUS
 62
              30
  0
CIRCLE
  5
3F1
100
AcDbEntity
  8
____
  6
CONTINUOUS
 62
              30
100
AcDbCircle
 10
-981.0560999999999
 20
-680.23429999999996
 30
0.0
 40
6.2999999999999545
  0
POLYLINE
  5
3F2
100
AcDbEntity
  8
____
  6
CONTINUOUS
 62
              30
100
AcDb2dPolyline
 66
               1
 10
0.0
 20
0.0
 30
0.0
 70
             129
  0
VERTEX
  5
3F3
100
AcDbEntity
  8
____
  6
CONTINUOUS
 62
              30
100
AcDbVertex
100
AcDb2dVertex
 10
-982.00619999999992
 20
-676.29669999999999
 30
0.0
  0
VERTEX
  5
3F4
100
AcDbEntity
  8
____
  6
CONTINUOUS
 62
              30
100
AcDbVertex
100
AcDb2dVertex
 10
-980.10619999999994
 20
-676.29669999999999
 30
0.0
  0
VERTEX
  5
3F5
100
AcDbEntity
  8
____
  6
CONTINUOUS
 62
              30
100
AcDbVertex
100
AcDb2dVertex
 10
-980.10619999999994
 20
-677.79049999999995
 30
0.0
 42
0.414213562373095
 70
               2
  0
VERTEX
  5
3F6
100
AcDbEntity
  8
____
  6
CONTINUOUS
 62
              30
100
AcDbVertex
100
AcDb2dVertex
 10
-978.61239999999998
 20
-679.28429999999992
 30
0.0
  0
VERTEX
  5
3F7
100
AcDbEntity
  8
____
  6
CONTINUOUS
 62
              30
100
AcDbVertex
100
AcDb2dVertex
 10
-977.11869999999988
 20
-679.28429999999992
 30
0.0
  0
VERTEX
  5
3F8
100
AcDbEntity
  8
____
  6
CONTINUOUS
 62
              30
100
AcDbVertex
100
AcDb2dVertex
 10
-977.1185999999999
 20
-681.18419999999992
 30
0.0
  0
VERTEX
  5
3F9
100
AcDbEntity
  8
____
  6
CONTINUOUS
 62
              30
100
AcDbVertex
100
AcDb2dVertex
 10
-978.61239999999998
 20
-681.18419999999992
 30
0.0
 42
0.414213562373095
 70
               2
 50
9.3574199307792870E+17
  0
VERTEX
  5
3FA
100
AcDbEntity
  8
____
  6
CONTINUOUS
 62
              30
100
AcDbVertex
100
AcDb2dVertex
 10
-980.10619999999994
 20
-682.67799999999988
 30
0.0
  0
VERTEX
  5
3FB
100
AcDbEntity
  8
____
  6
CONTINUOUS
 62
              30
100
AcDbVertex
100
AcDb2dVertex
 10
-980.10619999999994
 20
-684.17179999999996
 30
0.0
  0
VERTEX
  5
3FC
100
AcDbEntity
  8
____
  6
CONTINUOUS
 62
              30
100
AcDbVertex
100
AcDb2dVertex
 10
-982.00619999999992
 20
-684.17169999999999
 30
0.0
  0
VERTEX
  5
3FD
100
AcDbEntity
  8
____
  6
CONTINUOUS
 62
              30
100
AcDbVertex
100
AcDb2dVertex
 10
-982.00619999999992
 20
-682.6780500025103
 30
0.0
 42
0.4142233663641816
 70
               2
  0
VERTEX
  5
3FE
100
AcDbEntity
  8
____
  6
CONTINUOUS
 62
              30
100
AcDbVertex
100
AcDb2dVertex
 10
-983.50005000167346
 20
-681.18425000334719
 30
0.0
  0
VERTEX
  5
3FF
100
AcDbEntity
  8
____
  6
CONTINUOUS
 62
              30
100
AcDbVertex
100
AcDb2dVertex
 10
-984.99369999999988
 20
-681.18429999999989
 30
0.0
  0
VERTEX
  5
400
100
AcDbEntity
  8
____
  6
CONTINUOUS
 62
              30
100
AcDbVertex
100
AcDb2dVertex
 10
-984.99369999999988
 20
-679.28439999999989
 30
0.0
  0
VERTEX
  5
401
100
AcDbEntity
  8
____
  6
CONTINUOUS
 62
              30
100
AcDbVertex
100
AcDb2dVertex
 10
-983.49994999832631
 20
-679.2843499999999
 30
0.0
 42
0.4142037584499517
 70
               2
 50
-1711711.4104823533
  0
VERTEX
  5
402
100
AcDbEntity
  8
____
  6
CONTINUOUS
 62
              30
100
AcDbVertex
100
AcDb2dVertex
 10
-982.00619999999992
 20
-677.79055000083679
 30
0.0
  0
SEQEND
  5
403
100
AcDbEntity
  8
____
  6
CONTINUOUS
 62
              30
  0
CIRCLE
  5
404
100
AcDbEntity
  8
____
  6
CONTINUOUS
 62
              30
100
AcDbCircle
 10
-981.05619999999988
 20
-755.23429999999996
 30
0.0
 40
6.2999999999999545
  0
POLYLINE
  5
405
100
AcDbEntity
  8
____
  6
CONTINUOUS
 62
              30
100
AcDb2dPolyline
 66
               1
 10
0.0
 20
0.0
 30
0.0
 70
             129
  0
VERTEX
  5
406
100
AcDbEntity
  8
____
  6
CONTINUOUS
 62
              30
100
AcDbVertex
100
AcDb2dVertex
 10
-982.00609999999995
 20
-751.29679999999996
 30
0.0
  0
VERTEX
  5
407
100
AcDbEntity
  8
____
  6
CONTINUOUS
 62
              30
100
AcDbVertex
100
AcDb2dVertex
 10
-980.10619999999994
 20
-751.29689999999994
 30
0.0
  0
VERTEX
  5
408
100
AcDbEntity
  8
____
  6
CONTINUOUS
 62
              30
100
AcDbVertex
100
AcDb2dVertex
 10
-980.10619999999994
 20
-752.79039999999998
 30
0.0
 42
0.414213562373095
 70
               2
  0
VERTEX
  5
409
100
AcDbEntity
  8
____
  6
CONTINUOUS
 62
              30
100
AcDbVertex
100
AcDb2dVertex
 10
-978.61239999999998
 20
-754.28419999999994
 30
0.0
  0
VERTEX
  5
40A
100
AcDbEntity
  8
____
  6
CONTINUOUS
 62
              30
100
AcDbVertex
100
AcDb2dVertex
 10
-977.11869999999988
 20
-754.28419999999994
 30
0.0
  0
VERTEX
  5
40B
100
AcDbEntity
  8
____
  6
CONTINUOUS
 62
              30
100
AcDbVertex
100
AcDb2dVertex
 10
-977.11869999999988
 20
-756.18439999999998
 30
0.0
  0
VERTEX
  5
40C
100
AcDbEntity
  8
____
  6
CONTINUOUS
 62
              30
100
AcDbVertex
100
AcDb2dVertex
 10
-978.61239999999998
 20
-756.18439999999998
 30
0.0
 42
0.414213562373095
 70
               2
 50
9.3574199307792870E+17
  0
VERTEX
  5
40D
100
AcDbEntity
  8
____
  6
CONTINUOUS
 62
              30
100
AcDbVertex
100
AcDb2dVertex
 10
-980.10619999999994
 20
-757.67819999999995
 30
0.0
  0
VERTEX
  5
40E
100
AcDbEntity
  8
____
  6
CONTINUOUS
 62
              30
100
AcDbVertex
100
AcDb2dVertex
 10
-980.10619999999994
 20
-759.17169999999999
 30
0.0
  0
VERTEX
  5
40F
100
AcDbEntity
  8
____
  6
CONTINUOUS
 62
              30
100
AcDbVertex
100
AcDb2dVertex
 10
-982.00619999999992
 20
-759.17179999999996
 30
0.0
  0
VERTEX
  5
410
100
AcDbEntity
  8
____
  6
CONTINUOUS
 62
              30
100
AcDbVertex
100
AcDb2dVertex
 10
-982.00619999999992
 20
-757.67815000251039
 30
0.0
 42
0.4142233663642261
 70
               2
  0
VERTEX
  5
411
100
AcDbEntity
  8
____
  6
CONTINUOUS
 62
              30
100
AcDbVertex
100
AcDb2dVertex
 10
-983.50005000167357
 20
-756.18435000334728
 30
0.0
  0
VERTEX
  5
412
100
AcDbEntity
  8
____
  6
CONTINUOUS
 62
              30
100
AcDbVertex
100
AcDb2dVertex
 10
-984.99369999999988
 20
-756.18439999999998
 30
0.0
  0
VERTEX
  5
413
100
AcDbEntity
  8
____
  6
CONTINUOUS
 62
              30
100
AcDbVertex
100
AcDb2dVertex
 10
-984.99369999999988
 20
-754.28429999999992
 30
0.0
  0
VERTEX
  5
414
100
AcDbEntity
  8
____
  6
CONTINUOUS
 62
              30
100
AcDbVertex
100
AcDb2dVertex
 10
-983.49989999999991
 20
-754.28429999999992
 30
0.0
 42
0.414213562373095
 70
               2
 50
3.1191399769264294E+17
  0
VERTEX
  5
415
100
AcDbEntity
  8
____
  6
CONTINUOUS
 62
              30
100
AcDbVertex
100
AcDb2dVertex
 10
-982.00609999999995
 20
-752.79049999999995
 30
0.0
  0
SEQEND
  5
416
100
AcDbEntity
  8
____
  6
CONTINUOUS
 62
              30
  0
CIRCLE
  5
417
100
AcDbEntity
  8
____
  6
CONTINUOUS
 62
              30
100
AcDbCircle
 10
-981.05619999999988
 20
-830.23439999999994
 30
0.0
 40
6.3000999999999294
  0
POLYLINE
  5
418
100
AcDbEntity
  8
____
  6
CONTINUOUS
 62
              30
100
AcDb2dPolyline
 66
               1
 10
0.0
 20
0.0
 30
0.0
 70
             129
  0
VERTEX
  5
419
100
AcDbEntity
  8
____
  6
CONTINUOUS
 62
              30
100
AcDbVertex
100
AcDb2dVertex
 10
-982.00609999999995
 20
-826.29679999999996
 30
0.0
  0
VERTEX
  5
41A
100
AcDbEntity
  8
____
  6
CONTINUOUS
 62
              30
100
AcDbVertex
100
AcDb2dVertex
 10
-980.10619999999994
 20
-826.29679999999996
 30
0.0
  0
VERTEX
  5
41B
100
AcDbEntity
  8
____
  6
CONTINUOUS
 62
              30
100
AcDbVertex
100
AcDb2dVertex
 10
-980.10619999999994
 20
-827.79059999999993
 30
0.0
 42
0.414213562373095
 70
               2
  0
VERTEX
  5
41C
100
AcDbEntity
  8
____
  6
CONTINUOUS
 62
              30
100
AcDbVertex
100
AcDb2dVertex
 10
-978.61239999999998
 20
-829.28439999999989
 30
0.0
  0
VERTEX
  5
41D
100
AcDbEntity
  8
____
  6
CONTINUOUS
 62
              30
100
AcDbVertex
100
AcDb2dVertex
 10
-977.1185999999999
 20
-829.28439999999989
 30
0.0
  0
VERTEX
  5
41E
100
AcDbEntity
  8
____
  6
CONTINUOUS
 62
              30
100
AcDbVertex
100
AcDb2dVertex
 10
-977.1185999999999
 20
-831.18429999999989
 30
0.0
  0
VERTEX
  5
41F
100
AcDbEntity
  8
____
  6
CONTINUOUS
 62
              30
100
AcDbVertex
100
AcDb2dVertex
 10
-978.61239999999998
 20
-831.18429999999989
 30
0.0
 42
0.414213562373095
 70
               2
 50
9.3574199307792870E+17
  0
VERTEX
  5
420
100
AcDbEntity
  8
____
  6
CONTINUOUS
 62
              30
100
AcDbVertex
100
AcDb2dVertex
 10
-980.10619999999994
 20
-832.67809999999986
 30
0.0
  0
VERTEX
  5
421
100
AcDbEntity
  8
____
  6
CONTINUOUS
 62
              30
100
AcDbVertex
100
AcDb2dVertex
 10
-980.10619999999994
 20
-834.17179999999996
 30
0.0
  0
VERTEX
  5
422
100
AcDbEntity
  8
____
  6
CONTINUOUS
 62
              30
100
AcDbVertex
100
AcDb2dVertex
 10
-982.00609999999995
 20
-834.17179999999996
 30
0.0
  0
VERTEX
  5
423
100
AcDbEntity
  8
____
  6
CONTINUOUS
 62
              30
100
AcDbVertex
100
AcDb2dVertex
 10
-982.00609999999995
 20
-832.67815000083681
 30
0.0
 42
0.4142233660360131
 70
               2
  0
VERTEX
  5
424
100
AcDbEntity
  8
____
  6
CONTINUOUS
 62
              30
100
AcDbVertex
100
AcDb2dVertex
 10
-983.4999499999999
 20
-831.18435000167358
 30
0.0
  0
VERTEX
  5
425
100
AcDbEntity
  8
____
  6
CONTINUOUS
 62
              30
100
AcDbVertex
100
AcDb2dVertex
 10
-984.99369999999988
 20
-831.18439999999998
 30
0.0
  0
VERTEX
  5
426
100
AcDbEntity
  8
____
  6
CONTINUOUS
 62
              30
100
AcDbVertex
100
AcDb2dVertex
 10
-984.9935999999999
 20
-829.28439999999989
 30
0.0
  0
VERTEX
  5
427
100
AcDbEntity
  8
____
  6
CONTINUOUS
 62
              30
100
AcDbVertex
100
AcDb2dVertex
 10
-983.49984999832634
 20
-829.2843499999999
 30
0.0
 42
0.4142037584499517
 70
               2
 50
-1711711.4104823533
  0
VERTEX
  5
428
100
AcDbEntity
  8
____
  6
CONTINUOUS
 62
              30
100
AcDbVertex
100
AcDb2dVertex
 10
-982.00609999999995
 20
-827.79055000083679
 30
0.0
  0
SEQEND
  5
429
100
AcDbEntity
  8
____
  6
CONTINUOUS
 62
              30
  0
POLYLINE
  5
42A
100
AcDbEntity
  8
____
  6
STYLE_05
 62
              30
100
AcDb2dPolyline
 66
               1
 10
0.0
 20
0.0
 30
0.0
 70
               1
 75
               5
  0
VERTEX
  5
42B
100
AcDbEntity
  8
____
  6
STYLE_05
 62
              30
100
AcDbVertex
100
AcDb2dVertex
 10
-706.05629999999996
 20
-427.73429999999996
 30
0.0
  0
VERTEX
  5
42C
100
AcDbEntity
  8
____
  6
STYLE_05
 62
              30
100
AcDbVertex
100
AcDb2dVertex
 10
-756.05629999999996
 20
-427.73429999999996
 30
0.0
  0
VERTEX
  5
42D
100
AcDbEntity
  8
____
  6
STYLE_05
 62
              30
100
AcDbVertex
100
AcDb2dVertex
 10
-756.0560999999999
 20
-857.73429999999996
 30
0.0
  0
VERTEX
  5
42E
100
AcDbEntity
  8
____
  6
STYLE_05
 62
              30
100
AcDbVertex
100
AcDb2dVertex
 10
-706.05629999999996
 20
-857.73429999999996
 30
0.0
  0
SEQEND
  5
42F
100
AcDbEntity
  8
____
  6
STYLE_05
 62
              30
  0
CIRCLE
  5
431
100
AcDbEntity
  8
____
  6
CONTINUOUS
 62
              30
100
AcDbCircle
 10
-731.05619999999999
 20
-455.23419999999999
 30
0.0
 40
6.2999999999999545
  0
POLYLINE
  5
432
100
AcDbEntity
  8
____
  6
CONTINUOUS
 62
              30
100
AcDb2dPolyline
 66
               1
 10
0.0
 20
0.0
 30
0.0
 70
             129
  0
VERTEX
  5
433
100
AcDbEntity
  8
____
  6
CONTINUOUS
 62
              30
100
AcDbVertex
100
AcDb2dVertex
 10
-730.10629999999992
 20
-451.29679999999996
 30
0.0
  0
VERTEX
  5
434
100
AcDbEntity
  8
____
  6
CONTINUOUS
 62
              30
100
AcDbVertex
100
AcDb2dVertex
 10
-732.0062999999999
 20
-451.29679999999996
 30
0.0
  0
VERTEX
  5
435
100
AcDbEntity
  8
____
  6
CONTINUOUS
 62
              30
100
AcDbVertex
100
AcDb2dVertex
 10
-732.00625000334719
 20
-452.79044999832638
 30
0.0
 42
-0.4142233663641927
 70
               2
 50
0.0019178503608474
  0
VERTEX
  5
436
100
AcDbEntity
  8
____
  6
CONTINUOUS
 62
              30
100
AcDbVertex
100
AcDb2dVertex
 10
-733.50005000251031
 20
-454.28429999999997
 30
0.0
  0
VERTEX
  5
437
100
AcDbEntity
  8
____
  6
CONTINUOUS
 62
              30
100
AcDbVertex
100
AcDb2dVertex
 10
-734.99379999999996
 20
-454.28429999999997
 30
0.0
  0
VERTEX
  5
438
100
AcDbEntity
  8
____
  6
CONTINUOUS
 62
              30
100
AcDbVertex
100
AcDb2dVertex
 10
-734.99369999999999
 20
-456.18429999999995
 30
0.0
  0
VERTEX
  5
439
100
AcDbEntity
  8
____
  6
CONTINUOUS
 62
              30
100
AcDbVertex
100
AcDb2dVertex
 10
-733.50004999916302
 20
-456.18429999999995
 30
0.0
 42
-0.4142037584499628
 70
               2
 50
9.3574199307792870E+17
  0
VERTEX
  5
43A
100
AcDbEntity
  8
____
  6
CONTINUOUS
 62
              30
100
AcDbVertex
100
AcDb2dVertex
 10
-732.00624999999991
 20
-457.6780499983264
 30
0.0
  0
VERTEX
  5
43B
100
AcDbEntity
  8
____
  6
CONTINUOUS
 62
              30
100
AcDbVertex
100
AcDb2dVertex
 10
-732.00619999999992
 20
-459.17179999999996
 30
0.0
  0
VERTEX
  5
43C
100
AcDbEntity
  8
____
  6
CONTINUOUS
 62
              30
100
AcDbVertex
100
AcDb2dVertex
 10
-730.10619999999994
 20
-459.17169999999999
 30
0.0
  0
VERTEX
  5
43D
100
AcDbEntity
  8
____
  6
CONTINUOUS
 62
              30
100
AcDbVertex
100
AcDb2dVertex
 10
-730.10619999999994
 20
-457.67815000251045
 30
0.0
 42
-0.4142233663641816
 70
               2
  0
VERTEX
  5
43E
100
AcDbEntity
  8
____
  6
CONTINUOUS
 62
              30
100
AcDbVertex
100
AcDb2dVertex
 10
-728.61234999832641
 20
-456.18435000334728
 30
0.0
  0
VERTEX
  5
43F
100
AcDbEntity
  8
____
  6
CONTINUOUS
 62
              30
100
AcDbVertex
100
AcDb2dVertex
 10
-727.11869999999999
 20
-456.18439999999998
 30
0.0
  0
VERTEX
  5
440
100
AcDbEntity
  8
____
  6
CONTINUOUS
 62
              30
100
AcDbVertex
100
AcDb2dVertex
 10
-727.11869999999999
 20
-454.28439999999995
 30
0.0
  0
VERTEX
  5
441
100
AcDbEntity
  8
____
  6
CONTINUOUS
 62
              30
100
AcDbVertex
100
AcDb2dVertex
 10
-728.61254999999994
 20
-454.28434999832638
 30
0.0
 42
-0.4142037587780933
 70
               2
 50
1711768.7042811241
  0
VERTEX
  5
442
100
AcDbEntity
  8
____
  6
CONTINUOUS
 62
              30
100
AcDbVertex
100
AcDb2dVertex
 10
-730.10629999999992
 20
-452.79054999916315
 30
0.0
  0
SEQEND
  5
443
100
AcDbEntity
  8
____
  6
CONTINUOUS
 62
              30
  0
CIRCLE
  5
444
100
AcDbEntity
  8
____
  6
CONTINUOUS
 62
              30
100
AcDbCircle
 10
-731.05629999999996
 20
-530.23439999999994
 30
0.0
 40
6.2999999999999545
  0
POLYLINE
  5
445
100
AcDbEntity
  8
____
  6
CONTINUOUS
 62
              30
100
AcDb2dPolyline
 66
               1
 10
0.0
 20
0.0
 30
0.0
 70
             129
  0
VERTEX
  5
446
100
AcDbEntity
  8
____
  6
CONTINUOUS
 62
              30
100
AcDbVertex
100
AcDb2dVertex
 10
-730.10619999999994
 20
-526.29669999999999
 30
0.0
  0
VERTEX
  5
447
100
AcDbEntity
  8
____
  6
CONTINUOUS
 62
              30
100
AcDbVertex
100
AcDb2dVertex
 10
-732.00609999999995
 20
-526.29679999999996
 30
0.0
  0
VERTEX
  5
448
100
AcDbEntity
  8
____
  6
CONTINUOUS
 62
              30
100
AcDbVertex
100
AcDb2dVertex
 10
-732.00620000334743
 20
-527.79060000334698
 30
0.0
 42
-0.4141939545948498
 70
               2
 50
-0.0038357007151442
  0
VERTEX
  5
449
100
AcDbEntity
  8
____
  6
CONTINUOUS
 62
              30
100
AcDbVertex
100
AcDb2dVertex
 10
-733.5
 20
-529.28429999999992
 30
0.0
  0
VERTEX
  5
44A
100
AcDbEntity
  8
____
  6
CONTINUOUS
 62
              30
100
AcDbVertex
100
AcDb2dVertex
 10
-734.99379999999996
 20
-529.28429999999992
 30
0.0
  0
VERTEX
  5
44B
100
AcDbEntity
  8
____
  6
CONTINUOUS
 62
              30
100
AcDbVertex
100
AcDb2dVertex
 10
-734.99379999999996
 20
-531.18439999999998
 30
0.0
  0
VERTEX
  5
44C
100
AcDbEntity
  8
____
  6
CONTINUOUS
 62
              30
100
AcDbVertex
100
AcDb2dVertex
 10
-733.50004999999987
 20
-531.18435000167358
 30
0.0
 42
-0.4142233660360131
 70
               2
 50
-1711768.7121187861
  0
VERTEX
  5
44D
100
AcDbEntity
  8
____
  6
CONTINUOUS
 62
              30
100
AcDbVertex
100
AcDb2dVertex
 10
-732.00619999999992
 20
-532.67815000083681
 30
0.0
  0
VERTEX
  5
44E
100
AcDbEntity
  8
____
  6
CONTINUOUS
 62
              30
100
AcDbVertex
100
AcDb2dVertex
 10
-732.00619999999992
 20
-534.17179999999996
 30
0.0
  0
VERTEX
  5
44F
100
AcDbEntity
  8
____
  6
CONTINUOUS
 62
              30
100
AcDbVertex
100
AcDb2dVertex
 10
-730.10629999999992
 20
-534.17179999999996
 30
0.0
  0
VERTEX
  5
450
100
AcDbEntity
  8
____
  6
CONTINUOUS
 62
              30
100
AcDbVertex
100
AcDb2dVertex
 10
-730.10629999999992
 20
-532.67809999999997
 30
0.0
 42
-0.414213562373095
 70
               2
  0
VERTEX
  5
451
100
AcDbEntity
  8
____
  6
CONTINUOUS
 62
              30
100
AcDbVertex
100
AcDb2dVertex
 10
-728.61249999999995
 20
-531.18430000000001
 30
0.0
  0
VERTEX
  5
452
100
AcDbEntity
  8
____
  6
CONTINUOUS
 62
              30
100
AcDbVertex
100
AcDb2dVertex
 10
-727.11869999999999
 20
-531.18430000000001
 30
0.0
  0
VERTEX
  5
453
100
AcDbEntity
  8
____
  6
CONTINUOUS
 62
              30
100
AcDbVertex
100
AcDb2dVertex
 10
-727.11879999999996
 20
-529.28440000000001
 30
0.0
  0
VERTEX
  5
454
100
AcDbEntity
  8
____
  6
CONTINUOUS
 62
              30
100
AcDbVertex
100
AcDb2dVertex
 10
-728.6125000025105
 20
-529.28435000167349
 30
0.0
 42
-0.4142135620449066
 70
               2
 50
1711711.4104635664
  0
VERTEX
  5
455
100
AcDbEntity
  8
____
  6
CONTINUOUS
 62
              30
100
AcDbVertex
100
AcDb2dVertex
 10
-730.10625000000005
 20
-527.79050000251038
 30
0.0
  0
SEQEND
  5
456
100
AcDbEntity
  8
____
  6
CONTINUOUS
 62
              30
  0
CIRCLE
  5
457
100
AcDbEntity
  8
____
  6
CONTINUOUS
 62
              30
100
AcDbCircle
 10
-731.05619999999999
 20
-605.23429999999996
 30
0.0
 40
6.3000999999999294
  0
POLYLINE
  5
458
100
AcDbEntity
  8
____
  6
CONTINUOUS
 62
              30
100
AcDb2dPolyline
 66
               1
 10
0.0
 20
0.0
 30
0.0
 70
             129
  0
VERTEX
  5
459
100
AcDbEntity
  8
____
  6
CONTINUOUS
 62
              30
100
AcDbVertex
100
AcDb2dVertex
 10
-730.10629999999992
 20
-601.29679999999996
 30
0.0
  0
VERTEX
  5
45A
100
AcDbEntity
  8
____
  6
CONTINUOUS
 62
              30
100
AcDbVertex
100
AcDb2dVertex
 10
-732.00619999999992
 20
-601.29679999999996
 30
0.0
  0
VERTEX
  5
45B
100
AcDbEntity
  8
____
  6
CONTINUOUS
 62
              30
100
AcDbVertex
100
AcDb2dVertex
 10
-732.00619999999992
 20
-602.79055000083679
 30
0.0
 42
-0.4142037584499517
 70
               2
  0
VERTEX
  5
45C
100
AcDbEntity
  8
____
  6
CONTINUOUS
 62
              30
100
AcDbVertex
100
AcDb2dVertex
 10
-733.49994999832631
 20
-604.2843499999999
 30
0.0
  0
VERTEX
  5
45D
100
AcDbEntity
  8
____
  6
CONTINUOUS
 62
              30
100
AcDbVertex
100
AcDb2dVertex
 10
-734.99369999999999
 20
-604.28439999999989
 30
0.0
  0
VERTEX
  5
45E
100
AcDbEntity
  8
____
  6
CONTINUOUS
 62
              30
100
AcDbVertex
100
AcDb2dVertex
 10
-734.99369999999999
 20
-606.18429999999989
 30
0.0
  0
VERTEX
  5
45F
100
AcDbEntity
  8
____
  6
CONTINUOUS
 62
              30
100
AcDbVertex
100
AcDb2dVertex
 10
-733.50005000251031
 20
-606.18429999999989
 30
0.0
 42
-0.4142233663641592
 70
               2
 50
747113786615140.25
  0
VERTEX
  5
460
100
AcDbEntity
  8
____
  6
CONTINUOUS
 62
              30
100
AcDbVertex
100
AcDb2dVertex
 10
-732.00625000334719
 20
-607.67815000167343
 30
0.0
  0
VERTEX
  5
461
100
AcDbEntity
  8
____
  6
CONTINUOUS
 62
              30
100
AcDbVertex
100
AcDb2dVertex
 10
-732.0062999999999
 20
-609.17179999999996
 30
0.0
  0
VERTEX
  5
462
100
AcDbEntity
  8
____
  6
CONTINUOUS
 62
              30
100
AcDbVertex
100
AcDb2dVertex
 10
-730.10629999999992
 20
-609.17179999999996
 30
0.0
  0
VERTEX
  5
463
100
AcDbEntity
  8
____
  6
CONTINUOUS
 62
              30
100
AcDbVertex
100
AcDb2dVertex
 10
-730.10625000167352
 20
-607.67809999916312
 30
0.0
 42
-0.414213562373095
 70
               2
 50
-0.0019178503630566
  0
VERTEX
  5
464
100
AcDbEntity
  8
____
  6
CONTINUOUS
 62
              30
100
AcDbVertex
100
AcDb2dVertex
 10
-728.61240000083671
 20
-606.18435000167358
 30
0.0
  0
VERTEX
  5
465
100
AcDbEntity
  8
____
  6
CONTINUOUS
 62
              30
100
AcDbVertex
100
AcDb2dVertex
 10
-727.11869999999999
 20
-606.18439999999998
 30
0.0
  0
VERTEX
  5
466
100
AcDbEntity
  8
____
  6
CONTINUOUS
 62
              30
100
AcDbVertex
100
AcDb2dVertex
 10
-727.11869999999999
 20
-604.28439999999989
 30
0.0
  0
VERTEX
  5
467
100
AcDbEntity
  8
____
  6
CONTINUOUS
 62
              30
100
AcDbVertex
100
AcDb2dVertex
 10
-728.61254999999994
 20
-604.28434999832632
 30
0.0
 42
-0.4142037587780933
 70
               2
 50
1711768.7042811241
  0
VERTEX
  5
468
100
AcDbEntity
  8
____
  6
CONTINUOUS
 62
              30
100
AcDbVertex
100
AcDb2dVertex
 10
-730.10629999999992
 20
-602.79054999916309
 30
0.0
  0
SEQEND
  5
469
100
AcDbEntity
  8
____
  6
CONTINUOUS
 62
              30
  0
CIRCLE
  5
46A
100
AcDbEntity
  8
____
  6
CONTINUOUS
 62
              30
100
AcDbCircle
 10
-731.05629999999996
 20
-680.23429999999996
 30
0.0
 40
6.2999999999999545
  0
POLYLINE
  5
46B
100
AcDbEntity
  8
____
  6
CONTINUOUS
 62
              30
100
AcDb2dPolyline
 66
               1
 10
0.0
 20
0.0
 30
0.0
 70
             129
  0
VERTEX
  5
46C
100
AcDbEntity
  8
____
  6
CONTINUOUS
 62
              30
100
AcDbVertex
100
AcDb2dVertex
 10
-730.10619999999994
 20
-676.29669999999999
 30
0.0
  0
VERTEX
  5
46D
100
AcDbEntity
  8
____
  6
CONTINUOUS
 62
              30
100
AcDbVertex
100
AcDb2dVertex
 10
-732.00619999999992
 20
-676.29669999999999
 30
0.0
  0
VERTEX
  5
46E
100
AcDbEntity
  8
____
  6
CONTINUOUS
 62
              30
100
AcDbVertex
100
AcDb2dVertex
 10
-732.00619999999992
 20
-677.79049999999995
 30
0.0
 42
-0.414213562373095
 70
               2
  0
VERTEX
  5
46F
100
AcDbEntity
  8
____
  6
CONTINUOUS
 62
              30
100
AcDbVertex
100
AcDb2dVertex
 10
-733.49999999999989
 20
-679.28429999999992
 30
0.0
  0
VERTEX
  5
470
100
AcDbEntity
  8
____
  6
CONTINUOUS
 62
              30
100
AcDbVertex
100
AcDb2dVertex
 10
-734.99369999999999
 20
-679.28429999999992
 30
0.0
  0
VERTEX
  5
471
100
AcDbEntity
  8
____
  6
CONTINUOUS
 62
              30
100
AcDbVertex
100
AcDb2dVertex
 10
-734.99379999999996
 20
-681.18419999999992
 30
0.0
  0
VERTEX
  5
472
100
AcDbEntity
  8
____
  6
CONTINUOUS
 62
              30
100
AcDbVertex
100
AcDb2dVertex
 10
-733.49999999999989
 20
-681.18419999999992
 30
0.0
 42
-0.414213562373095
 70
               2
 50
1.8714839861558573E+17
  0
VERTEX
  5
473
100
AcDbEntity
  8
____
  6
CONTINUOUS
 62
              30
100
AcDbVertex
100
AcDb2dVertex
 10
-732.00619999999992
 20
-682.67799999999988
 30
0.0
  0
VERTEX
  5
474
100
AcDbEntity
  8
____
  6
CONTINUOUS
 62
              30
100
AcDbVertex
100
AcDb2dVertex
 10
-732.00619999999992
 20
-684.17179999999996
 30
0.0
  0
VERTEX
  5
475
100
AcDbEntity
  8
____
  6
CONTINUOUS
 62
              30
100
AcDbVertex
100
AcDb2dVertex
 10
-730.10619999999994
 20
-684.17169999999999
 30
0.0
  0
VERTEX
  5
476
100
AcDbEntity
  8
____
  6
CONTINUOUS
 62
              30
100
AcDbVertex
100
AcDb2dVertex
 10
-730.10619999999994
 20
-682.6780500025103
 30
0.0
 42
-0.4142233663641816
 70
               2
  0
VERTEX
  5
477
100
AcDbEntity
  8
____
  6
CONTINUOUS
 62
              30
100
AcDbVertex
100
AcDb2dVertex
 10
-728.61234999832641
 20
-681.18425000334719
 30
0.0
  0
VERTEX
  5
478
100
AcDbEntity
  8
____
  6
CONTINUOUS
 62
              30
100
AcDbVertex
100
AcDb2dVertex
 10
-727.11869999999999
 20
-681.18429999999989
 30
0.0
  0
VERTEX
  5
479
100
AcDbEntity
  8
____
  6
CONTINUOUS
 62
              30
100
AcDbVertex
100
AcDb2dVertex
 10
-727.11869999999999
 20
-679.28439999999989
 30
0.0
  0
VERTEX
  5
47A
100
AcDbEntity
  8
____
  6
CONTINUOUS
 62
              30
100
AcDbVertex
100
AcDb2dVertex
 10
-728.61245000167355
 20
-679.2843499999999
 30
0.0
 42
-0.414203758449974
 70
               2
 50
1711711.4143241914
  0
VERTEX
  5
47B
100
AcDbEntity
  8
____
  6
CONTINUOUS
 62
              30
100
AcDbVertex
100
AcDb2dVertex
 10
-730.10619999999994
 20
-677.79055000083679
 30
0.0
  0
SEQEND
  5
47C
100
AcDbEntity
  8
____
  6
CONTINUOUS
 62
              30
  0
CIRCLE
  5
47D
100
AcDbEntity
  8
____
  6
CONTINUOUS
 62
              30
100
AcDbCircle
 10
-731.05619999999999
 20
-755.23429999999996
 30
0.0
 40
6.2999999999999545
  0
POLYLINE
  5
47E
100
AcDbEntity
  8
____
  6
CONTINUOUS
 62
              30
100
AcDb2dPolyline
 66
               1
 10
0.0
 20
0.0
 30
0.0
 70
             129
  0
VERTEX
  5
47F
100
AcDbEntity
  8
____
  6
CONTINUOUS
 62
              30
100
AcDbVertex
100
AcDb2dVertex
 10
-730.10629999999992
 20
-751.29679999999996
 30
0.0
  0
VERTEX
  5
480
100
AcDbEntity
  8
____
  6
CONTINUOUS
 62
              30
100
AcDbVertex
100
AcDb2dVertex
 10
-732.00619999999992
 20
-751.29689999999994
 30
0.0
  0
VERTEX
  5
481
100
AcDbEntity
  8
____
  6
CONTINUOUS
 62
              30
100
AcDbVertex
100
AcDb2dVertex
 10
-732.00619999999992
 20
-752.79039999999998
 30
0.0
 42
-0.414213562373095
 70
               2
  0
VERTEX
  5
482
100
AcDbEntity
  8
____
  6
CONTINUOUS
 62
              30
100
AcDbVertex
100
AcDb2dVertex
 10
-733.49999999999989
 20
-754.28419999999994
 30
0.0
  0
VERTEX
  5
483
100
AcDbEntity
  8
____
  6
CONTINUOUS
 62
              30
100
AcDbVertex
100
AcDb2dVertex
 10
-734.99369999999999
 20
-754.28419999999994
 30
0.0
  0
VERTEX
  5
484
100
AcDbEntity
  8
____
  6
CONTINUOUS
 62
              30
100
AcDbVertex
100
AcDb2dVertex
 10
-734.99369999999999
 20
-756.18439999999998
 30
0.0
  0
VERTEX
  5
485
100
AcDbEntity
  8
____
  6
CONTINUOUS
 62
              30
100
AcDbVertex
100
AcDb2dVertex
 10
-733.49999999999989
 20
-756.18439999999998
 30
0.0
 42
-0.414213562373095
 70
               2
 50
1.8714839861558573E+17
  0
VERTEX
  5
486
100
AcDbEntity
  8
____
  6
CONTINUOUS
 62
              30
100
AcDbVertex
100
AcDb2dVertex
 10
-732.00619999999992
 20
-757.67819999999995
 30
0.0
  0
VERTEX
  5
487
100
AcDbEntity
  8
____
  6
CONTINUOUS
 62
              30
100
AcDbVertex
100
AcDb2dVertex
 10
-732.00619999999992
 20
-759.17169999999999
 30
0.0
  0
VERTEX
  5
488
100
AcDbEntity
  8
____
  6
CONTINUOUS
 62
              30
100
AcDbVertex
100
AcDb2dVertex
 10
-730.10619999999994
 20
-759.17179999999996
 30
0.0
  0
VERTEX
  5
489
100
AcDbEntity
  8
____
  6
CONTINUOUS
 62
              30
100
AcDbVertex
100
AcDb2dVertex
 10
-730.10619999999994
 20
-757.67815000251039
 30
0.0
 42
-0.4142233663642038
 70
               2
  0
VERTEX
  5
48A
100
AcDbEntity
  8
____
  6
CONTINUOUS
 62
              30
100
AcDbVertex
100
AcDb2dVertex
 10
-728.61234999832629
 20
-756.18435000334728
 30
0.0
  0
VERTEX
  5
48B
100
AcDbEntity
  8
____
  6
CONTINUOUS
 62
              30
100
AcDbVertex
100
AcDb2dVertex
 10
-727.11869999999999
 20
-756.18439999999998
 30
0.0
  0
VERTEX
  5
48C
100
AcDbEntity
  8
____
  6
CONTINUOUS
 62
              30
100
AcDbVertex
100
AcDb2dVertex
 10
-727.11869999999999
 20
-754.28429999999992
 30
0.0
  0
VERTEX
  5
48D
100
AcDbEntity
  8
____
  6
CONTINUOUS
 62
              30
100
AcDbVertex
100
AcDb2dVertex
 10
-728.61249999999995
 20
-754.28429999999992
 30
0.0
 42
-0.414213562373095
 70
               2
 50
3.1191399769264294E+17
  0
VERTEX
  5
48E
100
AcDbEntity
  8
____
  6
CONTINUOUS
 62
              30
100
AcDbVertex
100
AcDb2dVertex
 10
-730.10629999999992
 20
-752.79049999999995
 30
0.0
  0
SEQEND
  5
48F
100
AcDbEntity
  8
____
  6
CONTINUOUS
 62
              30
  0
CIRCLE
  5
490
100
AcDbEntity
  8
____
  6
CONTINUOUS
 62
              30
100
AcDbCircle
 10
-731.05619999999999
 20
-830.23439999999994
 30
0.0
 40
6.3000999999999294
  0
POLYLINE
  5
491
100
AcDbEntity
  8
____
  6
CONTINUOUS
 62
              30
100
AcDb2dPolyline
 66
               1
 10
0.0
 20
0.0
 30
0.0
 70
             129
  0
VERTEX
  5
492
100
AcDbEntity
  8
____
  6
CONTINUOUS
 62
              30
100
AcDbVertex
100
AcDb2dVertex
 10
-730.10629999999992
 20
-826.29679999999996
 30
0.0
  0
VERTEX
  5
493
100
AcDbEntity
  8
____
  6
CONTINUOUS
 62
              30
100
AcDbVertex
100
AcDb2dVertex
 10
-732.00619999999992
 20
-826.29679999999996
 30
0.0
  0
VERTEX
  5
494
100
AcDbEntity
  8
____
  6
CONTINUOUS
 62
              30
100
AcDbVertex
100
AcDb2dVertex
 10
-732.00619999999992
 20
-827.79059999999993
 30
0.0
 42
-0.414213562373095
 70
               2
  0
VERTEX
  5
495
100
AcDbEntity
  8
____
  6
CONTINUOUS
 62
              30
100
AcDbVertex
100
AcDb2dVertex
 10
-733.49999999999989
 20
-829.28439999999989
 30
0.0
  0
VERTEX
  5
496
100
AcDbEntity
  8
____
  6
CONTINUOUS
 62
              30
100
AcDbVertex
100
AcDb2dVertex
 10
-734.99379999999996
 20
-829.28439999999989
 30
0.0
  0
VERTEX
  5
497
100
AcDbEntity
  8
____
  6
CONTINUOUS
 62
              30
100
AcDbVertex
100
AcDb2dVertex
 10
-734.99379999999996
 20
-831.18429999999989
 30
0.0
  0
VERTEX
  5
498
100
AcDbEntity
  8
____
  6
CONTINUOUS
 62
              30
100
AcDbVertex
100
AcDb2dVertex
 10
-733.49999999999989
 20
-831.18429999999989
 30
0.0
 42
-0.414213562373095
 70
               2
 50
1.8714839861558573E+17
  0
VERTEX
  5
499
100
AcDbEntity
  8
____
  6
CONTINUOUS
 62
              30
100
AcDbVertex
100
AcDb2dVertex
 10
-732.00619999999992
 20
-832.67809999999986
 30
0.0
  0
VERTEX
  5
49A
100
AcDbEntity
  8
____
  6
CONTINUOUS
 62
              30
100
AcDbVertex
100
AcDb2dVertex
 10
-732.00619999999992
 20
-834.17179999999996
 30
0.0
  0
VERTEX
  5
49B
100
AcDbEntity
  8
____
  6
CONTINUOUS
 62
              30
100
AcDbVertex
100
AcDb2dVertex
 10
-730.10629999999992
 20
-834.17179999999996
 30
0.0
  0
VERTEX
  5
49C
100
AcDbEntity
  8
____
  6
CONTINUOUS
 62
              30
100
AcDbVertex
100
AcDb2dVertex
 10
-730.10629999999992
 20
-832.67815000083681
 30
0.0
 42
-0.4142233660360799
 70
               2
  0
VERTEX
  5
49D
100
AcDbEntity
  8
____
  6
CONTINUOUS
 62
              30
100
AcDbVertex
100
AcDb2dVertex
 10
-728.61244999999997
 20
-831.18435000167358
 30
0.0
  0
VERTEX
  5
49E
100
AcDbEntity
  8
____
  6
CONTINUOUS
 62
              30
100
AcDbVertex
100
AcDb2dVertex
 10
-727.11869999999999
 20
-831.18439999999998
 30
0.0
  0
VERTEX
  5
49F
100
AcDbEntity
  8
____
  6
CONTINUOUS
 62
              30
100
AcDbVertex
100
AcDb2dVertex
 10
-727.11879999999996
 20
-829.28439999999989
 30
0.0
  0
VERTEX
  5
4A0
100
AcDbEntity
  8
____
  6
CONTINUOUS
 62
              30
100
AcDbVertex
100
AcDb2dVertex
 10
-728.61255000167353
 20
-829.2843499999999
 30
0.0
 42
-0.414203758449974
 70
               2
 50
1711711.4143241914
  0
VERTEX
  5
4A1
100
AcDbEntity
  8
____
  6
CONTINUOUS
 62
              30
100
AcDbVertex
100
AcDb2dVertex
 10
-730.10629999999992
 20
-827.79055000083679
 30
0.0
  0
SEQEND
  5
4A2
100
AcDbEntity
  8
____
  6
CONTINUOUS
 62
              30
  0
LINE
  5
4A3
100
AcDbEntity
  8
____
  6
CONTINUOUS
 62
              30
100
AcDbLine
 10
-300.0
 20
352.26569999999998
 30
0.0
 11
-1639.9999999999998
 21
352.26569999999998
 31
0.0
  0
POLYLINE
  5
4A4
100
AcDbEntity
  8
____
  6
STYLE_01
 62
              30
100
AcDb2dPolyline
 66
               1
 10
0.0
 20
0.0
 30
0.0
 70
               1
 75
               5
  0
VERTEX
  5
4A5
100
AcDbEntity
  8
____
  6
STYLE_01
 62
              30
100
AcDbVertex
100
AcDb2dVertex
 10
-1131.0560999999998
 20
-365.23429999999996
 30
0.0
  0
VERTEX
  5
4A6
100
AcDbEntity
  8
____
  6
STYLE_01
 62
              30
100
AcDbVertex
100
AcDb2dVertex
 10
-581.0560999999999
 20
-365.23429999999996
 30
0.0
  0
VERTEX
  5
4A7
100
AcDbEntity
  8
____
  6
STYLE_01
 62
              30
100
AcDbVertex
100
AcDb2dVertex
 10
-581.0560999999999
 20
-815.23429999999996
 30
0.0
  0
VERTEX
  5
4A8
100
AcDbEntity
  8
____
  6
STYLE_01
 62
              30
100
AcDbVertex
100
AcDb2dVertex
 10
-1131.0560999999998
 20
-815.2340999999999
 30
0.0
  0
SEQEND
  5
4A9
100
AcDbEntity
  8
____
  6
STYLE_01
 62
              30
  0
LINE
  5
4AB
100
AcDbEntity
  8
____
  6
CONTINUOUS
 62
              30
100
AcDbLine
 10
-1076.0562
 20
-415.23419999999999
 30
0.0
 11
-1076.0562
 21
-565.23429999999996
 31
0.0
  0
LINE
  5
4AC
100
AcDbEntity
  8
____
  6
CONTINUOUS
 62
              30
100
AcDbLine
 10
-1076.0561
 20
-570.23439999999994
 30
0.0
 11
-1076.0562
 21
-715.23429999999996
 31
0.0
  0
LINE
  5
4AD
100
AcDbEntity
  8
____
  6
CONTINUOUS
 62
              30
100
AcDbLine
 10
-1076.0561
 20
-720.23419999999999
 30
0.0
 11
-1076.0562
 21
-865.23429999999996
 31
0.0
  0
LINE
  5
4AE
100
AcDbEntity
  8
____
  6
CONTINUOUS
 62
              30
100
AcDbLine
 10
-1081.0561
 20
-725.23429999999996
 30
0.0
 11
-631.05619999999999
 21
-725.23449999999991
 31
0.0
  0
LINE
  5
4AF
100
AcDbEntity
  8
____
  6
CONTINUOUS
 62
              30
100
AcDbLine
 10
-636.0560999999999
 20
-865.23429999999996
 30
0.0
 11
-636.05619999999999
 21
-720.23429999999996
 31
0.0
  0
LINE
  5
4B0
100
AcDbEntity
  8
____
  6
CONTINUOUS
 62
              30
100
AcDbLine
 10
-636.0560999999999
 20
-715.23429999999996
 30
0.0
 11
-636.05619999999999
 21
-570.23439999999994
 31
0.0
  0
LINE
  5
4B1
100
AcDbEntity
  8
____
  6
CONTINUOUS
 62
              30
100
AcDbLine
 10
-636.0560999999999
 20
-565.23439999999994
 30
0.0
 11
-636.05629999999996
 21
-415.23429999999996
 31
0.0
  0
LINE
  5
4B2
100
AcDbEntity
  8
____
  6
CONTINUOUS
 62
              30
100
AcDbLine
 10
-631.05619999999999
 20
-560.23429999999996
 30
0.0
 11
-1081.0561
 21
-560.23429999999996
 31
0.0
  0
LINE
  5
4B3
100
AcDbEntity
  8
____
  6
CONTINUOUS
 62
              30
100
AcDbLine
 10
-1081.0562
 20
-575.23419999999999
 30
0.0
 11
-631.05619999999999
 21
-575.23439999999994
 31
0.0
  0
LINE
  5
4B4
100
AcDbEntity
  8
____
  6
CONTINUOUS
 62
              30
100
AcDbLine
 10
-631.05619999999999
 20
-710.23439999999994
 30
0.0
 11
-1081.0562
 21
-710.23439999999994
 31
0.0
  0
LINE
  5
4B5
100
AcDbEntity
  8
____
  6
CONTINUOUS
 62
              30
100
AcDbLine
 10
-1081.0561
 20
-860.23429999999996
 30
0.0
 11
-631.05619999999999
 21
-860.23439999999994
 31
0.0
  0
LINE
  5
4B6
100
AcDbEntity
  8
____
  6
CONTINUOUS
 62
              30
100
AcDbLine
 10
829.83709999999996
 20
766.97079999999994
 30
0.0
 11
974.66139999999996
 21
774.10469999999998
 31
0.0
  0
LINE
  5
4B7
100
AcDbEntity
  8
____
  6
CONTINUOUS
 62
              30
100
AcDbLine
 10
680.01879999999994
 20
759.59109999999998
 30
0.0
 11
824.84319999999991
 21
766.72479999999996
 31
0.0
  0
LINE
  5
4B8
100
AcDbEntity
  8
____
  6
CONTINUOUS
 62
              30
100
AcDbLine
 10
530.19819999999993
 20
752.25569999999993
 30
0.0
 11
675.0225999999999
 21
759.38949999999988
 31
0.0
  0
POLYLINE
  5
4B9
100
AcDbEntity
  8
____
  6
CONTINUOUS
 62
              30
100
AcDb2dPolyline
 66
               1
 10
0.0
 20
0.0
 30
0.0
 70
               1
 75
               5
  0
VERTEX
  5
4BA
100
AcDbEntity
  8
____
  6
CONTINUOUS
 62
              30
100
AcDbVertex
100
AcDb2dVertex
 10
-1131.0560999999998
 20
201.99999999999997
 30
0.0
  0
VERTEX
  5
4BB
100
AcDbEntity
  8
____
  6
CONTINUOUS
 62
              30
100
AcDbVertex
100
AcDb2dVertex
 10
-581.0560999999999
 20
201.99999999999997
 30
0.0
  0
VERTEX
  5
4BC
100
AcDbEntity
  8
____
  6
CONTINUOUS
 62
              30
100
AcDbVertex
100
AcDb2dVertex
 10
-581.0560999999999
 20
101.99999999999999
 30
0.0
  0
VERTEX
  5
4BD
100
AcDbEntity
  8
____
  6
CONTINUOUS
 62
              30
100
AcDbVertex
100
AcDb2dVertex
 10
-1131.0560999999998
 20
101.99999999999999
 30
0.0
  0
SEQEND
  5
4BE
100
AcDbEntity
  8
____
  6
CONTINUOUS
 62
              30
  0
INSERT
  5
4C0
100
AcDbEntity
  8
____
 62
              30
100
AcDbBlockReference
  2
*X5
 10
0.0
 20
0.0
 30
0.0
  0
POLYLINE
  5
4C1
100
AcDbEntity
  8
____
  6
CONTINUOUS
 62
              30
100
AcDb2dPolyline
 66
               1
 10
0.0
 20
0.0
 30
0.0
 70
               1
 75
               5
  0
VERTEX
  5
4C2
100
AcDbEntity
  8
____
  6
CONTINUOUS
 62
              30
100
AcDbVertex
100
AcDb2dVertex
 10
580.4437999999999
 20
202.26559999999998
 30
0.0
  0
VERTEX
  5
4C3
100
AcDbEntity
  8
____
  6
CONTINUOUS
 62
              30
100
AcDbVertex
100
AcDb2dVertex
 10
1030.4438
 20
202.26559999999998
 30
0.0
  0
VERTEX
  5
4C4
100
AcDbEntity
  8
____
  6
CONTINUOUS
 62
              30
100
AcDbVertex
100
AcDb2dVertex
 10
1030.4438
 20
102.26559999999999
 30
0.0
  0
VERTEX
  5
4C5
100
AcDbEntity
  8
____
  6
CONTINUOUS
 62
              30
100
AcDbVertex
100
AcDb2dVertex
 10
580.4437999999999
 20
102.26559999999999
 30
0.0
  0
SEQEND
  5
4C6
100
AcDbEntity
  8
____
  6
CONTINUOUS
 62
              30
  0
INSERT
  5
4C8
100
AcDbEntity
  8
____
 62
              30
100
AcDbBlockReference
  2
*X6
 10
0.0
 20
0.0
 30
0.0
  0
MTEXT
  5
4C9
100
AcDbEntity
  8
____
 62
              30
100
AcDbMText
 10
261.19382177282262
 20
-789.09460503472224
 30
0.0
 40
24.432617187500004
 41
0.0
 71
               1
 72
               1
  1
※特記事項\P・ESWは、木粉50％以上、ポリプロピレン40％以上の配合で、\P  表面をサンディング加工した再生木材「EINスーパーウッド」の略称。\P・ESW塗装は、ESWの表面をアクリルシリコン系水性塗料で仕上げた製品。\P
  7
_______
  0
POLYLINE
  5
4CA
100
AcDbEntity
  8
____
  6
CONTINUOUS
 62
              30
100
AcDb2dPolyline
 66
               1
 10
0.0
 20
0.0
 30
0.0
 70
             129
  0
VERTEX
  5
4CB
100
AcDbEntity
  8
____
  6
CONTINUOUS
 62
              30
100
AcDbVertex
100
AcDb2dVertex
 10
-1943.8518000000001
 20
1377.5
 30
0.0
  0
VERTEX
  5
4CC
100
AcDbEntity
  8
____
  6
CONTINUOUS
 62
              30
100
AcDbVertex
100
AcDb2dVertex
 10
1956.1481999999999
 20
1377.5
 30
0.0
  0
VERTEX
  5
4CD
100
AcDbEntity
  8
____
  6
CONTINUOUS
 62
              30
100
AcDbVertex
100
AcDb2dVertex
 10
1956.1481999999999
 20
-1372.5
 30
0.0
  0
VERTEX
  5
4CE
100
AcDbEntity
  8
____
  6
CONTINUOUS
 62
              30
100
AcDbVertex
100
AcDb2dVertex
 10
-1943.8518000000001
 20
-1372.5
 30
0.0
  0
VERTEX
  5
4CF
100
AcDbEntity
  8
____
  6
CONTINUOUS
 62
              30
100
AcDbVertex
100
AcDb2dVertex
 10
-1943.8518000000001
 20
1377.5
 30
0.0
  0
SEQEND
  5
4D0
100
AcDbEntity
  8
____
  6
CONTINUOUS
 62
              30
  0
LINE
  5
4D1
100
AcDbEntity
  8
____
  6
CONTINUOUS
 62
              30
100
AcDbLine
 10
1956.1481333333329
 20
927.49999999999977
 30
0.0
 11
1206.1481333333331
 21
927.49999999999977
 31
0.0
  0
LINE
  5
4D2
100
AcDbEntity
  8
____
  6
CONTINUOUS
 62
              30
100
AcDbLine
 10
1956.1481333333329
 20
1017.4999999999998
 30
0.0
 11
1206.1481333333331
 21
1017.4999999999998
 31
0.0
  0
LINE
  5
4D3
100
AcDbEntity
  8
____
  6
CONTINUOUS
 62
              30
100
AcDbLine
 10
1956.1481333333329
 20
1107.4999999999998
 30
0.0
 11
1206.1481333333331
 21
1107.4999999999998
 31
0.0
  0
LINE
  5
4D4
100
AcDbEntity
  8
____
  6
CONTINUOUS
 62
              30
100
AcDbLine
 10
1956.1481333333329
 20
1197.4999999999998
 30
0.0
 11
1206.1481333333331
 21
1197.4999999999998
 31
0.0
  0
LINE
  5
4D5
100
AcDbEntity
  8
____
  6
CONTINUOUS
 62
              30
100
AcDbLine
 10
1956.1481333333329
 20
1287.4999999999998
 30
0.0
 11
1206.1481333333331
 21
1287.4999999999998
 31
0.0
  0
MTEXT
  5
4D6
100
AcDbEntity
  8
____
 62
              30
100
AcDbMText
 10
1604.6203333333331
 20
987.36952819791668
 30
0.0
 40
27.14736953125
 41
0.0
 71
               1
 72
               1
  1
1：10(A3)
  7
_______
  0
MTEXT
  5
4D7
100
AcDbEntity
  8
____
 62
              30
100
AcDbMText
 10
1640.3227333333332
 20
1169.9710615312499
 30
0.0
 40
27.14736953125
 41
0.0
 71
               1
 72
               1
  1
B-090
  7
_______
  0
MTEXT
  5
4D8
100
AcDbEntity
  8
____
 62
              30
100
AcDbMText
 10
1523.1909999999996
 20
1079.3085281979165
 30
0.0
 40
27.14736953125
 41
0.0
 71
               1
 72
               1
  1
W450×L450×H420
  7
_______
  0
MTEXT
  5
4D9
100
AcDbEntity
  8
____
 62
              30
100
AcDbMText
 10
1511.9104303666852
 20
1256.8950615312499
 30
0.0
 40
27.14736953125
 41
0.0
 71
               1
 72
               1
  1
ＥＩＮスーパーウッド
  7
_______
  0
MTEXT
  5
4DA
100
AcDbEntity
  8
____
 62
              30
100
AcDbMText
 10
1570.7341999999996
 20
1347.3695281979165
 30
0.0
 40
27.14736953125
 41
0.0
 71
               1
 72
               1
  1
ＥＳＷベンチ
  7
_______
  0
MTEXT
  5
4DB
100
AcDbEntity
  8
____
 62
              30
100
AcDbMText
 10
1235.0161999999998
 20
1077.3695281979167
 30
0.0
 40
27.14736953125
 41
0.0
 71
               1
 72
               1
  1
規格寸法
  7
_______
  0
LINE
  5
4DC
100
AcDbEntity
  8
____
  6
CONTINUOUS
 62
              30
100
AcDbLine
 10
1206.1481333333331
 20
1377.5
 30
0.0
 11
1206.1481333333331
 21
927.49999999999977
 31
0.0
  0
LINE
  5
4DD
100
AcDbEntity
  8
____
  6
CONTINUOUS
 62
              30
100
AcDbLine
 10
1406.1481333333329
 20
1377.5
 30
0.0
 11
1406.1481333333329
 21
927.49999999999977
 31
0.0
  0
MTEXT
  5
4DE
100
AcDbEntity
  8
____
 62
              30
100
AcDbMText
 10
1235.0161999999998
 20
988.33906153124985
 30
0.0
 40
27.14736953125
 41
0.0
 71
               1
 72
               1
  1
縮　　尺
  7
_______
  0
MTEXT
  5
4DF
100
AcDbEntity
  8
____
 62
              30
100
AcDbMText
 10
1235.0161999999998
 20
1257.3695281979165
 30
0.0
 40
27.14736953125
 41
0.0
 71
               1
 72
               1
  1
仕　　様
  7
_______
  0
MTEXT
  5
4E0
100
AcDbEntity
  8
____
 62
              30
100
AcDbMText
 10
1235.0161999999998
 20
1167.3695281979165
 30
0.0
 40
27.14736953125
 41
0.0
 71
               1
 72
               1
  1
記　　号
  7
_______
  0
MTEXT
  5
4E1
100
AcDbEntity
  8
____
 62
              30
100
AcDbMText
 10
1235.0161999999998
 20
1348.3390615312499
 30
0.0
 40
27.14736953125
 41
0.0
 71
               1
 72
               1
  1
品　　名
  7
_______
  0
MTEXT
  5
4E2
100
AcDbEntity
  8
____
 62
              30
100
AcDbMText
 10
1158.3703333333331
 20
-1266.8252322916665
 30
0.0
 40
48.865234374999993
 41
0.0
 71
               1
 72
               1
  1
イー・トップ株式会社
  7
_______
  0
LINE
  5
4E3
100
AcDbEntity
  8
____
  6
CONTINUOUS
 62
              30
100
AcDbLine
 10
-1943.8518000000001
 20
-1222.499933333333
 30
0.0
 11
1956.1481999999999
 21
-1222.499933333333
 31
0.0
  0
ENDSEC
  0
SECTION
  2
OBJECTS
  0
DICTIONARY
  5
19
100
AcDbDictionary
  3
ACAD_GROUP
350
1A
  3
ACAD_MLINESTYLE
350
1B
  0
DICTIONARY
  5
1A
102
{ACAD_REACTORS
330
19
102
}
100
AcDbDictionary
  0
DICTIONARY
  5
1B
102
{ACAD_REACTORS
330
19
102
}
100
AcDbDictionary
  3
STANDARD
350
1C
  0
MLINESTYLE
  5
1C
102
{ACAD_REACTORS
330
1B
102
}
100
AcDbMlineStyle
  2
STANDARD
 70
               0
  3

 62
               0
 51
90.0
 52
90.0
 71
               2
 49
0.5
 62
             256
  6
BYLAYER
 49
-0.5
 62
             256
  6
BYLAYER
  0
ENDSEC
  0
EOF
