  0
SECTION
  2
HEADER
  9
$ACADVER
  1
AC1012
  9
$DWGCODEPAGE
  3
dos932
  9
$INSBASE
 10
0.0
 20
0.0
 30
0.0
  9
$EXTMIN
 10
-3893.9999833933507
 20
-2749.0000253850958
 30
0.0
  9
$EXTMAX
 10
3906.0000166066488
 20
2750.9999746149037
 30
0.0
  9
$LIMMIN
 10
0.0
 20
0.0
  9
$LIMMAX
 10
0.0
 20
0.0
  9
$ORTHOMODE
 70
               0
  9
$REGENMODE
 70
               1
  9
$FILLMODE
 70
               1
  9
$QTEXTMODE
 70
               0
  9
$MIRRTEXT
 70
               1
  9
$DRAGMODE
 70
               2
  9
$LTSCALE
 40
101.59999999999999
  9
$OSMODE
 70
               0
  9
$ATTMODE
 70
               1
  9
$TEXTSIZE
 40
0.2
  9
$TRACEWID
 40
1.0
  9
$TEXTSTYLE
  7
STANDARD
  9
$CLAYER
  8
IMPORTED
  9
$CELTYPE
  6
CONTINUOUS
  9
$CECOLOR
 62
             256
  9
$CELTSCALE
 40
1.0
  9
$DELOBJ
 70
               1
  9
$DISPSILH
 70
               0
  9
$DIMSCALE
 40
1.0
  9
$DIMASZ
 40
0.18
  9
$DIMEXO
 40
0.0625
  9
$DIMDLI
 40
0.38
  9
$DIMRND
 40
0.0
  9
$DIMDLE
 40
0.0
  9
$DIMEXE
 40
0.18
  9
$DIMTP
 40
0.0
  9
$DIMTM
 40
0.0
  9
$DIMTXT
 40
0.18
  9
$DIMCEN
 40
0.09
  9
$DIMTSZ
 40
0.0
  9
$DIMTOL
 70
               0
  9
$DIMLIM
 70
               0
  9
$DIMTIH
 70
               1
  9
$DIMTOH
 70
               1
  9
$DIMSE1
 70
               0
  9
$DIMSE2
 70
               0
  9
$DIMTAD
 70
               0
  9
$DIMZIN
 70
               0
  9
$DIMBLK
  1

  9
$DIMASO
 70
               1
  9
$DIMSHO
 70
               1
  9
$DIMPOST
  1

  9
$DIMAPOST
  1

  9
$DIMALT
 70
               0
  9
$DIMALTD
 70
               2
  9
$DIMALTF
 40
25.399999999999999
  9
$DIMLFAC
 40
1.0
  9
$DIMTOFL
 70
               0
  9
$DIMTVP
 40
0.0
  9
$DIMTIX
 70
               0
  9
$DIMSOXD
 70
               0
  9
$DIMSAH
 70
               0
  9
$DIMBLK1
  1

  9
$DIMBLK2
  1

  9
$DIMSTYLE
  2
STANDARD
  9
$DIMCLRD
 70
               0
  9
$DIMCLRE
 70
               0
  9
$DIMCLRT
 70
               0
  9
$DIMTFAC
 40
1.0
  9
$DIMGAP
 40
0.09
  9
$DIMJUST
 70
               0
  9
$DIMSD1
 70
               0
  9
$DIMSD2
 70
               0
  9
$DIMTOLJ
 70
               1
  9
$DIMTZIN
 70
               0
  9
$DIMALTZ
 70
               0
  9
$DIMALTTZ
 70
               0
  9
$DIMFIT
 70
               3
  9
$DIMUPT
 70
               0
  9
$DIMUNIT
 70
               2
  9
$DIMDEC
 70
               4
  9
$DIMTDEC
 70
               4
  9
$DIMALTU
 70
               2
  9
$DIMALTTD
 70
               2
  9
$DIMTXSTY
  7
STANDARD
  9
$DIMAUNIT
 70
               0
  9
$LUNITS
 70
               2
  9
$LUPREC
 70
               4
  9
$SKETCHINC
 40
0.1
  9
$FILLETRAD
 40
0.0
  9
$AUNITS
 70
               0
  9
$AUPREC
 70
               0
  9
$MENU
  1
acad
  9
$ELEVATION
 40
0.0
  9
$PELEVATION
 40
0.0
  9
$THICKNESS
 40
0.0
  9
$LIMCHECK
 70
               0
  9
$BLIPMODE
 70
               0
  9
$CHAMFERA
 40
0.0
  9
$CHAMFERB
 40
0.0
  9
$CHAMFERC
 40
0.0
  9
$CHAMFERD
 40
0.0
  9
$SKPOLY
 70
               0
  9
$TDCREATE
 40
2459227.555555556
  9
$TDUPDATE
 40
2459227.555555556
  9
$TDINDWG
 40
0.0000000000
  9
$TDUSRTIMER
 40
0.0000000000
  9
$USRTIMER
 70
               1
  9
$ANGBASE
 50
0.0
  9
$ANGDIR
 70
               0
  9
$PDMODE
 70
               1
  9
$PDSIZE
 40
-2.0
  9
$PLINEWID
 40
0.0
  9
$COORDS
 70
               0
  9
$SPLFRAME
 70
               0
  9
$SPLINETYPE
 70
               6
  9
$SPLINESEGS
 70
               8
  9
$ATTDIA
 70
               0
  9
$ATTREQ
 70
               1
  9
$HANDLING
 70
               1
  9
$HANDSEED
  5
6F9
  9
$SURFTAB1
 70
               6
  9
$SURFTAB2
 70
               6
  9
$SURFTYPE
 70
               6
  9
$SURFU
 70
               6
  9
$SURFV
 70
               6
  9
$UCSNAME
  2

  9
$UCSORG
 10
0.0
 20
0.0
 30
0.0
  9
$UCSXDIR
 10
1.0
 20
0.0
 30
0.0
  9
$UCSYDIR
 10
0.0
 20
1.0
 30
0.0
  9
$PUCSNAME
  2

  9
$PUCSORG
 10
0.0
 20
0.0
 30
0.0
  9
$PUCSXDIR
 10
1.0
 20
0.0
 30
0.0
  9
$PUCSYDIR
 10
0.0
 20
1.0
 30
0.0
  9
$USERI1
 70
               0
  9
$USERI2
 70
               0
  9
$USERI3
 70
               0
  9
$USERI4
 70
               0
  9
$USERI5
 70
               0
  9
$USERR1
 40
0.0
  9
$USERR2
 40
0.0
  9
$USERR3
 40
0.0
  9
$USERR4
 40
0.0
  9
$USERR5
 40
0.0
  9
$WORLDVIEW
 70
               1
  9
$SHADEDGE
 70
               3
  9
$SHADEDIF
 70
              70
  9
$TILEMODE
 70
               1
  9
$MAXACTVP
 70
              64
  9
$PINSBASE
 10
0.0
 20
0.0
 30
0.0
  9
$PLIMCHECK
 70
               0
  9
$PEXTMIN
 10
1.0000000000000000E+20
 20
1.0000000000000000E+20
 30
1.0000000000000000E+20
  9
$PEXTMAX
 10
-1.0000000000000000E+20
 20
-1.0000000000000000E+20
 30
-1.0000000000000000E+20
  9
$PLIMMIN
 10
0.0
 20
0.0
  9
$PLIMMAX
 10
12.0
 20
9.0
  9
$UNITMODE
 70
               0
  9
$VISRETAIN
 70
               0
  9
$PLINEGEN
 70
               1
  9
$PSLTSCALE
 70
               0
  9
$TREEDEPTH
 70
            3020
  9
$PICKSTYLE
 70
               1
  9
$CMLSTYLE
  2
STANDARD
  9
$CMLJUST
 70
               0
  9
$CMLSCALE
 40
1.0
  9
$SAVEIMAGES
 70
               0
  0
ENDSEC
  0
SECTION
  2
CLASSES
  0
CLASS
  1
LWPOLYLINE
  2
AcDbPolyline
  3
"AutoCAD"
 90
    32768
280
               0
281
               1
  0
CLASS
  1
IMAGE
  2
AcDbRasterImage
  3
ISM
 90
    32895
280
               0
281
               1
  0
CLASS
  1
OLE2FRAME
  2
AcDbOle2Frame
  3
""
 90
    32768
280
               0
281
               1
  0
CLASS
  1
HATCH
  2
AcDbHatch
  3
"ACAD_SEDONA"
 90
    32768
280
               0
281
               1
  0
CLASS
  1
DICTIONARYVAR
  2
AcDbDictionaryVar
  3
"AutoCAD"
 90
    32768
280
               0
281
               0
  0
CLASS
  1
RASTERVARIABLES
  2
AcDbRasterVariables
  3
ISM
 90
    32768
280
               0
281
               0
  0
CLASS
  1
IMAGEDEF
  2
AcDbRasterImageDef
  3
ISM
 90
    32768
280
               0
281
               0
  0
CLASS
  1
IMAGEDEF_REACTOR
  2
AcDbRasterImageDefReactor
  3
ISM
 90
    32769
280
               0
281
               0
  0
CLASS
  1
IDBUFFER
  2
AcDbIdBuffer
  3
"Acad"
 90
    32768
280
               0
281
               0
  0
CLASS
  1
SPATIAL_FILTER
  2
AcDbSpatialFilter
  3
"Acad"
 90
    32768
280
               0
281
               0
  0
CLASS
  1
XRECORD
  2
AcDbXrecord
  3
"<Built In>"
 90
    32768
280
               0
281
               0
  0
CLASS
  1
SORTENTSTABLE
  2
AcDbSortentsTable
  3
"AutoCAD"
 90
    32768
280
               0
281
               0
  0
CLASS
  1
LAYER_INDEX
  2
AcDbLayerIndex
  3
"Acad"
 90
    32768
280
               0
281
               0
  0
CLASS
  1
SPATIAL_INDEX
  2
AcDbSpatialIndex
  3
"Acad"
 90
    32768
280
               0
281
               0
  0
CLASS
  1
OBJECT_PTR
  2
CAseDLPNTableRecord
  3
"ASE-LPNTableRecord"
 90
    32769
280
               0
281
               0
  0
CLASS
  1
LAYOUT
  2
AcDbLayout
  3
"AutoCAD 2000"
 90
    32768
280
               0
281
               0
  0
CLASS
  1
PLOTSETTINGS
  2
AcDbPlotSettings
  3
"AutoCAD 2000"
 90
    32768
280
               0
281
               0
  0
CLASS
  1
ACDBDICTIONARYWDFLT
  2
AcDbDictionaryWithDefault
  3
"AutoCAD 2000"
 90
    32768
280
               0
281
               0
  0
CLASS
  1
ACDBPLACEHOLDER
  2
AcDbPlaceHolder
  3
"AutoCAD 2000"
 90
    32768
280
               0
281
               0
  0
ENDSEC
  0
SECTION
  2
TABLES
  0
TABLE
  2
VPORT
  5
7
100
AcDbSymbolTable
 70
               1
  0
VPORT
  5
15
100
AcDbSymbolTableRecord
100
AcDbViewportTableRecord
  2
*ACTIVE
 70
               0
 10
0.0
 20
0.0
 11
1.0
 21
1.0
 12
6.0000166066492966
 22
0.9999746149042039
 13
0.0
 23
0.0
 14
1.0
 24
1.0
 15
0.0
 25
0.0
 16
0.0
 26
0.0
 36
1.0
 17
0.0
 27
0.0
 37
0.0
 40
5500.0
 41
0.688564
 42
50.0
 43
0.0
 44
0.0
 50
0.0
 51
0.0
 71
               0
 72
            2000
 73
               1
 74
               1
 75
               0
 76
               0
 77
               0
 78
               0
  0
ENDTAB
  0
TABLE
  2
LTYPE
  5
4
100
AcDbSymbolTable
 70
              15
  0
LTYPE
  5
11
100
AcDbSymbolTableRecord
100
AcDbLinetypeTableRecord
  2
BYBLOCK
 70
              64
  3

 72
              65
 73
               0
 40
0.0
  0
LTYPE
  5
12
100
AcDbSymbolTableRecord
100
AcDbLinetypeTableRecord
  2
BYLAYER
 70
              64
  3

 72
              65
 73
               0
 40
0.0
  0
LTYPE
  5
13
100
AcDbSymbolTableRecord
100
AcDbLinetypeTableRecord
  2
CONTINUOUS
 70
              64
  3
Solid line
 72
              65
 73
               0
 40
0.0
  0
LTYPE
  5
1E
100
AcDbSymbolTableRecord
100
AcDbLinetypeTableRecord
  2
STYLE_01
 70
               0
  3

 72
              65
 73
               2
 40
0.4166412353515625
 49
0.208282470703125
 74
               0
 49
-0.2083587646484375
 74
               0
  0
LTYPE
  5
1F
100
AcDbSymbolTableRecord
100
AcDbLinetypeTableRecord
  2
STYLE_02
 70
               0
  3

 72
              65
 73
               2
 40
0.694427490234375
 49
0.4860687255859375
 74
               0
 49
-0.2083587646484375
 74
               0
  0
LTYPE
  5
20
100
AcDbSymbolTableRecord
100
AcDbLinetypeTableRecord
  2
STYLE_03
 70
               0
  3

 72
              65
 73
               2
 40
1.25
 49
1.0416412353515625
 74
               0
 49
-0.2083587646484375
 74
               0
  0
LTYPE
  5
21
100
AcDbSymbolTableRecord
100
AcDbLinetypeTableRecord
  2
STYLE_04
 70
               0
  3

 72
              65
 73
               2
 40
1.5277099609375
 49
1.319427490234375
 74
               0
 49
-0.208282470703125
 74
               0
  0
LTYPE
  5
22
100
AcDbSymbolTableRecord
100
AcDbLinetypeTableRecord
  2
STYLE_05
 70
               0
  3

 72
              65
 73
               2
 40
0.208282470703125
 49
0.069427490234375
 74
               0
 49
-0.13885498046875
 74
               0
  0
LTYPE
  5
23
100
AcDbSymbolTableRecord
100
AcDbLinetypeTableRecord
  2
STYLE_06
 70
               0
  3

 72
              65
 73
               4
 40
1.0416412353515625
 49
0.625
 74
               0
 49
-0.208282470703125
 74
               0
 49
0.069427490234375
 74
               0
 49
-0.1389312744140625
 74
               0
  0
LTYPE
  5
24
100
AcDbSymbolTableRecord
100
AcDbLinetypeTableRecord
  2
STYLE_07
 70
               0
  3

 72
              65
 73
               6
 40
1.875
 49
0.625
 74
               0
 49
-0.208282470703125
 74
               0
 49
0.625
 74
               0
 49
-0.2083587646484375
 74
               0
 49
0.069427490234375
 74
               0
 49
-0.1389312744140625
 74
               0
  0
LTYPE
  5
25
100
AcDbSymbolTableRecord
100
AcDbLinetypeTableRecord
  2
STYLE_08
 70
               0
  3

 72
              65
 73
               6
 40
1.25
 49
0.625
 74
               0
 49
-0.208282470703125
 74
               0
 49
0.069427490234375
 74
               0
 49
-0.1389312744140625
 74
               0
 49
0.069427490234375
 74
               0
 49
-0.1389312744140625
 74
               0
  0
LTYPE
  5
26
100
AcDbSymbolTableRecord
100
AcDbLinetypeTableRecord
  2
STYLE_09
 70
               0
  3

 72
              65
 73
               2
 40
0.1476287841796875
 49
0.098419189453125
 74
               0
 49
-0.0492095947265625
 74
               0
  0
LTYPE
  5
27
100
AcDbSymbolTableRecord
100
AcDbLinetypeTableRecord
  2
STYLE_10
 70
               0
  3

 72
              65
 73
               6
 40
5.9375
 49
3.75
 74
               0
 49
-0.2777862548828125
 74
               0
 49
0.694427490234375
 74
               0
 49
-0.2777862548828125
 74
               0
 49
0.625
 74
               0
 49
-0.3125
 74
               0
  0
LTYPE
  5
28
100
AcDbSymbolTableRecord
100
AcDbLinetypeTableRecord
  2
STYLE_11
 70
               0
  3

 72
              65
 73
               2
 40
0.208282470703125
 49
0.069427490234375
 74
               0
 49
-0.13885498046875
 74
               0
  0
LTYPE
  5
29
100
AcDbSymbolTableRecord
100
AcDbLinetypeTableRecord
  2
STYLE_12
 70
               0
  3

 72
              65
 73
               2
 40
0.4166412353515625
 49
0.208282470703125
 74
               0
 49
-0.2083587646484375
 74
               0
  0
ENDTAB
  0
TABLE
  2
LAYER
  5
2
100
AcDbSymbolTable
 70
               2
  0
LAYER
  5
14
100
AcDbSymbolTableRecord
100
AcDbLayerTableRecord
  2
0
 70
               0
 62
               7
  6
CONTINUOUS
  0
LAYER
  5
2A
100
AcDbSymbolTableRecord
100
AcDbLayerTableRecord
  2
IMPORTED
 70
               0
 62
               7
  6
CONTINUOUS
  0
ENDTAB
  0
TABLE
  2
STYLE
  5
3
100
AcDbSymbolTable
 70
               2
  0
STYLE
  5
17
100
AcDbSymbolTableRecord
100
AcDbTextStyleTableRecord
  2
STANDARD
 70
               0
 40
0.0
 41
1.0
 50
0.0
 71
               0
 42
0.0
  3
txt
  4
BIGFONT.SHX
  0
STYLE
  5
1D
100
AcDbSymbolTableRecord
100
AcDbTextStyleTableRecord
  2
_______
 70
               0
 40
0.0
 41
1.0
 50
0.0
 71
               0
 42
0.0
  3

  4
ＭＳ ゴシック
1001
ACAD
1000
ＭＳ ゴシック
1071
        0
  0
ENDTAB
  0
TABLE
  2
VIEW
  5
5
100
AcDbSymbolTable
 70
               0
  0
ENDTAB
  0
TABLE
  2
UCS
  5
6
100
AcDbSymbolTable
 70
               0
  0
ENDTAB
  0
TABLE
  2
APPID
  5
8
100
AcDbSymbolTable
 70
               1
  0
APPID
  5
16
100
AcDbSymbolTableRecord
100
AcDbRegAppTableRecord
  2
ACAD
 70
               0
  0
ENDTAB
  0
TABLE
  2
DIMSTYLE
  5
9
100
AcDbSymbolTable
 70
               1
  0
DIMSTYLE
105
18
100
AcDbSymbolTableRecord
100
AcDbDimStyleTableRecord
  2
STANDARD
 70
               0
  3

  4

  5

  6

  7

 40
1.0
 41
0.18
 42
0.0625
 43
0.38
 44
0.18
 45
0.0
 46
0.0
 47
0.0
 48
0.0
 71
               0
 72
               0
 73
               1
 74
               1
 75
               0
 76
               0
 77
               0
 78
               0
140
0.18
141
0.09
142
0.0
143
25.399999999999999
144
1.0
145
0.0
146
1.0
147
0.09
170
               0
171
               2
172
               0
173
               0
174
               0
175
               0
176
               0
177
               0
178
               0
270
               2
271
               4
272
               4
273
               2
274
               2
275
               0
280
               0
281
               0
282
               0
283
               1
284
               0
285
               0
286
               0
287
               3
288
               0
340
17
  0
ENDTAB
  0
TABLE
  2
BLOCK_RECORD
  5
1
100
AcDbSymbolTable
 70
               0
  0
BLOCK_RECORD
  5
A
100
AcDbSymbolTableRecord
100
AcDbBlockTableRecord
  2
*MODEL_SPACE
  0
BLOCK_RECORD
  5
B
100
AcDbSymbolTableRecord
100
AcDbBlockTableRecord
  2
*PAPER_SPACE
  0
ENDTAB
  0
ENDSEC
  0
SECTION
  2
BLOCKS
  0
BLOCK
  5
D
100
AcDbEntity
  8
0
100
AcDbBlockBegin
  2
*MODEL_SPACE
 70
               0
 10
0.0
 20
0.0
 30
0.0
  3
*MODEL_SPACE
  1

  0
ENDBLK
  5
E
100
AcDbEntity
  8
0
100
AcDbBlockEnd
  0
BLOCK
  5
F
100
AcDbEntity
 67
               1
  8
0
100
AcDbBlockBegin
  2
*PAPER_SPACE
 70
               0
 10
0.0
 20
0.0
 30
0.0
  3
*PAPER_SPACE
  1

  0
ENDBLK
  5
10
100
AcDbEntity
 67
               1
  8
0
100
AcDbBlockEnd
  0
ENDSEC
  0
SECTION
  2
ENTITIES
  0
POLYLINE
  5
2B
100
AcDbEntity
  8
IMPORTED
  6
STYLE_05
 62
              30
100
AcDb2dPolyline
 66
               1
 10
0.0
 20
0.0
 30
0.0
 70
             129
  0
VERTEX
  5
2C
100
AcDbEntity
  8
IMPORTED
  6
STYLE_05
 62
              30
100
AcDbVertex
100
AcDb2dVertex
 10
-1984.9999833933507
 20
-1399.999925385096
 30
0.0
  0
VERTEX
  5
2D
100
AcDbEntity
  8
IMPORTED
  6
STYLE_05
 62
              30
100
AcDbVertex
100
AcDb2dVertex
 10
-1979.9999833933507
 20
-1404.999925385096
 30
0.0
  0
VERTEX
  5
2E
100
AcDbEntity
  8
IMPORTED
  6
STYLE_05
 62
              30
100
AcDbVertex
100
AcDb2dVertex
 10
-1979.9999833933507
 20
-1514.999925385096
 30
0.0
  0
VERTEX
  5
2F
100
AcDbEntity
  8
IMPORTED
  6
STYLE_05
 62
              30
100
AcDbVertex
100
AcDb2dVertex
 10
-1984.9999833933507
 20
-1519.999925385096
 30
0.0
  0
VERTEX
  5
30
100
AcDbEntity
  8
IMPORTED
  6
STYLE_05
 62
              30
100
AcDbVertex
100
AcDb2dVertex
 10
-2094.9999833933507
 20
-1519.999925385096
 30
0.0
  0
VERTEX
  5
31
100
AcDbEntity
  8
IMPORTED
  6
STYLE_05
 62
              30
100
AcDbVertex
100
AcDb2dVertex
 10
-2099.9999833933507
 20
-1514.999925385096
 30
0.0
  0
VERTEX
  5
32
100
AcDbEntity
  8
IMPORTED
  6
STYLE_05
 62
              30
100
AcDbVertex
100
AcDb2dVertex
 10
-2099.9999833933507
 20
-1404.999925385096
 30
0.0
  0
VERTEX
  5
33
100
AcDbEntity
  8
IMPORTED
  6
STYLE_05
 62
              30
100
AcDbVertex
100
AcDb2dVertex
 10
-2094.9999833933507
 20
-1399.999925385096
 30
0.0
  0
SEQEND
  5
34
100
AcDbEntity
  8
IMPORTED
  6
STYLE_05
 62
              30
  0
POLYLINE
  5
35
100
AcDbEntity
  8
IMPORTED
  6
STYLE_05
 62
              30
100
AcDb2dPolyline
 66
               1
 10
0.0
 20
0.0
 30
0.0
 70
             129
  0
VERTEX
  5
36
100
AcDbEntity
  8
IMPORTED
  6
STYLE_05
 62
              30
100
AcDbVertex
100
AcDb2dVertex
 10
-1985.9999833933507
 20
-1469.999925385096
 30
0.0
  0
VERTEX
  5
37
100
AcDbEntity
  8
IMPORTED
  6
STYLE_05
 62
              30
100
AcDbVertex
100
AcDb2dVertex
 10
-1989.4999833933507
 20
-1464.999925385096
 30
0.0
  0
VERTEX
  5
38
100
AcDbEntity
  8
IMPORTED
  6
STYLE_05
 62
              30
100
AcDbVertex
100
AcDb2dVertex
 10
-1989.4999833933507
 20
-1454.999925385096
 30
0.0
  0
VERTEX
  5
39
100
AcDbEntity
  8
IMPORTED
  6
STYLE_05
 62
              30
100
AcDbVertex
100
AcDb2dVertex
 10
-1985.9999833933507
 20
-1449.999925385096
 30
0.0
  0
VERTEX
  5
3A
100
AcDbEntity
  8
IMPORTED
  6
STYLE_05
 62
              30
100
AcDbVertex
100
AcDb2dVertex
 10
-1985.9999833933507
 20
-1444.999925385096
 30
0.0
  0
VERTEX
  5
3B
100
AcDbEntity
  8
IMPORTED
  6
STYLE_05
 62
              30
100
AcDbVertex
100
AcDb2dVertex
 10
-1985.9999833933507
 20
-1438.999925385096
 30
0.0
  0
VERTEX
  5
3C
100
AcDbEntity
  8
IMPORTED
  6
STYLE_05
 62
              30
100
AcDbVertex
100
AcDb2dVertex
 10
-1985.9999833933507
 20
-1420.9999253850963
 30
0.0
  0
VERTEX
  5
3D
100
AcDbEntity
  8
IMPORTED
  6
STYLE_05
 62
              30
100
AcDbVertex
100
AcDb2dVertex
 10
-1988.9999833933507
 20
-1415.999925385096
 30
0.0
  0
VERTEX
  5
3E
100
AcDbEntity
  8
IMPORTED
  6
STYLE_05
 62
              30
100
AcDbVertex
100
AcDb2dVertex
 10
-1988.9999833933507
 20
-1411.999925385096
 30
0.0
  0
VERTEX
  5
3F
100
AcDbEntity
  8
IMPORTED
  6
STYLE_05
 62
              30
100
AcDbVertex
100
AcDb2dVertex
 10
-1988.9999833933507
 20
-1411.999925385096
 30
0.0
 42
0.414213562373095
 70
               2
  0
VERTEX
  5
40
100
AcDbEntity
  8
IMPORTED
  6
STYLE_05
 62
              30
100
AcDbVertex
100
AcDb2dVertex
 10
-1991.9999833933507
 20
-1408.999925385096
 30
0.0
  0
VERTEX
  5
41
100
AcDbEntity
  8
IMPORTED
  6
STYLE_05
 62
              30
100
AcDbVertex
100
AcDb2dVertex
 10
-1995.9999833933507
 20
-1408.999925385096
 30
0.0
  0
VERTEX
  5
42
100
AcDbEntity
  8
IMPORTED
  6
STYLE_05
 62
              30
100
AcDbVertex
100
AcDb2dVertex
 10
-2000.9999833933507
 20
-1405.999925385096
 30
0.0
  0
VERTEX
  5
43
100
AcDbEntity
  8
IMPORTED
  6
STYLE_05
 62
              30
100
AcDbVertex
100
AcDb2dVertex
 10
-2018.9999833933507
 20
-1405.999925385096
 30
0.0
  0
VERTEX
  5
44
100
AcDbEntity
  8
IMPORTED
  6
STYLE_05
 62
              30
100
AcDbVertex
100
AcDb2dVertex
 10
-2024.9999833933507
 20
-1405.999925385096
 30
0.0
  0
VERTEX
  5
45
100
AcDbEntity
  8
IMPORTED
  6
STYLE_05
 62
              30
100
AcDbVertex
100
AcDb2dVertex
 10
-2029.9999833933507
 20
-1405.999925385096
 30
0.0
  0
VERTEX
  5
46
100
AcDbEntity
  8
IMPORTED
  6
STYLE_05
 62
              30
100
AcDbVertex
100
AcDb2dVertex
 10
-2034.9999833933507
 20
-1409.499925385096
 30
0.0
  0
VERTEX
  5
47
100
AcDbEntity
  8
IMPORTED
  6
STYLE_05
 62
              30
100
AcDbVertex
100
AcDb2dVertex
 10
-2044.9999833933507
 20
-1409.499925385096
 30
0.0
  0
VERTEX
  5
48
100
AcDbEntity
  8
IMPORTED
  6
STYLE_05
 62
              30
100
AcDbVertex
100
AcDb2dVertex
 10
-2049.9999833933507
 20
-1405.999925385096
 30
0.0
  0
VERTEX
  5
49
100
AcDbEntity
  8
IMPORTED
  6
STYLE_05
 62
              30
100
AcDbVertex
100
AcDb2dVertex
 10
-2054.9999833933507
 20
-1405.999925385096
 30
0.0
  0
VERTEX
  5
4A
100
AcDbEntity
  8
IMPORTED
  6
STYLE_05
 62
              30
100
AcDbVertex
100
AcDb2dVertex
 10
-2060.9999833933507
 20
-1405.999925385096
 30
0.0
  0
VERTEX
  5
4B
100
AcDbEntity
  8
IMPORTED
  6
STYLE_05
 62
              30
100
AcDbVertex
100
AcDb2dVertex
 10
-2078.9999833933507
 20
-1405.999925385096
 30
0.0
  0
VERTEX
  5
4C
100
AcDbEntity
  8
IMPORTED
  6
STYLE_05
 62
              30
100
AcDbVertex
100
AcDb2dVertex
 10
-2083.9999833933507
 20
-1408.999925385096
 30
0.0
  0
VERTEX
  5
4D
100
AcDbEntity
  8
IMPORTED
  6
STYLE_05
 62
              30
100
AcDbVertex
100
AcDb2dVertex
 10
-2087.9999833933507
 20
-1408.999925385096
 30
0.0
  0
VERTEX
  5
4E
100
AcDbEntity
  8
IMPORTED
  6
STYLE_05
 62
              30
100
AcDbVertex
100
AcDb2dVertex
 10
-2087.9999833933507
 20
-1408.999925385096
 30
0.0
 42
0.414213562373095
 70
               2
 50
9.3574199307792870E+17
  0
VERTEX
  5
4F
100
AcDbEntity
  8
IMPORTED
  6
STYLE_05
 62
              30
100
AcDbVertex
100
AcDb2dVertex
 10
-2090.9999833933507
 20
-1411.999925385096
 30
0.0
  0
VERTEX
  5
50
100
AcDbEntity
  8
IMPORTED
  6
STYLE_05
 62
              30
100
AcDbVertex
100
AcDb2dVertex
 10
-2090.9999833933507
 20
-1415.999925385096
 30
0.0
  0
VERTEX
  5
51
100
AcDbEntity
  8
IMPORTED
  6
STYLE_05
 62
              30
100
AcDbVertex
100
AcDb2dVertex
 10
-2093.9999833933507
 20
-1420.9999253850963
 30
0.0
  0
VERTEX
  5
52
100
AcDbEntity
  8
IMPORTED
  6
STYLE_05
 62
              30
100
AcDbVertex
100
AcDb2dVertex
 10
-2093.9999833933507
 20
-1438.999925385096
 30
0.0
  0
VERTEX
  5
53
100
AcDbEntity
  8
IMPORTED
  6
STYLE_05
 62
              30
100
AcDbVertex
100
AcDb2dVertex
 10
-2093.9999833933507
 20
-1444.999925385096
 30
0.0
  0
VERTEX
  5
54
100
AcDbEntity
  8
IMPORTED
  6
STYLE_05
 62
              30
100
AcDbVertex
100
AcDb2dVertex
 10
-2093.9999833933507
 20
-1449.999925385096
 30
0.0
  0
VERTEX
  5
55
100
AcDbEntity
  8
IMPORTED
  6
STYLE_05
 62
              30
100
AcDbVertex
100
AcDb2dVertex
 10
-2090.4999833933507
 20
-1454.999925385096
 30
0.0
  0
VERTEX
  5
56
100
AcDbEntity
  8
IMPORTED
  6
STYLE_05
 62
              30
100
AcDbVertex
100
AcDb2dVertex
 10
-2090.4999833933507
 20
-1464.999925385096
 30
0.0
  0
VERTEX
  5
57
100
AcDbEntity
  8
IMPORTED
  6
STYLE_05
 62
              30
100
AcDbVertex
100
AcDb2dVertex
 10
-2093.9999833933507
 20
-1469.999925385096
 30
0.0
  0
VERTEX
  5
58
100
AcDbEntity
  8
IMPORTED
  6
STYLE_05
 62
              30
100
AcDbVertex
100
AcDb2dVertex
 10
-2093.9999833933507
 20
-1474.999925385096
 30
0.0
  0
VERTEX
  5
59
100
AcDbEntity
  8
IMPORTED
  6
STYLE_05
 62
              30
100
AcDbVertex
100
AcDb2dVertex
 10
-2093.9999833933507
 20
-1480.999925385096
 30
0.0
  0
VERTEX
  5
5A
100
AcDbEntity
  8
IMPORTED
  6
STYLE_05
 62
              30
100
AcDbVertex
100
AcDb2dVertex
 10
-2093.9999833933507
 20
-1498.9999253850958
 30
0.0
  0
VERTEX
  5
5B
100
AcDbEntity
  8
IMPORTED
  6
STYLE_05
 62
              30
100
AcDbVertex
100
AcDb2dVertex
 10
-2090.9999833933507
 20
-1503.999925385096
 30
0.0
  0
VERTEX
  5
5C
100
AcDbEntity
  8
IMPORTED
  6
STYLE_05
 62
              30
100
AcDbVertex
100
AcDb2dVertex
 10
-2090.9999833933507
 20
-1507.999925385096
 30
0.0
  0
VERTEX
  5
5D
100
AcDbEntity
  8
IMPORTED
  6
STYLE_05
 62
              30
100
AcDbVertex
100
AcDb2dVertex
 10
-2090.9999833933507
 20
-1507.999925385096
 30
0.0
 42
0.414213562373095
 70
               2
  0
VERTEX
  5
5E
100
AcDbEntity
  8
IMPORTED
  6
STYLE_05
 62
              30
100
AcDbVertex
100
AcDb2dVertex
 10
-2087.9999833933507
 20
-1510.999925385096
 30
0.0
  0
VERTEX
  5
5F
100
AcDbEntity
  8
IMPORTED
  6
STYLE_05
 62
              30
100
AcDbVertex
100
AcDb2dVertex
 10
-2083.9999833933507
 20
-1510.999925385096
 30
0.0
  0
VERTEX
  5
60
100
AcDbEntity
  8
IMPORTED
  6
STYLE_05
 62
              30
100
AcDbVertex
100
AcDb2dVertex
 10
-2078.9999833933507
 20
-1513.999925385096
 30
0.0
  0
VERTEX
  5
61
100
AcDbEntity
  8
IMPORTED
  6
STYLE_05
 62
              30
100
AcDbVertex
100
AcDb2dVertex
 10
-2060.9999833933507
 20
-1513.999925385096
 30
0.0
  0
VERTEX
  5
62
100
AcDbEntity
  8
IMPORTED
  6
STYLE_05
 62
              30
100
AcDbVertex
100
AcDb2dVertex
 10
-2054.9999833933507
 20
-1513.999925385096
 30
0.0
  0
VERTEX
  5
63
100
AcDbEntity
  8
IMPORTED
  6
STYLE_05
 62
              30
100
AcDbVertex
100
AcDb2dVertex
 10
-2049.9999833933507
 20
-1513.999925385096
 30
0.0
  0
VERTEX
  5
64
100
AcDbEntity
  8
IMPORTED
  6
STYLE_05
 62
              30
100
AcDbVertex
100
AcDb2dVertex
 10
-2044.9999833933507
 20
-1510.499925385096
 30
0.0
  0
VERTEX
  5
65
100
AcDbEntity
  8
IMPORTED
  6
STYLE_05
 62
              30
100
AcDbVertex
100
AcDb2dVertex
 10
-2034.9999833933507
 20
-1510.499925385096
 30
0.0
  0
VERTEX
  5
66
100
AcDbEntity
  8
IMPORTED
  6
STYLE_05
 62
              30
100
AcDbVertex
100
AcDb2dVertex
 10
-2029.9999833933507
 20
-1513.999925385096
 30
0.0
  0
VERTEX
  5
67
100
AcDbEntity
  8
IMPORTED
  6
STYLE_05
 62
              30
100
AcDbVertex
100
AcDb2dVertex
 10
-2024.9999833933507
 20
-1513.999925385096
 30
0.0
  0
VERTEX
  5
68
100
AcDbEntity
  8
IMPORTED
  6
STYLE_05
 62
              30
100
AcDbVertex
100
AcDb2dVertex
 10
-2018.9999833933507
 20
-1513.999925385096
 30
0.0
  0
VERTEX
  5
69
100
AcDbEntity
  8
IMPORTED
  6
STYLE_05
 62
              30
100
AcDbVertex
100
AcDb2dVertex
 10
-2000.9999833933507
 20
-1513.999925385096
 30
0.0
  0
VERTEX
  5
6A
100
AcDbEntity
  8
IMPORTED
  6
STYLE_05
 62
              30
100
AcDbVertex
100
AcDb2dVertex
 10
-1995.9999833933507
 20
-1510.999925385096
 30
0.0
  0
VERTEX
  5
6B
100
AcDbEntity
  8
IMPORTED
  6
STYLE_05
 62
              30
100
AcDbVertex
100
AcDb2dVertex
 10
-1991.9999833933507
 20
-1510.999925385096
 30
0.0
  0
VERTEX
  5
6C
100
AcDbEntity
  8
IMPORTED
  6
STYLE_05
 62
              30
100
AcDbVertex
100
AcDb2dVertex
 10
-1991.9999833933507
 20
-1510.999925385096
 30
0.0
 42
0.414213562373095
 70
               2
 50
3.1191399769264294E+17
  0
VERTEX
  5
6D
100
AcDbEntity
  8
IMPORTED
  6
STYLE_05
 62
              30
100
AcDbVertex
100
AcDb2dVertex
 10
-1988.9999833933507
 20
-1507.999925385096
 30
0.0
  0
VERTEX
  5
6E
100
AcDbEntity
  8
IMPORTED
  6
STYLE_05
 62
              30
100
AcDbVertex
100
AcDb2dVertex
 10
-1988.9999833933507
 20
-1503.999925385096
 30
0.0
  0
VERTEX
  5
6F
100
AcDbEntity
  8
IMPORTED
  6
STYLE_05
 62
              30
100
AcDbVertex
100
AcDb2dVertex
 10
-1985.9999833933507
 20
-1498.9999253850958
 30
0.0
  0
VERTEX
  5
70
100
AcDbEntity
  8
IMPORTED
  6
STYLE_05
 62
              30
100
AcDbVertex
100
AcDb2dVertex
 10
-1985.9999833933507
 20
-1480.999925385096
 30
0.0
  0
VERTEX
  5
71
100
AcDbEntity
  8
IMPORTED
  6
STYLE_05
 62
              30
100
AcDbVertex
100
AcDb2dVertex
 10
-1985.9999833933507
 20
-1474.999925385096
 30
0.0
  0
SEQEND
  5
72
100
AcDbEntity
  8
IMPORTED
  6
STYLE_05
 62
              30
  0
POLYLINE
  5
73
100
AcDbEntity
  8
IMPORTED
  6
STYLE_05
 62
              30
100
AcDb2dPolyline
 66
               1
 10
0.0
 20
0.0
 30
0.0
 70
             129
  0
VERTEX
  5
74
100
AcDbEntity
  8
IMPORTED
  6
STYLE_05
 62
              30
100
AcDbVertex
100
AcDb2dVertex
 10
-2039.9999833933507
 20
-1409.999925385096
 30
0.0
  0
VERTEX
  5
75
100
AcDbEntity
  8
IMPORTED
  6
STYLE_05
 62
              30
100
AcDbVertex
100
AcDb2dVertex
 10
-2085.3999833933512
 20
-1409.999925385096
 30
0.0
  0
VERTEX
  5
76
100
AcDbEntity
  8
IMPORTED
  6
STYLE_05
 62
              30
100
AcDbVertex
100
AcDb2dVertex
 10
-2085.3999833933512
 20
-1409.999925385096
 30
0.0
 42
0.414213562373124
 70
               2
 50
9.3574199307792870E+17
  0
VERTEX
  5
77
100
AcDbEntity
  8
IMPORTED
  6
STYLE_05
 62
              30
100
AcDbVertex
100
AcDb2dVertex
 10
-2089.9999833933507
 20
-1414.599925385096
 30
0.0
  0
VERTEX
  5
78
100
AcDbEntity
  8
IMPORTED
  6
STYLE_05
 62
              30
100
AcDbVertex
100
AcDb2dVertex
 10
-2089.9999833933507
 20
-1459.999925385096
 30
0.0
  0
VERTEX
  5
79
100
AcDbEntity
  8
IMPORTED
  6
STYLE_05
 62
              30
100
AcDbVertex
100
AcDb2dVertex
 10
-2089.9999833933507
 20
-1505.3999253850961
 30
0.0
  0
VERTEX
  5
7A
100
AcDbEntity
  8
IMPORTED
  6
STYLE_05
 62
              30
100
AcDbVertex
100
AcDb2dVertex
 10
-2089.9999833933507
 20
-1505.3999253850961
 30
0.0
 42
0.4142135623730661
 70
               2
  0
VERTEX
  5
7B
100
AcDbEntity
  8
IMPORTED
  6
STYLE_05
 62
              30
100
AcDbVertex
100
AcDb2dVertex
 10
-2085.3999833933512
 20
-1509.999925385096
 30
0.0
  0
VERTEX
  5
7C
100
AcDbEntity
  8
IMPORTED
  6
STYLE_05
 62
              30
100
AcDbVertex
100
AcDb2dVertex
 10
-2039.9999833933507
 20
-1509.999925385096
 30
0.0
  0
VERTEX
  5
7D
100
AcDbEntity
  8
IMPORTED
  6
STYLE_05
 62
              30
100
AcDbVertex
100
AcDb2dVertex
 10
-1994.5999833933511
 20
-1509.999925385096
 30
0.0
  0
VERTEX
  5
7E
100
AcDbEntity
  8
IMPORTED
  6
STYLE_05
 62
              30
100
AcDbVertex
100
AcDb2dVertex
 10
-1994.5999833933511
 20
-1509.999925385096
 30
0.0
 42
0.4142135623730661
 70
               2
 50
3.1191399769264294E+17
  0
VERTEX
  5
7F
100
AcDbEntity
  8
IMPORTED
  6
STYLE_05
 62
              30
100
AcDbVertex
100
AcDb2dVertex
 10
-1989.9999833933507
 20
-1505.3999253850961
 30
0.0
  0
VERTEX
  5
80
100
AcDbEntity
  8
IMPORTED
  6
STYLE_05
 62
              30
100
AcDbVertex
100
AcDb2dVertex
 10
-1989.9999833933507
 20
-1459.999925385096
 30
0.0
  0
VERTEX
  5
81
100
AcDbEntity
  8
IMPORTED
  6
STYLE_05
 62
              30
100
AcDbVertex
100
AcDb2dVertex
 10
-1989.9999833933507
 20
-1414.599925385096
 30
0.0
  0
VERTEX
  5
82
100
AcDbEntity
  8
IMPORTED
  6
STYLE_05
 62
              30
100
AcDbVertex
100
AcDb2dVertex
 10
-1989.9999833933507
 20
-1414.599925385096
 30
0.0
 42
0.414213562373124
 70
               2
  0
VERTEX
  5
83
100
AcDbEntity
  8
IMPORTED
  6
STYLE_05
 62
              30
100
AcDbVertex
100
AcDb2dVertex
 10
-1994.5999833933511
 20
-1409.999925385096
 30
0.0
  0
SEQEND
  5
84
100
AcDbEntity
  8
IMPORTED
  6
STYLE_05
 62
              30
  0
POLYLINE
  5
85
100
AcDbEntity
  8
IMPORTED
  6
STYLE_05
 62
              30
100
AcDb2dPolyline
 66
               1
 10
0.0
 20
0.0
 30
0.0
 70
             129
  0
VERTEX
  5
86
100
AcDbEntity
  8
IMPORTED
  6
STYLE_05
 62
              30
100
AcDbVertex
100
AcDb2dVertex
 10
-1994.5999833933511
 20
-1412.299925385096
 30
0.0
  0
VERTEX
  5
87
100
AcDbEntity
  8
IMPORTED
  6
STYLE_05
 62
              30
100
AcDbVertex
100
AcDb2dVertex
 10
-1994.5999833933511
 20
-1412.299925385096
 30
0.0
 42
-0.414213562373124
 70
               2
 50
-582975334308812.37
  0
VERTEX
  5
88
100
AcDbEntity
  8
IMPORTED
  6
STYLE_05
 62
              30
100
AcDbVertex
100
AcDb2dVertex
 10
-1992.2999833933509
 20
-1414.599925385096
 30
0.0
  0
VERTEX
  5
89
100
AcDbEntity
  8
IMPORTED
  6
STYLE_05
 62
              30
100
AcDbVertex
100
AcDb2dVertex
 10
-1992.2999833933509
 20
-1459.999925385096
 30
0.0
  0
VERTEX
  5
8A
100
AcDbEntity
  8
IMPORTED
  6
STYLE_05
 62
              30
100
AcDbVertex
100
AcDb2dVertex
 10
-1992.2999833933509
 20
-1505.3999253850961
 30
0.0
  0
VERTEX
  5
8B
100
AcDbEntity
  8
IMPORTED
  6
STYLE_05
 62
              30
100
AcDbVertex
100
AcDb2dVertex
 10
-1992.2999833933509
 20
-1505.3999253850961
 30
0.0
 42
-0.414213562373095
 70
               2
  0
VERTEX
  5
8C
100
AcDbEntity
  8
IMPORTED
  6
STYLE_05
 62
              30
100
AcDbVertex
100
AcDb2dVertex
 10
-1994.5999833933511
 20
-1507.6999253850961
 30
0.0
  0
VERTEX
  5
8D
100
AcDbEntity
  8
IMPORTED
  6
STYLE_05
 62
              30
100
AcDbVertex
100
AcDb2dVertex
 10
-2039.9999833933507
 20
-1507.6999253850961
 30
0.0
  0
VERTEX
  5
8E
100
AcDbEntity
  8
IMPORTED
  6
STYLE_05
 62
              30
100
AcDbVertex
100
AcDb2dVertex
 10
-2085.3999833933512
 20
-1507.6999253850961
 30
0.0
  0
VERTEX
  5
8F
100
AcDbEntity
  8
IMPORTED
  6
STYLE_05
 62
              30
100
AcDbVertex
100
AcDb2dVertex
 10
-2085.3999833933512
 20
-1507.6999253850961
 30
0.0
 42
-0.4142135623730371
 70
               2
 50
290312032300264.12
  0
VERTEX
  5
90
100
AcDbEntity
  8
IMPORTED
  6
STYLE_05
 62
              30
100
AcDbVertex
100
AcDb2dVertex
 10
-2087.699983393351
 20
-1505.3999253850961
 30
0.0
  0
VERTEX
  5
91
100
AcDbEntity
  8
IMPORTED
  6
STYLE_05
 62
              30
100
AcDbVertex
100
AcDb2dVertex
 10
-2087.699983393351
 20
-1459.999925385096
 30
0.0
  0
VERTEX
  5
92
100
AcDbEntity
  8
IMPORTED
  6
STYLE_05
 62
              30
100
AcDbVertex
100
AcDb2dVertex
 10
-2087.699983393351
 20
-1414.599925385096
 30
0.0
  0
VERTEX
  5
93
100
AcDbEntity
  8
IMPORTED
  6
STYLE_05
 62
              30
100
AcDbVertex
100
AcDb2dVertex
 10
-2087.699983393351
 20
-1414.599925385096
 30
0.0
 42
-0.414213562373124
 70
               2
  0
VERTEX
  5
94
100
AcDbEntity
  8
IMPORTED
  6
STYLE_05
 62
              30
100
AcDbVertex
100
AcDb2dVertex
 10
-2085.3999833933512
 20
-1412.299925385096
 30
0.0
  0
VERTEX
  5
95
100
AcDbEntity
  8
IMPORTED
  6
STYLE_05
 62
              30
100
AcDbVertex
100
AcDb2dVertex
 10
-2039.9999833933507
 20
-1412.299925385096
 30
0.0
  0
SEQEND
  5
96
100
AcDbEntity
  8
IMPORTED
  6
STYLE_05
 62
              30
  0
POLYLINE
  5
97
100
AcDbEntity
  8
IMPORTED
  6
CONTINUOUS
 62
              30
100
AcDb2dPolyline
 66
               1
 10
0.0
 20
0.0
 30
0.0
 70
               1
 75
               5
  0
VERTEX
  5
98
100
AcDbEntity
  8
IMPORTED
  6
CONTINUOUS
 62
              30
100
AcDbVertex
100
AcDb2dVertex
 10
-2099.9999833933507
 20
-1404.999925385096
 30
0.0
  0
VERTEX
  5
99
100
AcDbEntity
  8
IMPORTED
  6
CONTINUOUS
 62
              30
100
AcDbVertex
100
AcDb2dVertex
 10
-2094.9999833933507
 20
-1399.999925385096
 30
0.0
  0
VERTEX
  5
9A
100
AcDbEntity
  8
IMPORTED
  6
CONTINUOUS
 62
              30
100
AcDbVertex
100
AcDb2dVertex
 10
-1984.9999833933507
 20
-1399.999925385096
 30
0.0
  0
VERTEX
  5
9B
100
AcDbEntity
  8
IMPORTED
  6
CONTINUOUS
 62
              30
100
AcDbVertex
100
AcDb2dVertex
 10
-1979.9999833933507
 20
-1404.999925385096
 30
0.0
  0
VERTEX
  5
9C
100
AcDbEntity
  8
IMPORTED
  6
CONTINUOUS
 62
              30
100
AcDbVertex
100
AcDb2dVertex
 10
-1979.9999833933507
 20
-1514.999925385096
 30
0.0
  0
VERTEX
  5
9D
100
AcDbEntity
  8
IMPORTED
  6
CONTINUOUS
 62
              30
100
AcDbVertex
100
AcDb2dVertex
 10
-1984.9999833933507
 20
-1519.999925385096
 30
0.0
  0
VERTEX
  5
9E
100
AcDbEntity
  8
IMPORTED
  6
CONTINUOUS
 62
              30
100
AcDbVertex
100
AcDb2dVertex
 10
-2094.9999833933507
 20
-1519.999925385096
 30
0.0
  0
VERTEX
  5
9F
100
AcDbEntity
  8
IMPORTED
  6
CONTINUOUS
 62
              30
100
AcDbVertex
100
AcDb2dVertex
 10
-2099.9999833933507
 20
-1514.999925385096
 30
0.0
  0
SEQEND
  5
A0
100
AcDbEntity
  8
IMPORTED
  6
CONTINUOUS
 62
              30
  0
POLYLINE
  5
A2
100
AcDbEntity
  8
IMPORTED
  6
CONTINUOUS
 62
              30
100
AcDb2dPolyline
 66
               1
 10
0.0
 20
0.0
 30
0.0
 70
             128
  0
VERTEX
  5
A3
100
AcDbEntity
  8
IMPORTED
  6
CONTINUOUS
 62
              30
100
AcDbVertex
100
AcDb2dVertex
 10
-2101.4999833933507
 20
-1485.7499253850958
 30
0.0
  0
VERTEX
  5
A4
100
AcDbEntity
  8
IMPORTED
  6
CONTINUOUS
 62
              30
100
AcDbVertex
100
AcDb2dVertex
 10
-2099.9999833933507
 20
-1485.7499253850958
 30
0.0
  0
VERTEX
  5
A5
100
AcDbEntity
  8
IMPORTED
  6
CONTINUOUS
 62
              30
100
AcDbVertex
100
AcDb2dVertex
 10
-2099.9999833933507
 20
-1434.2499253850958
 30
0.0
  0
VERTEX
  5
A6
100
AcDbEntity
  8
IMPORTED
  6
CONTINUOUS
 62
              30
100
AcDbVertex
100
AcDb2dVertex
 10
-2163.9999833933507
 20
-1434.2499253850958
 30
0.0
  0
VERTEX
  5
A7
100
AcDbEntity
  8
IMPORTED
  6
CONTINUOUS
 62
              30
100
AcDbVertex
100
AcDb2dVertex
 10
-2163.9999833933507
 20
-1435.7499253850958
 30
0.0
  0
VERTEX
  5
A8
100
AcDbEntity
  8
IMPORTED
  6
CONTINUOUS
 62
              30
100
AcDbVertex
100
AcDb2dVertex
 10
-2101.4999833933507
 20
-1435.7499253850958
 30
0.0
  0
VERTEX
  5
A9
100
AcDbEntity
  8
IMPORTED
  6
CONTINUOUS
 62
              30
100
AcDbVertex
100
AcDb2dVertex
 10
-2101.4999833933507
 20
-1485.7499253850958
 30
0.0
  0
SEQEND
  5
AA
100
AcDbEntity
  8
IMPORTED
  6
CONTINUOUS
 62
              30
  0
POLYLINE
  5
AB
100
AcDbEntity
  8
IMPORTED
  6
CONTINUOUS
 62
              30
100
AcDb2dPolyline
 66
               1
 10
0.0
 20
0.0
 30
0.0
 70
             129
  0
VERTEX
  5
AC
100
AcDbEntity
  8
IMPORTED
  6
CONTINUOUS
 62
              30
100
AcDbVertex
100
AcDb2dVertex
 10
-2101.4999833933507
 20
-1485.7499253850958
 30
0.0
  0
VERTEX
  5
AD
100
AcDbEntity
  8
IMPORTED
  6
CONTINUOUS
 62
              30
100
AcDbVertex
100
AcDb2dVertex
 10
-2106.4999833933507
 20
-1485.7499253850958
 30
0.0
  0
VERTEX
  5
AE
100
AcDbEntity
  8
IMPORTED
  6
CONTINUOUS
 62
              30
100
AcDbVertex
100
AcDb2dVertex
 10
-2106.4999833933507
 20
-1435.7499253850958
 30
0.0
  0
VERTEX
  5
AF
100
AcDbEntity
  8
IMPORTED
  6
CONTINUOUS
 62
              30
100
AcDbVertex
100
AcDb2dVertex
 10
-2101.4999833933507
 20
-1435.7499253850958
 30
0.0
  0
SEQEND
  5
B0
100
AcDbEntity
  8
IMPORTED
  6
CONTINUOUS
 62
              30
  0
LINE
  5
B1
100
AcDbEntity
  8
IMPORTED
  6
CONTINUOUS
 62
              30
100
AcDbLine
 10
-2133.2582833933511
 20
-1426.7499253850958
 30
0.0
 11
-2133.2582833933511
 21
-1432.2499253850958
 31
0.0
  0
LINE
  5
B2
100
AcDbEntity
  8
IMPORTED
  6
CONTINUOUS
 62
              30
100
AcDbLine
 10
-2140.741583393351
 20
-1426.7499253850958
 30
0.0
 11
-2140.741583393351
 21
-1432.2499253850958
 31
0.0
  0
POLYLINE
  5
B3
100
AcDbEntity
  8
IMPORTED
  6
STYLE_05
 62
              30
100
AcDb2dPolyline
 66
               1
 10
0.0
 20
0.0
 30
0.0
 70
             129
  0
VERTEX
  5
B4
100
AcDbEntity
  8
IMPORTED
  6
STYLE_05
 62
              30
100
AcDbVertex
100
AcDb2dVertex
 10
-2140.9999833933507
 20
-1432.2499253850958
 30
0.0
  0
VERTEX
  5
B5
100
AcDbEntity
  8
IMPORTED
  6
STYLE_05
 62
              30
100
AcDbVertex
100
AcDb2dVertex
 10
-2140.9999833933507
 20
-1485.7499253850958
 30
0.0
  0
VERTEX
  5
B6
100
AcDbEntity
  8
IMPORTED
  6
STYLE_05
 62
              30
100
AcDbVertex
100
AcDb2dVertex
 10
-2132.9999833933507
 20
-1485.7499253850958
 30
0.0
  0
VERTEX
  5
B7
100
AcDbEntity
  8
IMPORTED
  6
STYLE_05
 62
              30
100
AcDbVertex
100
AcDb2dVertex
 10
-2132.9999833933507
 20
-1432.2499253850958
 30
0.0
  0
SEQEND
  5
B8
100
AcDbEntity
  8
IMPORTED
  6
STYLE_05
 62
              30
  0
POLYLINE
  5
B9
100
AcDbEntity
  8
IMPORTED
  6
CONTINUOUS
 62
              30
100
AcDb2dPolyline
 66
               1
 10
0.0
 20
0.0
 30
0.0
 70
             129
  0
VERTEX
  5
BA
100
AcDbEntity
  8
IMPORTED
  6
CONTINUOUS
 62
              30
100
AcDbVertex
100
AcDb2dVertex
 10
-2146.9999833933507
 20
-1432.2499253850958
 30
0.0
  0
VERTEX
  5
BB
100
AcDbEntity
  8
IMPORTED
  6
CONTINUOUS
 62
              30
100
AcDbVertex
100
AcDb2dVertex
 10
-2146.9999833933507
 20
-1434.2499253850958
 30
0.0
  0
VERTEX
  5
BC
100
AcDbEntity
  8
IMPORTED
  6
CONTINUOUS
 62
              30
100
AcDbVertex
100
AcDb2dVertex
 10
-2126.9999833933507
 20
-1434.2499253850958
 30
0.0
  0
VERTEX
  5
BD
100
AcDbEntity
  8
IMPORTED
  6
CONTINUOUS
 62
              30
100
AcDbVertex
100
AcDb2dVertex
 10
-2126.9999833933507
 20
-1432.2499253850958
 30
0.0
  0
SEQEND
  5
BE
100
AcDbEntity
  8
IMPORTED
  6
CONTINUOUS
 62
              30
  0
POLYLINE
  5
BF
100
AcDbEntity
  8
IMPORTED
  6
CONTINUOUS
 62
              30
100
AcDb2dPolyline
 66
               1
 10
0.0
 20
0.0
 30
0.0
 70
             128
  0
VERTEX
  5
C0
100
AcDbEntity
  8
IMPORTED
  6
CONTINUOUS
 62
              30
100
AcDbVertex
100
AcDb2dVertex
 10
-2143.199983393351
 20
-1426.7499253850958
 30
0.0
  0
VERTEX
  5
C1
100
AcDbEntity
  8
IMPORTED
  6
CONTINUOUS
 62
              30
100
AcDbVertex
100
AcDb2dVertex
 10
-2144.4999833933507
 20
-1427.5005253850959
 30
0.0
  0
VERTEX
  5
C2
100
AcDbEntity
  8
IMPORTED
  6
CONTINUOUS
 62
              30
100
AcDbVertex
100
AcDb2dVertex
 10
-2144.4999833933507
 20
-1432.2499253850958
 30
0.0
  0
VERTEX
  5
C3
100
AcDbEntity
  8
IMPORTED
  6
CONTINUOUS
 62
              30
100
AcDbVertex
100
AcDb2dVertex
 10
-2129.4999833933507
 20
-1432.2499253850958
 30
0.0
  0
VERTEX
  5
C4
100
AcDbEntity
  8
IMPORTED
  6
CONTINUOUS
 62
              30
100
AcDbVertex
100
AcDb2dVertex
 10
-2129.4999833933507
 20
-1427.5005253850959
 30
0.0
  0
VERTEX
  5
C5
100
AcDbEntity
  8
IMPORTED
  6
CONTINUOUS
 62
              30
100
AcDbVertex
100
AcDb2dVertex
 10
-2130.7999833933509
 20
-1426.7499253850958
 30
0.0
  0
VERTEX
  5
C6
100
AcDbEntity
  8
IMPORTED
  6
CONTINUOUS
 62
              30
100
AcDbVertex
100
AcDb2dVertex
 10
-2143.199983393351
 20
-1426.7499253850958
 30
0.0
  0
SEQEND
  5
C7
100
AcDbEntity
  8
IMPORTED
  6
CONTINUOUS
 62
              30
  0
POLYLINE
  5
C8
100
AcDbEntity
  8
IMPORTED
  6
CONTINUOUS
 62
              30
100
AcDb2dPolyline
 66
               1
 10
0.0
 20
0.0
 30
0.0
 70
               1
 75
               5
  0
VERTEX
  5
C9
100
AcDbEntity
  8
IMPORTED
  6
CONTINUOUS
 62
              30
100
AcDbVertex
100
AcDb2dVertex
 10
-2152.9999833933507
 20
-1485.7499253850958
 30
0.0
  0
VERTEX
  5
CA
100
AcDbEntity
  8
IMPORTED
  6
CONTINUOUS
 62
              30
100
AcDbVertex
100
AcDb2dVertex
 10
-2120.9999833933507
 20
-1485.7499253850958
 30
0.0
  0
VERTEX
  5
CB
100
AcDbEntity
  8
IMPORTED
  6
CONTINUOUS
 62
              30
100
AcDbVertex
100
AcDb2dVertex
 10
-2120.9999833933507
 20
-1487.2499253850958
 30
0.0
  0
VERTEX
  5
CC
100
AcDbEntity
  8
IMPORTED
  6
CONTINUOUS
 62
              30
100
AcDbVertex
100
AcDb2dVertex
 10
-2152.9999833933507
 20
-1487.2499253850958
 30
0.0
  0
SEQEND
  5
CD
100
AcDbEntity
  8
IMPORTED
  6
CONTINUOUS
 62
              30
  0
POLYLINE
  5
CF
100
AcDbEntity
  8
IMPORTED
  6
CONTINUOUS
 62
              30
100
AcDb2dPolyline
 66
               1
 10
0.0
 20
0.0
 30
0.0
 70
               1
 75
               5
  0
VERTEX
  5
D0
100
AcDbEntity
  8
IMPORTED
  6
CONTINUOUS
 62
              30
100
AcDbVertex
100
AcDb2dVertex
 10
-2144.9999833933507
 20
-1487.2499253850958
 30
0.0
  0
VERTEX
  5
D1
100
AcDbEntity
  8
IMPORTED
  6
CONTINUOUS
 62
              30
100
AcDbVertex
100
AcDb2dVertex
 10
-2128.9999833933507
 20
-1487.2499253850958
 30
0.0
  0
VERTEX
  5
D2
100
AcDbEntity
  8
IMPORTED
  6
CONTINUOUS
 62
              30
100
AcDbVertex
100
AcDb2dVertex
 10
-2128.9999833933507
 20
-1492.2499253850958
 30
0.0
  0
VERTEX
  5
D3
100
AcDbEntity
  8
IMPORTED
  6
CONTINUOUS
 62
              30
100
AcDbVertex
100
AcDb2dVertex
 10
-2144.9999833933507
 20
-1492.2499253850958
 30
0.0
  0
SEQEND
  5
D4
100
AcDbEntity
  8
IMPORTED
  6
CONTINUOUS
 62
              30
  0
SPLINE
  5
D6
100
AcDbEntity
  8
IMPORTED
  6
CONTINUOUS
 62
              30
100
AcDbSpline
210
0.0
220
0.0
230
1.0
 70
               8
 71
               2
 72
               8
 73
               5
 74
               0
 42
0.000001
 43
0.000001
 40
0.0
 40
0.0
 40
0.0
 40
1.0
 40
1.0
 40
2.0
 40
2.0
 40
2.0
 10
-2144.9999833933507
 20
-1491.535425385096
 30
0.0
 10
-2140.9999833933507
 20
-1492.9614850558776
 30
0.0
 10
-2136.9999833933507
 20
-1491.535425385096
 30
0.0
 10
-2132.9999833933507
 20
-1492.9614850558776
 30
0.0
 10
-2128.9999833933507
 20
-1491.535425385096
 30
0.0
  0
SPLINE
  5
D7
100
AcDbEntity
  8
IMPORTED
  6
CONTINUOUS
 62
              30
100
AcDbSpline
210
0.0
220
0.0
230
1.0
 70
               8
 71
               2
 72
               8
 73
               5
 74
               0
 42
0.000001
 43
0.000001
 40
0.0
 40
0.0
 40
0.0
 40
1.0
 40
1.0
 40
2.0
 40
2.0
 40
2.0
 10
-2144.9999833933507
 20
-1487.9645253850958
 30
0.0
 10
-2140.9999833933507
 20
-1486.5384657143143
 30
0.0
 10
-2136.9999833933507
 20
-1487.9645253850958
 30
0.0
 10
-2132.9999833933507
 20
-1486.5384657143143
 30
0.0
 10
-2128.9999833933507
 20
-1487.9645253850958
 30
0.0
  0
LINE
  5
D8
100
AcDbEntity
  8
IMPORTED
  6
CONTINUOUS
 62
              30
100
AcDbLine
 10
-2136.9999833933507
 20
-1491.535425385096
 30
0.0
 11
-2136.9999833933507
 21
-1487.9645253850958
 31
0.0
  0
POLYLINE
  5
D9
100
AcDbEntity
  8
IMPORTED
  6
CONTINUOUS
 62
              30
100
AcDb2dPolyline
 66
               1
 10
0.0
 20
0.0
 30
0.0
 70
             129
  0
VERTEX
  5
DA
100
AcDbEntity
  8
IMPORTED
  6
CONTINUOUS
 62
              30
100
AcDbVertex
100
AcDb2dVertex
 10
-2136.9999833933507
 20
-1498.2605253850959
 30
0.0
 42
-0.4142135623731172
 70
               2
 50
-760784192913608.87
  0
VERTEX
  5
DB
100
AcDbEntity
  8
IMPORTED
  6
CONTINUOUS
 62
              30
100
AcDbVertex
100
AcDb2dVertex
 10
-2143.0105833933512
 20
-1492.2499253850958
 30
0.0
  0
VERTEX
  5
DC
100
AcDbEntity
  8
IMPORTED
  6
CONTINUOUS
 62
              30
100
AcDbVertex
100
AcDb2dVertex
 10
-2130.9893833933511
 20
-1492.2499253850958
 30
0.0
  0
VERTEX
  5
DD
100
AcDbEntity
  8
IMPORTED
  6
CONTINUOUS
 62
              30
100
AcDbVertex
100
AcDb2dVertex
 10
-2130.9893833933511
 20
-1492.2499253850958
 30
0.0
 42
-0.4142135623731172
 70
               2
  0
VERTEX
  5
DE
100
AcDbEntity
  8
IMPORTED
  6
CONTINUOUS
 62
              30
100
AcDbVertex
100
AcDb2dVertex
 10
-2136.9999833933507
 20
-1498.2605253850959
 30
0.0
  0
SEQEND
  5
DF
100
AcDbEntity
  8
IMPORTED
  6
CONTINUOUS
 62
              30
  0
POLYLINE
  5
E0
100
AcDbEntity
  8
IMPORTED
  6
CONTINUOUS
 62
              30
100
AcDb2dPolyline
 66
               1
 10
0.0
 20
0.0
 30
0.0
 70
             128
  0
VERTEX
  5
E1
100
AcDbEntity
  8
IMPORTED
  6
CONTINUOUS
 62
              30
100
AcDbVertex
100
AcDb2dVertex
 10
-1978.4999833933507
 20
-1485.7499253850958
 30
0.0
  0
VERTEX
  5
E2
100
AcDbEntity
  8
IMPORTED
  6
CONTINUOUS
 62
              30
100
AcDbVertex
100
AcDb2dVertex
 10
-1979.9999833933507
 20
-1485.7499253850958
 30
0.0
  0
VERTEX
  5
E3
100
AcDbEntity
  8
IMPORTED
  6
CONTINUOUS
 62
              30
100
AcDbVertex
100
AcDb2dVertex
 10
-1979.9999833933507
 20
-1434.2499253850958
 30
0.0
  0
VERTEX
  5
E4
100
AcDbEntity
  8
IMPORTED
  6
CONTINUOUS
 62
              30
100
AcDbVertex
100
AcDb2dVertex
 10
-1915.9999833933507
 20
-1434.2499253850958
 30
0.0
  0
VERTEX
  5
E5
100
AcDbEntity
  8
IMPORTED
  6
CONTINUOUS
 62
              30
100
AcDbVertex
100
AcDb2dVertex
 10
-1915.9999833933507
 20
-1435.7499253850958
 30
0.0
  0
VERTEX
  5
E6
100
AcDbEntity
  8
IMPORTED
  6
CONTINUOUS
 62
              30
100
AcDbVertex
100
AcDb2dVertex
 10
-1978.4999833933507
 20
-1435.7499253850958
 30
0.0
  0
VERTEX
  5
E7
100
AcDbEntity
  8
IMPORTED
  6
CONTINUOUS
 62
              30
100
AcDbVertex
100
AcDb2dVertex
 10
-1978.4999833933507
 20
-1485.7499253850958
 30
0.0
  0
SEQEND
  5
E8
100
AcDbEntity
  8
IMPORTED
  6
CONTINUOUS
 62
              30
  0
POLYLINE
  5
E9
100
AcDbEntity
  8
IMPORTED
  6
CONTINUOUS
 62
              30
100
AcDb2dPolyline
 66
               1
 10
0.0
 20
0.0
 30
0.0
 70
             129
  0
VERTEX
  5
EA
100
AcDbEntity
  8
IMPORTED
  6
CONTINUOUS
 62
              30
100
AcDbVertex
100
AcDb2dVertex
 10
-1978.4999833933507
 20
-1485.7499253850958
 30
0.0
  0
VERTEX
  5
EB
100
AcDbEntity
  8
IMPORTED
  6
CONTINUOUS
 62
              30
100
AcDbVertex
100
AcDb2dVertex
 10
-1973.4999833933507
 20
-1485.7499253850958
 30
0.0
  0
VERTEX
  5
EC
100
AcDbEntity
  8
IMPORTED
  6
CONTINUOUS
 62
              30
100
AcDbVertex
100
AcDb2dVertex
 10
-1973.4999833933507
 20
-1435.7499253850958
 30
0.0
  0
VERTEX
  5
ED
100
AcDbEntity
  8
IMPORTED
  6
CONTINUOUS
 62
              30
100
AcDbVertex
100
AcDb2dVertex
 10
-1978.4999833933507
 20
-1435.7499253850958
 30
0.0
  0
SEQEND
  5
EE
100
AcDbEntity
  8
IMPORTED
  6
CONTINUOUS
 62
              30
  0
LINE
  5
EF
100
AcDbEntity
  8
IMPORTED
  6
CONTINUOUS
 62
              30
100
AcDbLine
 10
-1946.7416833933507
 20
-1426.7499253850958
 30
0.0
 11
-1946.7416833933507
 21
-1432.2499253850958
 31
0.0
  0
LINE
  5
F0
100
AcDbEntity
  8
IMPORTED
  6
CONTINUOUS
 62
              30
100
AcDbLine
 10
-1939.2583833933509
 20
-1426.7499253850958
 30
0.0
 11
-1939.2583833933509
 21
-1432.2499253850958
 31
0.0
  0
POLYLINE
  5
F1
100
AcDbEntity
  8
IMPORTED
  6
STYLE_05
 62
              30
100
AcDb2dPolyline
 66
               1
 10
0.0
 20
0.0
 30
0.0
 70
             129
  0
VERTEX
  5
F2
100
AcDbEntity
  8
IMPORTED
  6
STYLE_05
 62
              30
100
AcDbVertex
100
AcDb2dVertex
 10
-1938.9999833933507
 20
-1432.2499253850958
 30
0.0
  0
VERTEX
  5
F3
100
AcDbEntity
  8
IMPORTED
  6
STYLE_05
 62
              30
100
AcDbVertex
100
AcDb2dVertex
 10
-1938.9999833933507
 20
-1485.7499253850958
 30
0.0
  0
VERTEX
  5
F4
100
AcDbEntity
  8
IMPORTED
  6
STYLE_05
 62
              30
100
AcDbVertex
100
AcDb2dVertex
 10
-1946.9999833933507
 20
-1485.7499253850958
 30
0.0
  0
VERTEX
  5
F5
100
AcDbEntity
  8
IMPORTED
  6
STYLE_05
 62
              30
100
AcDbVertex
100
AcDb2dVertex
 10
-1946.9999833933507
 20
-1432.2499253850958
 30
0.0
  0
SEQEND
  5
F6
100
AcDbEntity
  8
IMPORTED
  6
STYLE_05
 62
              30
  0
POLYLINE
  5
F7
100
AcDbEntity
  8
IMPORTED
  6
CONTINUOUS
 62
              30
100
AcDb2dPolyline
 66
               1
 10
0.0
 20
0.0
 30
0.0
 70
             129
  0
VERTEX
  5
F8
100
AcDbEntity
  8
IMPORTED
  6
CONTINUOUS
 62
              30
100
AcDbVertex
100
AcDb2dVertex
 10
-1932.9999833933507
 20
-1432.2499253850958
 30
0.0
  0
VERTEX
  5
F9
100
AcDbEntity
  8
IMPORTED
  6
CONTINUOUS
 62
              30
100
AcDbVertex
100
AcDb2dVertex
 10
-1932.9999833933507
 20
-1434.2499253850958
 30
0.0
  0
VERTEX
  5
FA
100
AcDbEntity
  8
IMPORTED
  6
CONTINUOUS
 62
              30
100
AcDbVertex
100
AcDb2dVertex
 10
-1952.9999833933507
 20
-1434.2499253850958
 30
0.0
  0
VERTEX
  5
FB
100
AcDbEntity
  8
IMPORTED
  6
CONTINUOUS
 62
              30
100
AcDbVertex
100
AcDb2dVertex
 10
-1952.9999833933507
 20
-1432.2499253850958
 30
0.0
  0
SEQEND
  5
FC
100
AcDbEntity
  8
IMPORTED
  6
CONTINUOUS
 62
              30
  0
POLYLINE
  5
FD
100
AcDbEntity
  8
IMPORTED
  6
CONTINUOUS
 62
              30
100
AcDb2dPolyline
 66
               1
 10
0.0
 20
0.0
 30
0.0
 70
             128
  0
VERTEX
  5
FE
100
AcDbEntity
  8
IMPORTED
  6
CONTINUOUS
 62
              30
100
AcDbVertex
100
AcDb2dVertex
 10
-1936.7999833933509
 20
-1426.7499253850958
 30
0.0
  0
VERTEX
  5
FF
100
AcDbEntity
  8
IMPORTED
  6
CONTINUOUS
 62
              30
100
AcDbVertex
100
AcDb2dVertex
 10
-1935.4999833933507
 20
-1427.5005253850959
 30
0.0
  0
VERTEX
  5
100
100
AcDbEntity
  8
IMPORTED
  6
CONTINUOUS
 62
              30
100
AcDbVertex
100
AcDb2dVertex
 10
-1935.4999833933507
 20
-1432.2499253850958
 30
0.0
  0
VERTEX
  5
101
100
AcDbEntity
  8
IMPORTED
  6
CONTINUOUS
 62
              30
100
AcDbVertex
100
AcDb2dVertex
 10
-1950.4999833933507
 20
-1432.2499253850958
 30
0.0
  0
VERTEX
  5
102
100
AcDbEntity
  8
IMPORTED
  6
CONTINUOUS
 62
              30
100
AcDbVertex
100
AcDb2dVertex
 10
-1950.4999833933507
 20
-1427.5005253850959
 30
0.0
  0
VERTEX
  5
103
100
AcDbEntity
  8
IMPORTED
  6
CONTINUOUS
 62
              30
100
AcDbVertex
100
AcDb2dVertex
 10
-1949.1999833933505
 20
-1426.7499253850958
 30
0.0
  0
VERTEX
  5
104
100
AcDbEntity
  8
IMPORTED
  6
CONTINUOUS
 62
              30
100
AcDbVertex
100
AcDb2dVertex
 10
-1936.7999833933509
 20
-1426.7499253850958
 30
0.0
  0
SEQEND
  5
105
100
AcDbEntity
  8
IMPORTED
  6
CONTINUOUS
 62
              30
  0
POLYLINE
  5
106
100
AcDbEntity
  8
IMPORTED
  6
CONTINUOUS
 62
              30
100
AcDb2dPolyline
 66
               1
 10
0.0
 20
0.0
 30
0.0
 70
               1
 75
               5
  0
VERTEX
  5
107
100
AcDbEntity
  8
IMPORTED
  6
CONTINUOUS
 62
              30
100
AcDbVertex
100
AcDb2dVertex
 10
-1958.9999833933507
 20
-1485.7499253850958
 30
0.0
  0
VERTEX
  5
108
100
AcDbEntity
  8
IMPORTED
  6
CONTINUOUS
 62
              30
100
AcDbVertex
100
AcDb2dVertex
 10
-1926.9999833933507
 20
-1485.7499253850958
 30
0.0
  0
VERTEX
  5
109
100
AcDbEntity
  8
IMPORTED
  6
CONTINUOUS
 62
              30
100
AcDbVertex
100
AcDb2dVertex
 10
-1926.9999833933507
 20
-1487.2499253850958
 30
0.0
  0
VERTEX
  5
10A
100
AcDbEntity
  8
IMPORTED
  6
CONTINUOUS
 62
              30
100
AcDbVertex
100
AcDb2dVertex
 10
-1958.9999833933507
 20
-1487.2499253850958
 30
0.0
  0
SEQEND
  5
10B
100
AcDbEntity
  8
IMPORTED
  6
CONTINUOUS
 62
              30
  0
POLYLINE
  5
10D
100
AcDbEntity
  8
IMPORTED
  6
CONTINUOUS
 62
              30
100
AcDb2dPolyline
 66
               1
 10
0.0
 20
0.0
 30
0.0
 70
               1
 75
               5
  0
VERTEX
  5
10E
100
AcDbEntity
  8
IMPORTED
  6
CONTINUOUS
 62
              30
100
AcDbVertex
100
AcDb2dVertex
 10
-1950.9999833933507
 20
-1487.2499253850958
 30
0.0
  0
VERTEX
  5
10F
100
AcDbEntity
  8
IMPORTED
  6
CONTINUOUS
 62
              30
100
AcDbVertex
100
AcDb2dVertex
 10
-1934.9999833933507
 20
-1487.2499253850958
 30
0.0
  0
VERTEX
  5
110
100
AcDbEntity
  8
IMPORTED
  6
CONTINUOUS
 62
              30
100
AcDbVertex
100
AcDb2dVertex
 10
-1934.9999833933507
 20
-1492.2499253850958
 30
0.0
  0
VERTEX
  5
111
100
AcDbEntity
  8
IMPORTED
  6
CONTINUOUS
 62
              30
100
AcDbVertex
100
AcDb2dVertex
 10
-1950.9999833933507
 20
-1492.2499253850958
 30
0.0
  0
SEQEND
  5
112
100
AcDbEntity
  8
IMPORTED
  6
CONTINUOUS
 62
              30
  0
SPLINE
  5
114
100
AcDbEntity
  8
IMPORTED
  6
CONTINUOUS
 62
              30
100
AcDbSpline
210
0.0
220
0.0
230
1.0
 70
               8
 71
               2
 72
               8
 73
               5
 74
               0
 42
0.000001
 43
0.000001
 40
0.0
 40
0.0
 40
0.0
 40
1.0
 40
1.0
 40
2.0
 40
2.0
 40
2.0
 10
-1934.9999833933507
 20
-1491.535425385096
 30
0.0
 10
-1938.9999833933507
 20
-1492.9614850558776
 30
0.0
 10
-1942.9999833933507
 20
-1491.535425385096
 30
0.0
 10
-1946.9999833933507
 20
-1492.9614850558776
 30
0.0
 10
-1950.9999833933507
 20
-1491.535425385096
 30
0.0
  0
SPLINE
  5
115
100
AcDbEntity
  8
IMPORTED
  6
CONTINUOUS
 62
              30
100
AcDbSpline
210
0.0
220
0.0
230
1.0
 70
               8
 71
               2
 72
               8
 73
               5
 74
               0
 42
0.000001
 43
0.000001
 40
0.0
 40
0.0
 40
0.0
 40
1.0
 40
1.0
 40
2.0
 40
2.0
 40
2.0
 10
-1934.9999833933507
 20
-1487.9645253850958
 30
0.0
 10
-1938.9999833933507
 20
-1486.5384657143143
 30
0.0
 10
-1942.9999833933507
 20
-1487.9645253850958
 30
0.0
 10
-1946.9999833933507
 20
-1486.5384657143143
 30
0.0
 10
-1950.9999833933507
 20
-1487.9645253850958
 30
0.0
  0
LINE
  5
116
100
AcDbEntity
  8
IMPORTED
  6
CONTINUOUS
 62
              30
100
AcDbLine
 10
-1942.9999833933507
 20
-1491.535425385096
 30
0.0
 11
-1942.9999833933507
 21
-1487.9645253850958
 31
0.0
  0
POLYLINE
  5
117
100
AcDbEntity
  8
IMPORTED
  6
CONTINUOUS
 62
              30
100
AcDb2dPolyline
 66
               1
 10
0.0
 20
0.0
 30
0.0
 70
             129
  0
VERTEX
  5
118
100
AcDbEntity
  8
IMPORTED
  6
CONTINUOUS
 62
              30
100
AcDbVertex
100
AcDb2dVertex
 10
-1942.9999833933507
 20
-1498.2605253850959
 30
0.0
 42
0.4142135623731172
 70
               2
 50
3.1191399769264294E+17
  0
VERTEX
  5
119
100
AcDbEntity
  8
IMPORTED
  6
CONTINUOUS
 62
              30
100
AcDbVertex
100
AcDb2dVertex
 10
-1936.9893833933511
 20
-1492.2499253850958
 30
0.0
  0
VERTEX
  5
11A
100
AcDbEntity
  8
IMPORTED
  6
CONTINUOUS
 62
              30
100
AcDbVertex
100
AcDb2dVertex
 10
-1949.0105833933512
 20
-1492.2499253850958
 30
0.0
  0
VERTEX
  5
11B
100
AcDbEntity
  8
IMPORTED
  6
CONTINUOUS
 62
              30
100
AcDbVertex
100
AcDb2dVertex
 10
-1949.0105833933512
 20
-1492.2499253850958
 30
0.0
 42
0.4142135623731172
 70
               2
  0
VERTEX
  5
11C
100
AcDbEntity
  8
IMPORTED
  6
CONTINUOUS
 62
              30
100
AcDbVertex
100
AcDb2dVertex
 10
-1942.9999833933507
 20
-1498.2605253850959
 30
0.0
  0
SEQEND
  5
11D
100
AcDbEntity
  8
IMPORTED
  6
CONTINUOUS
 62
              30
  0
POLYLINE
  5
11E
100
AcDbEntity
  8
IMPORTED
  6
CONTINUOUS
 62
               1
100
AcDb2dPolyline
 66
               1
 10
0.0
 20
0.0
 30
0.0
 70
             128
  0
VERTEX
  5
11F
100
AcDbEntity
  8
IMPORTED
  6
CONTINUOUS
 62
               1
100
AcDbVertex
100
AcDb2dVertex
 10
-1894.9999833933507
 20
241.99997461490392
 30
0.0
  0
VERTEX
  5
120
100
AcDbEntity
  8
IMPORTED
  6
CONTINUOUS
 62
               1
100
AcDbVertex
100
AcDb2dVertex
 10
-1719.9999833933507
 20
66.999974614903934
 30
0.0
  0
VERTEX
  5
121
100
AcDbEntity
  8
IMPORTED
  6
CONTINUOUS
 62
               1
100
AcDbVertex
100
AcDb2dVertex
 10
-1379.9999833933507
 20
66.999974614903934
 30
0.0
  0
SEQEND
  5
122
100
AcDbEntity
  8
IMPORTED
  6
CONTINUOUS
 62
               1
  0
MTEXT
  5
123
100
AcDbEntity
  8
IMPORTED
 62
               1
100
AcDbMText
 10
-1716.6770576742351
 20
118.58716899243308
 30
0.0
 40
32.576797265624997
 41
0.0
 71
               1
 72
               1
  1
基礎コンクリート
  7
_______
  0
POLYLINE
  5
124
100
AcDbEntity
  8
IMPORTED
  6
CONTINUOUS
 62
               1
100
AcDb2dPolyline
 66
               1
 10
0.0
 20
0.0
 30
0.0
 70
             128
  0
VERTEX
  5
125
100
AcDbEntity
  8
IMPORTED
  6
CONTINUOUS
 62
               1
100
AcDbVertex
100
AcDb2dVertex
 10
-1894.9999833933507
 20
-73.822225385096061
 30
0.0
  0
VERTEX
  5
126
100
AcDbEntity
  8
IMPORTED
  6
CONTINUOUS
 62
               1
100
AcDbVertex
100
AcDb2dVertex
 10
-1719.9999833933507
 20
-248.82222538509603
 30
0.0
  0
VERTEX
  5
127
100
AcDbEntity
  8
IMPORTED
  6
CONTINUOUS
 62
               1
100
AcDbVertex
100
AcDb2dVertex
 10
-1379.9999833933507
 20
-248.82222538509603
 30
0.0
  0
SEQEND
  5
128
100
AcDbEntity
  8
IMPORTED
  6
CONTINUOUS
 62
               1
  0
MTEXT
  5
129
100
AcDbEntity
  8
IMPORTED
 62
               1
100
AcDbMText
 10
-1712.8744896552098
 20
-197.23513100756691
 30
0.0
 40
32.576797265624997
 41
0.0
 71
               1
 72
               1
  1
均しコンクリート
  7
_______
  0
MTEXT
  5
12A
100
AcDbEntity
  8
IMPORTED
 62
               1
100
AcDbMText
 10
-1708.0300545433056
 20
-283.37293100756688
 30
0.0
 40
32.576797265624997
 41
0.0
 71
               1
 72
               1
  1
再生クラッシャラン
  7
_______
  0
MTEXT
  5
12B
100
AcDbEntity
  8
IMPORTED
 62
               1
100
AcDbMText
 10
-1839.2706833933507
 20
1586.9338338805287
 30
0.0
 40
32.576797265624997
 41
0.0
 71
               1
 72
               1
  1
柱 ESW120×120C2H
  7
_______
  0
MTEXT
  5
12C
100
AcDbEntity
  8
IMPORTED
 62
               1
100
AcDbMText
 10
-695.39448339335092
 20
1518.6701338805287
 30
0.0
 40
32.576797265624997
 41
0.0
 71
               1
 72
               1
  1
横木 ESW95×50CH
  7
_______
  0
LINE
  5
12D
100
AcDbEntity
  8
IMPORTED
  6
CONTINUOUS
 62
               1
100
AcDbLine
 10
-1979.9999833933507
 20
1324.9999746149037
 30
0.0
 11
-1849.9999833933507
 21
1533.3235746149039
 31
0.0
  0
LINE
  5
12E
100
AcDbEntity
  8
IMPORTED
  6
CONTINUOUS
 62
               1
100
AcDbLine
 10
-1849.9999833933507
 20
1533.3236746149039
 30
0.0
 11
-1475.0
 21
1533.3236746149039
 31
0.0
  0
LINE
  5
12F
100
AcDbEntity
  8
IMPORTED
  6
CONTINUOUS
 62
               1
100
AcDbLine
 10
-789.99998339335082
 20
1286.9999746149037
 30
0.0
 11
-701.41138339335089
 21
1462.6283746149038
 31
0.0
  0
LINE
  5
130
100
AcDbEntity
  8
IMPORTED
  6
CONTINUOUS
 62
               1
100
AcDbLine
 10
-701.41138339335089
 20
1462.6283746149038
 30
0.0
 11
-355.0
 21
1462.6283746149038
 31
0.0
  0
POLYLINE
  5
131
100
AcDbEntity
  8
IMPORTED
  6
CONTINUOUS
 62
               1
100
AcDb2dPolyline
 66
               1
 10
0.0
 20
0.0
 30
0.0
 70
             128
  0
VERTEX
  5
132
100
AcDbEntity
  8
IMPORTED
  6
CONTINUOUS
 62
               1
100
AcDbVertex
100
AcDb2dVertex
 10
-1989.9957833933508
 20
392.3537746149039
 30
0.0
  0
VERTEX
  5
133
100
AcDbEntity
  8
IMPORTED
  6
CONTINUOUS
 62
               1
100
AcDbVertex
100
AcDb2dVertex
 10
-1814.9957833933508
 20
217.35377461490393
 30
0.0
  0
VERTEX
  5
134
100
AcDbEntity
  8
IMPORTED
  6
CONTINUOUS
 62
               1
100
AcDbVertex
100
AcDb2dVertex
 10
-1474.9957833933508
 20
217.35377461490393
 30
0.0
  0
SEQEND
  5
135
100
AcDbEntity
  8
IMPORTED
  6
CONTINUOUS
 62
               1
  0
MTEXT
  5
136
100
AcDbEntity
  8
IMPORTED
 62
               1
100
AcDbMText
 10
-1800.2651536171593
 20
268.94096899243306
 30
0.0
 40
32.576797265624997
 41
0.0
 71
               1
 72
               1
  1
樹脂発泡シート巻
  7
_______
  0
LINE
  5
137
100
AcDbEntity
  8
IMPORTED
  6
CONTINUOUS
 62
               1
100
AcDbLine
 10
-1894.9999833933507
 20
-159.96002538509603
 30
0.0
 11
-1719.9999833933507
 21
-334.960025385096
 31
0.0
  0
LINE
  5
138
100
AcDbEntity
  8
IMPORTED
  6
CONTINUOUS
 62
               1
100
AcDbLine
 10
-1719.9999833933507
 20
-334.960025385096
 30
0.0
 11
-1314.5807833933509
 21
-334.960025385096
 31
0.0
  0
LINE
  5
139
100
AcDbEntity
  8
IMPORTED
  6
CONTINUOUS
 62
               1
100
AcDbLine
 10
1564.9999166066489
 20
1341.9999743913863
 30
0.0
 11
1564.9999166066489
 21
1705.9999998509884
 31
0.0
  0
LINE
  5
13A
100
AcDbEntity
  8
IMPORTED
  6
CONTINUOUS
 62
               1
100
AcDbLine
 10
1614.9999166066489
 20
1341.9999743913863
 30
0.0
 11
1614.9999166066489
 21
1705.9999998509884
 31
0.0
  0
LINE
  5
13B
100
AcDbEntity
  8
IMPORTED
  6
CONTINUOUS
 62
               1
100
AcDbLine
 10
1524.9999167556605
 20
1666.0
 30
0.0
 11
1564.9999166066489
 21
1666.0
 31
0.0
  0
LINE
  5
13C
100
AcDbEntity
  8
IMPORTED
  6
CONTINUOUS
 62
               1
100
AcDbLine
 10
1614.9999166066489
 20
1666.0
 30
0.0
 11
1654.9999164576373
 21
1666.0
 31
0.0
  0
LINE
  5
13D
100
AcDbEntity
  8
IMPORTED
  6
CONTINUOUS
 62
               1
100
AcDbLine
 10
1564.9999166066489
 20
1666.0
 30
0.0
 11
1614.9999166066489
 21
1666.0
 31
0.0
  0
SOLID
  5
13E
100
AcDbEntity
  8
IMPORTED
 62
               1
100
AcDbTrace
 10
1564.9999166066489
 20
1666.0
 30
0.0
 11
1604.9974752003989
 21
1669.499332945667
 31
0.0
 12
1604.9974752003989
 22
1662.500667054333
 32
0.0
 13
1604.9974752003989
 23
1662.500667054333
 33
0.0
  0
SOLID
  5
13F
100
AcDbEntity
  8
IMPORTED
 62
               1
100
AcDbTrace
 10
1614.9999166066489
 20
1666.0
 30
0.0
 11
1575.0023580128989
 21
1662.500667054333
 31
0.0
 12
1575.0023580128989
 22
1669.499332945667
 32
0.0
 13
1575.0023580128989
 23
1669.499332945667
 33
0.0
  0
MTEXT
  5
140
100
AcDbEntity
  8
IMPORTED
 62
               1
100
AcDbMText
 10
1568.8332499399821
 20
1724.5034895088274
 30
0.0
 40
32.576822916666664
 41
0.0
 71
               1
 72
               1
  1
50
  7
_______
  0
LINE
  5
141
100
AcDbEntity
  8
IMPORTED
  6
CONTINUOUS
 62
               1
100
AcDbLine
 10
1529.9999166066489
 20
1441.8154743913865
 30
0.0
 11
1529.9999166066489
 21
1823.9999998509884
 31
0.0
  0
LINE
  5
142
100
AcDbEntity
  8
IMPORTED
  6
CONTINUOUS
 62
               1
100
AcDbLine
 10
1649.9999166066489
 20
1441.8154743913865
 30
0.0
 11
1649.9999166066489
 21
1823.9999998509884
 31
0.0
  0
LINE
  5
143
100
AcDbEntity
  8
IMPORTED
  6
CONTINUOUS
 62
               1
100
AcDbLine
 10
1489.9999167556605
 20
1784.0
 30
0.0
 11
1529.9999166066489
 21
1784.0
 31
0.0
  0
LINE
  5
144
100
AcDbEntity
  8
IMPORTED
  6
CONTINUOUS
 62
               1
100
AcDbLine
 10
1649.9999166066489
 20
1784.0
 30
0.0
 11
1689.9999164576373
 21
1784.0
 31
0.0
  0
LINE
  5
145
100
AcDbEntity
  8
IMPORTED
  6
CONTINUOUS
 62
               1
100
AcDbLine
 10
1529.9999166066489
 20
1784.0
 30
0.0
 11
1649.9999166066489
 21
1784.0
 31
0.0
  0
SOLID
  5
146
100
AcDbEntity
  8
IMPORTED
 62
               1
100
AcDbTrace
 10
1529.9999166066489
 20
1784.0
 30
0.0
 11
1569.9974752003989
 21
1787.499332945667
 31
0.0
 12
1569.9974752003989
 22
1780.500667054333
 32
0.0
 13
1569.9974752003989
 23
1780.500667054333
 33
0.0
  0
SOLID
  5
147
100
AcDbEntity
  8
IMPORTED
 62
               1
100
AcDbTrace
 10
1649.9999166066489
 20
1784.0
 30
0.0
 11
1610.0023580128989
 21
1780.500667054333
 31
0.0
 12
1610.0023580128989
 22
1787.499332945667
 32
0.0
 13
1610.0023580128989
 23
1787.499332945667
 33
0.0
  0
MTEXT
  5
148
100
AcDbEntity
  8
IMPORTED
 62
               1
100
AcDbMText
 10
1558.2499166066489
 20
1842.5034895088274
 30
0.0
 40
32.576822916666664
 41
0.0
 71
               1
 72
               1
  1
120
  7
_______
  0
LINE
  5
149
100
AcDbEntity
  8
IMPORTED
  6
CONTINUOUS
 62
               1
100
AcDbLine
 10
75.000016383131694
 20
-1399.999925385096
 30
0.0
 11
449.99999985098839
 21
-1399.999925385096
 31
0.0
  0
LINE
  5
14A
100
AcDbEntity
  8
IMPORTED
  6
CONTINUOUS
 62
               1
100
AcDbLine
 10
75.000016383131694
 20
-1519.9999253850958
 30
0.0
 11
449.99999985098839
 21
-1519.9999253850958
 31
0.0
  0
LINE
  5
14B
100
AcDbEntity
  8
IMPORTED
  6
CONTINUOUS
 62
               1
100
AcDbLine
 10
410.0
 20
-1359.9999255341077
 30
0.0
 11
410.0
 21
-1399.999925385096
 31
0.0
  0
LINE
  5
14C
100
AcDbEntity
  8
IMPORTED
  6
CONTINUOUS
 62
               1
100
AcDbLine
 10
410.0
 20
-1519.9999253850958
 30
0.0
 11
410.0
 21
-1559.9999252360842
 31
0.0
  0
LINE
  5
14D
100
AcDbEntity
  8
IMPORTED
  6
CONTINUOUS
 62
               1
100
AcDbLine
 10
410.0
 20
-1399.999925385096
 30
0.0
 11
410.0
 21
-1519.9999253850958
 31
0.0
  0
SOLID
  5
14E
100
AcDbEntity
  8
IMPORTED
 62
               1
100
AcDbTrace
 10
410.0
 20
-1399.999925385096
 30
0.0
 11
413.49933294566705
 21
-1439.997483978846
 31
0.0
 12
406.50066705433295
 22
-1439.997483978846
 32
0.0
 13
406.50066705433295
 23
-1439.997483978846
 33
0.0
  0
SOLID
  5
14F
100
AcDbEntity
  8
IMPORTED
 62
               1
100
AcDbTrace
 10
410.0
 20
-1519.9999253850958
 30
0.0
 11
406.50066705433295
 21
-1480.0023667913458
 31
0.0
 12
413.49933294566705
 22
-1480.0023667913458
 32
0.0
 13
413.49933294566705
 23
-1480.0023667913458
 33
0.0
  0
MTEXT
  5
150
100
AcDbEntity
  8
IMPORTED
 62
               1
100
AcDbMText
 10
351.49651049117244
 20
-1491.749925385096
 30
0.0
 40
32.576822916666664
 41
0.0
 71
               1
 72
               1
  1
120
  7
_______
 11
0.0
 21
1.0
 31
0.0
  0
LINE
  5
151
100
AcDbEntity
  8
IMPORTED
  6
CONTINUOUS
 62
               1
100
AcDbLine
 10
-99.999983393350874
 20
-1574.9999251615784
 30
0.0
 11
-99.999983393350874
 21
-1929.9999998509884
 31
0.0
  0
LINE
  5
152
100
AcDbEntity
  8
IMPORTED
  6
CONTINUOUS
 62
               1
100
AcDbLine
 10
20.000016606649112
 20
-1574.9999251615784
 30
0.0
 11
20.000016606649112
 21
-1929.9999998509884
 31
0.0
  0
LINE
  5
153
100
AcDbEntity
  8
IMPORTED
  6
CONTINUOUS
 62
               1
100
AcDbLine
 10
-139.99998324433926
 20
-1890.0
 30
0.0
 11
-99.999983393350874
 21
-1890.0
 31
0.0
  0
LINE
  5
154
100
AcDbEntity
  8
IMPORTED
  6
CONTINUOUS
 62
               1
100
AcDbLine
 10
20.000016606649112
 20
-1890.0
 30
0.0
 11
60.0000164576375
 21
-1890.0
 31
0.0
  0
LINE
  5
155
100
AcDbEntity
  8
IMPORTED
  6
CONTINUOUS
 62
               1
100
AcDbLine
 10
-99.999983393350874
 20
-1890.0
 30
0.0
 11
20.000016606649112
 21
-1890.0
 31
0.0
  0
SOLID
  5
156
100
AcDbEntity
  8
IMPORTED
 62
               1
100
AcDbTrace
 10
-99.999983393350874
 20
-1890.0
 30
0.0
 11
-60.002424799600881
 21
-1886.500667054333
 31
0.0
 12
-60.002424799600881
 22
-1893.499332945667
 32
0.0
 13
-60.002424799600881
 23
-1893.499332945667
 33
0.0
  0
SOLID
  5
157
100
AcDbEntity
  8
IMPORTED
 62
               1
100
AcDbTrace
 10
20.000016606649112
 20
-1890.0
 30
0.0
 11
-19.997541987100888
 21
-1893.499332945667
 31
0.0
 12
-19.997541987100888
 22
-1886.500667054333
 32
0.0
 13
-19.997541987100888
 23
-1886.500667054333
 33
0.0
  0
MTEXT
  5
158
100
AcDbEntity
  8
IMPORTED
 62
               1
100
AcDbMText
 10
-71.749983393350874
 20
-1831.4965104911726
 30
0.0
 40
32.576822916666664
 41
0.0
 71
               1
 72
               1
  1
120
  7
_______
  0
LINE
  5
159
100
AcDbEntity
  8
IMPORTED
  6
CONTINUOUS
 62
               1
100
AcDbLine
 10
-39.999983393350888
 20
-1339.9999256086135
 30
0.0
 11
-39.999983393350888
 21
-1064.9999255341077
 31
0.0
  0
LINE
  5
15A
100
AcDbEntity
  8
IMPORTED
  6
CONTINUOUS
 62
               1
100
AcDbLine
 10
-2039.9999833933507
 20
-1339.9999256086135
 30
0.0
 11
-2039.9999833933507
 21
-1064.9999255341077
 31
0.0
  0
LINE
  5
15B
100
AcDbEntity
  8
IMPORTED
  6
CONTINUOUS
 62
               1
100
AcDbLine
 10
0.0000164576375017
 20
-1104.999925385096
 30
0.0
 11
-39.999983393350888
 21
-1104.999925385096
 31
0.0
  0
LINE
  5
15C
100
AcDbEntity
  8
IMPORTED
  6
CONTINUOUS
 62
               1
100
AcDbLine
 10
-2039.9999833933507
 20
-1104.999925385096
 30
0.0
 11
-2079.9999832443391
 21
-1104.999925385096
 31
0.0
  0
LINE
  5
15D
100
AcDbEntity
  8
IMPORTED
  6
CONTINUOUS
 62
               1
100
AcDbLine
 10
-39.999983393350888
 20
-1104.999925385096
 30
0.0
 11
-2039.9999833933507
 21
-1104.999925385096
 31
0.0
  0
SOLID
  5
15E
100
AcDbEntity
  8
IMPORTED
 62
               1
100
AcDbTrace
 10
-39.999983393350888
 20
-1104.999925385096
 30
0.0
 11
-79.997541987100874
 21
-1108.499258330763
 31
0.0
 12
-79.997541987100874
 22
-1101.5005924394291
 32
0.0
 13
-79.997541987100874
 23
-1101.5005924394291
 33
0.0
  0
SOLID
  5
15F
100
AcDbEntity
  8
IMPORTED
 62
               1
100
AcDbTrace
 10
-2039.9999833933507
 20
-1104.999925385096
 30
0.0
 11
-2000.0024247996007
 21
-1101.5005924394291
 31
0.0
 12
-2000.0024247996007
 22
-1108.499258330763
 32
0.0
 13
-2000.0024247996007
 23
-1108.499258330763
 33
0.0
  0
MTEXT
  5
160
100
AcDbEntity
  8
IMPORTED
 62
               1
100
AcDbMText
 10
-1082.3333167266842
 20
-1046.4964358762686
 30
0.0
 40
32.576822916666664
 41
0.0
 71
               1
 72
               1
  1
2000
  7
_______
  0
LINE
  5
161
100
AcDbEntity
  8
IMPORTED
  6
CONTINUOUS
 62
               1
100
AcDbLine
 10
-2549.9999831698333
 20
-1485.7499253850958
 30
0.0
 11
-2690.9999998509879
 21
-1485.7499253850958
 31
0.0
  0
LINE
  5
162
100
AcDbEntity
  8
IMPORTED
  6
CONTINUOUS
 62
               1
100
AcDbLine
 10
-2549.9999831698333
 20
-1435.7499253850958
 30
0.0
 11
-2690.9999998509879
 21
-1435.7499253850958
 31
0.0
  0
LINE
  5
163
100
AcDbEntity
  8
IMPORTED
  6
CONTINUOUS
 62
               1
100
AcDbLine
 10
-2650.9999999999995
 20
-1525.7499252360842
 30
0.0
 11
-2650.9999999999995
 21
-1485.7499253850958
 31
0.0
  0
LINE
  5
164
100
AcDbEntity
  8
IMPORTED
  6
CONTINUOUS
 62
               1
100
AcDbLine
 10
-2650.9999999999995
 20
-1435.7499253850958
 30
0.0
 11
-2650.9999999999995
 21
-1395.7499255341074
 31
0.0
  0
LINE
  5
165
100
AcDbEntity
  8
IMPORTED
  6
CONTINUOUS
 62
               1
100
AcDbLine
 10
-2650.9999999999995
 20
-1485.7499253850958
 30
0.0
 11
-2650.9999999999995
 21
-1435.7499253850958
 31
0.0
  0
SOLID
  5
166
100
AcDbEntity
  8
IMPORTED
 62
               1
100
AcDbTrace
 10
-2650.9999999999995
 20
-1485.7499253850958
 30
0.0
 11
-2654.4993329456665
 21
-1445.7523667913458
 31
0.0
 12
-2647.5006670543326
 22
-1445.7523667913458
 32
0.0
 13
-2647.5006670543326
 23
-1445.7523667913458
 33
0.0
  0
SOLID
  5
167
100
AcDbEntity
  8
IMPORTED
 62
               1
100
AcDbTrace
 10
-2650.9999999999995
 20
-1435.7499253850958
 30
0.0
 11
-2647.5006670543326
 21
-1475.7474839788458
 31
0.0
 12
-2654.4993329456665
 22
-1475.7474839788458
 32
0.0
 13
-2654.4993329456665
 23
-1475.7474839788458
 33
0.0
  0
MTEXT
  5
168
100
AcDbEntity
  8
IMPORTED
 62
               1
100
AcDbMText
 10
-2709.503489508827
 20
-1481.9165920517626
 30
0.0
 40
32.576822916666664
 41
0.0
 71
               1
 72
               1
  1
50
  7
_______
 11
0.0
 21
1.0
 31
0.0
  0
LINE
  5
169
100
AcDbEntity
  8
IMPORTED
  6
CONTINUOUS
 62
               1
100
AcDbLine
 10
-2324.9999831698333
 20
-63.000025385096052
 30
0.0
 11
-2739.9999998509884
 21
-63.000025385096052
 31
0.0
  0
LINE
  5
16A
100
AcDbEntity
  8
IMPORTED
  6
CONTINUOUS
 62
               1
100
AcDbLine
 10
-2528.9999831698333
 20
486.99997461490392
 30
0.0
 11
-2739.9999998509884
 21
486.99997461490392
 31
0.0
  0
LINE
  5
16B
100
AcDbEntity
  8
IMPORTED
  6
CONTINUOUS
 62
               1
100
AcDbLine
 10
-2700.0
 20
-103.00002523608444
 30
0.0
 11
-2700.0
 21
-63.000025385096052
 31
0.0
  0
LINE
  5
16C
100
AcDbEntity
  8
IMPORTED
  6
CONTINUOUS
 62
               1
100
AcDbLine
 10
-2700.0
 20
486.99997461490392
 30
0.0
 11
-2700.0
 21
526.99997446589236
 31
0.0
  0
LINE
  5
16D
100
AcDbEntity
  8
IMPORTED
  6
CONTINUOUS
 62
               1
100
AcDbLine
 10
-2700.0
 20
-63.000025385096052
 30
0.0
 11
-2700.0
 21
486.99997461490392
 31
0.0
  0
SOLID
  5
16E
100
AcDbEntity
  8
IMPORTED
 62
               1
100
AcDbTrace
 10
-2700.0
 20
-63.000025385096052
 30
0.0
 11
-2703.499332945667
 21
-23.002466791346055
 31
0.0
 12
-2696.500667054333
 22
-23.002466791346055
 32
0.0
 13
-2696.500667054333
 23
-23.002466791346055
 33
0.0
  0
SOLID
  5
16F
100
AcDbEntity
  8
IMPORTED
 62
               1
100
AcDbTrace
 10
-2700.0
 20
486.99997461490392
 30
0.0
 11
-2696.500667054333
 21
447.00241602115392
 31
0.0
 12
-2703.499332945667
 22
447.00241602115392
 32
0.0
 13
-2703.499332945667
 23
447.00241602115392
 33
0.0
  0
MTEXT
  5
170
100
AcDbEntity
  8
IMPORTED
 62
               1
100
AcDbMText
 10
-2758.5034895088274
 20
180.24997461490392
 30
0.0
 40
32.576822916666664
 41
0.0
 71
               1
 72
               1
  1
550
  7
_______
 11
0.0
 21
1.0
 31
0.0
  0
LINE
  5
171
100
AcDbEntity
  8
IMPORTED
  6
CONTINUOUS
 62
               1
100
AcDbLine
 10
-2528.9999831698333
 20
486.99997461490392
 30
0.0
 11
-2739.9999998509884
 21
486.99997461490392
 31
0.0
  0
LINE
  5
172
100
AcDbEntity
  8
IMPORTED
  6
CONTINUOUS
 62
               1
100
AcDbLine
 10
-2549.9999831698333
 20
786.99997461490386
 30
0.0
 11
-2739.9999998509884
 21
786.99997461490386
 31
0.0
  0
LINE
  5
173
100
AcDbEntity
  8
IMPORTED
  6
CONTINUOUS
 62
               1
100
AcDbLine
 10
-2700.0
 20
446.99997476391553
 30
0.0
 11
-2700.0
 21
486.99997461490392
 31
0.0
  0
LINE
  5
174
100
AcDbEntity
  8
IMPORTED
  6
CONTINUOUS
 62
               1
100
AcDbLine
 10
-2700.0
 20
786.99997461490386
 30
0.0
 11
-2700.0
 21
826.99997446589225
 31
0.0
  0
LINE
  5
175
100
AcDbEntity
  8
IMPORTED
  6
CONTINUOUS
 62
               1
100
AcDbLine
 10
-2700.0
 20
486.99997461490392
 30
0.0
 11
-2700.0
 21
786.99997461490386
 31
0.0
  0
SOLID
  5
176
100
AcDbEntity
  8
IMPORTED
 62
               1
100
AcDbTrace
 10
-2700.0
 20
486.99997461490392
 30
0.0
 11
-2703.499332945667
 21
526.99753320865398
 31
0.0
 12
-2696.500667054333
 22
526.99753320865398
 32
0.0
 13
-2696.500667054333
 23
526.99753320865398
 33
0.0
  0
SOLID
  5
177
100
AcDbEntity
  8
IMPORTED
 62
               1
100
AcDbTrace
 10
-2700.0
 20
786.99997461490386
 30
0.0
 11
-2696.500667054333
 21
747.00241602115386
 31
0.0
 12
-2703.499332945667
 22
747.00241602115386
 32
0.0
 13
-2703.499332945667
 23
747.00241602115386
 33
0.0
  0
MTEXT
  5
178
100
AcDbEntity
  8
IMPORTED
 62
               1
100
AcDbMText
 10
-2758.5034895088274
 20
605.24997461490386
 30
0.0
 40
32.576822916666664
 41
0.0
 71
               1
 72
               1
  1
300
  7
_______
 11
0.0
 21
1.0
 31
0.0
  0
LINE
  5
179
100
AcDbEntity
  8
IMPORTED
  6
CONTINUOUS
 62
               1
100
AcDbLine
 10
-2549.9999831698333
 20
786.99997461490386
 30
0.0
 11
-2739.9999998509884
 21
786.99997461490386
 31
0.0
  0
LINE
  5
17A
100
AcDbEntity
  8
IMPORTED
  6
CONTINUOUS
 62
               1
100
AcDbLine
 10
-2549.9999831698333
 20
881.99997461490386
 30
0.0
 11
-2739.9999998509884
 21
881.99997461490386
 31
0.0
  0
LINE
  5
17B
100
AcDbEntity
  8
IMPORTED
  6
CONTINUOUS
 62
               1
100
AcDbLine
 10
-2700.0
 20
746.99997476391547
 30
0.0
 11
-2700.0
 21
786.99997461490386
 31
0.0
  0
LINE
  5
17C
100
AcDbEntity
  8
IMPORTED
  6
CONTINUOUS
 62
               1
100
AcDbLine
 10
-2700.0
 20
881.99997461490386
 30
0.0
 11
-2700.0
 21
921.99997446589225
 31
0.0
  0
LINE
  5
17D
100
AcDbEntity
  8
IMPORTED
  6
CONTINUOUS
 62
               1
100
AcDbLine
 10
-2700.0
 20
786.99997461490386
 30
0.0
 11
-2700.0
 21
881.99997461490386
 31
0.0
  0
SOLID
  5
17E
100
AcDbEntity
  8
IMPORTED
 62
               1
100
AcDbTrace
 10
-2700.0
 20
786.99997461490386
 30
0.0
 11
-2703.499332945667
 21
826.99753320865386
 31
0.0
 12
-2696.500667054333
 22
826.99753320865386
 32
0.0
 13
-2696.500667054333
 23
826.99753320865386
 33
0.0
  0
SOLID
  5
17F
100
AcDbEntity
  8
IMPORTED
 62
               1
100
AcDbTrace
 10
-2700.0
 20
881.99997461490386
 30
0.0
 11
-2696.500667054333
 21
842.00241602115386
 31
0.0
 12
-2703.499332945667
 22
842.00241602115386
 32
0.0
 13
-2703.499332945667
 23
842.00241602115386
 33
0.0
  0
MTEXT
  5
180
100
AcDbEntity
  8
IMPORTED
 62
               1
100
AcDbMText
 10
-2758.5034895088274
 20
813.33330794823723
 30
0.0
 40
32.576822916666664
 41
0.0
 71
               1
 72
               1
  1
95
  7
_______
 11
0.0
 21
1.0
 31
0.0
  0
LINE
  5
181
100
AcDbEntity
  8
IMPORTED
  6
CONTINUOUS
 62
               1
100
AcDbLine
 10
-2549.9999831698333
 20
881.99997461490386
 30
0.0
 11
-2739.9999998509884
 21
881.99997461490386
 31
0.0
  0
LINE
  5
182
100
AcDbEntity
  8
IMPORTED
  6
CONTINUOUS
 62
               1
100
AcDbLine
 10
-2549.9999831698333
 20
1191.9999746149037
 30
0.0
 11
-2739.9999998509884
 21
1191.9999746149037
 31
0.0
  0
LINE
  5
183
100
AcDbEntity
  8
IMPORTED
  6
CONTINUOUS
 62
               1
100
AcDbLine
 10
-2700.0
 20
841.99997476391547
 30
0.0
 11
-2700.0
 21
881.99997461490386
 31
0.0
  0
LINE
  5
184
100
AcDbEntity
  8
IMPORTED
  6
CONTINUOUS
 62
               1
100
AcDbLine
 10
-2700.0
 20
1191.9999746149037
 30
0.0
 11
-2700.0
 21
1231.9999744658921
 31
0.0
  0
LINE
  5
185
100
AcDbEntity
  8
IMPORTED
  6
CONTINUOUS
 62
               1
100
AcDbLine
 10
-2700.0
 20
881.99997461490386
 30
0.0
 11
-2700.0
 21
1191.9999746149037
 31
0.0
  0
SOLID
  5
186
100
AcDbEntity
  8
IMPORTED
 62
               1
100
AcDbTrace
 10
-2700.0
 20
881.99997461490386
 30
0.0
 11
-2703.499332945667
 21
921.99753320865386
 31
0.0
 12
-2696.500667054333
 22
921.99753320865386
 32
0.0
 13
-2696.500667054333
 23
921.99753320865386
 33
0.0
  0
SOLID
  5
187
100
AcDbEntity
  8
IMPORTED
 62
               1
100
AcDbTrace
 10
-2700.0
 20
1191.9999746149037
 30
0.0
 11
-2696.500667054333
 21
1152.0024160211537
 31
0.0
 12
-2703.499332945667
 22
1152.0024160211537
 32
0.0
 13
-2703.499332945667
 23
1152.0024160211537
 33
0.0
  0
MTEXT
  5
188
100
AcDbEntity
  8
IMPORTED
 62
               1
100
AcDbMText
 10
-2758.5034895088274
 20
1005.2499746149036
 30
0.0
 40
32.576822916666664
 41
0.0
 71
               1
 72
               1
  1
310
  7
_______
 11
0.0
 21
1.0
 31
0.0
  0
LINE
  5
189
100
AcDbEntity
  8
IMPORTED
  6
CONTINUOUS
 62
               1
100
AcDbLine
 10
-2549.9999831698333
 20
1191.9999746149037
 30
0.0
 11
-2739.9999998509884
 21
1191.9999746149037
 31
0.0
  0
LINE
  5
18A
100
AcDbEntity
  8
IMPORTED
  6
CONTINUOUS
 62
               1
100
AcDbLine
 10
-2549.9999831698333
 20
1286.9999746149037
 30
0.0
 11
-2739.9999998509884
 21
1286.9999746149037
 31
0.0
  0
LINE
  5
18B
100
AcDbEntity
  8
IMPORTED
  6
CONTINUOUS
 62
               1
100
AcDbLine
 10
-2700.0
 20
1151.9999747639154
 30
0.0
 11
-2700.0
 21
1191.9999746149037
 31
0.0
  0
LINE
  5
18C
100
AcDbEntity
  8
IMPORTED
  6
CONTINUOUS
 62
               1
100
AcDbLine
 10
-2700.0
 20
1286.9999746149037
 30
0.0
 11
-2700.0
 21
1326.9999744658921
 31
0.0
  0
LINE
  5
18D
100
AcDbEntity
  8
IMPORTED
  6
CONTINUOUS
 62
               1
100
AcDbLine
 10
-2700.0
 20
1191.9999746149037
 30
0.0
 11
-2700.0
 21
1286.9999746149037
 31
0.0
  0
SOLID
  5
18E
100
AcDbEntity
  8
IMPORTED
 62
               1
100
AcDbTrace
 10
-2700.0
 20
1191.9999746149037
 30
0.0
 11
-2703.499332945667
 21
1231.9975332086537
 31
0.0
 12
-2696.500667054333
 22
1231.9975332086537
 32
0.0
 13
-2696.500667054333
 23
1231.9975332086537
 33
0.0
  0
SOLID
  5
18F
100
AcDbEntity
  8
IMPORTED
 62
               1
100
AcDbTrace
 10
-2700.0
 20
1286.9999746149037
 30
0.0
 11
-2696.500667054333
 21
1247.0024160211537
 31
0.0
 12
-2703.499332945667
 22
1247.0024160211537
 32
0.0
 13
-2703.499332945667
 23
1247.0024160211537
 33
0.0
  0
MTEXT
  5
190
100
AcDbEntity
  8
IMPORTED
 62
               1
100
AcDbMText
 10
-2758.5034895088274
 20
1218.333307948237
 30
0.0
 40
32.576822916666664
 41
0.0
 71
               1
 72
               1
  1
95
  7
_______
 11
0.0
 21
1.0
 31
0.0
  0
LINE
  5
191
100
AcDbEntity
  8
IMPORTED
  6
CONTINUOUS
 62
               1
100
AcDbLine
 10
-2549.9999831698333
 20
1286.9999746149037
 30
0.0
 11
-2739.9999998509884
 21
1286.9999746149037
 31
0.0
  0
LINE
  5
192
100
AcDbEntity
  8
IMPORTED
  6
CONTINUOUS
 62
               1
100
AcDbLine
 10
-2154.9999831698333
 20
1386.9999746149037
 30
0.0
 11
-2739.9999998509884
 21
1386.9999746149037
 31
0.0
  0
LINE
  5
193
100
AcDbEntity
  8
IMPORTED
  6
CONTINUOUS
 62
               1
100
AcDbLine
 10
-2700.0
 20
1246.9999747639154
 30
0.0
 11
-2700.0
 21
1286.9999746149037
 31
0.0
  0
LINE
  5
194
100
AcDbEntity
  8
IMPORTED
  6
CONTINUOUS
 62
               1
100
AcDbLine
 10
-2700.0
 20
1386.9999746149037
 30
0.0
 11
-2700.0
 21
1426.9999744658921
 31
0.0
  0
LINE
  5
195
100
AcDbEntity
  8
IMPORTED
  6
CONTINUOUS
 62
               1
100
AcDbLine
 10
-2700.0
 20
1286.9999746149037
 30
0.0
 11
-2700.0
 21
1386.9999746149037
 31
0.0
  0
SOLID
  5
196
100
AcDbEntity
  8
IMPORTED
 62
               1
100
AcDbTrace
 10
-2700.0
 20
1286.9999746149037
 30
0.0
 11
-2703.499332945667
 21
1326.9975332086537
 31
0.0
 12
-2696.500667054333
 22
1326.9975332086537
 32
0.0
 13
-2696.500667054333
 23
1326.9975332086537
 33
0.0
  0
SOLID
  5
197
100
AcDbEntity
  8
IMPORTED
 62
               1
100
AcDbTrace
 10
-2700.0
 20
1386.9999746149037
 30
0.0
 11
-2696.500667054333
 21
1347.0024160211537
 31
0.0
 12
-2703.499332945667
 22
1347.0024160211537
 32
0.0
 13
-2703.499332945667
 23
1347.0024160211537
 33
0.0
  0
MTEXT
  5
198
100
AcDbEntity
  8
IMPORTED
 62
               1
100
AcDbMText
 10
-2758.5034895088274
 20
1305.2499746149037
 30
0.0
 40
32.576822916666664
 41
0.0
 71
               1
 72
               1
  1
100
  7
_______
 11
0.0
 21
1.0
 31
0.0
  0
LINE
  5
199
100
AcDbEntity
  8
IMPORTED
  6
CONTINUOUS
 62
               1
100
AcDbLine
 10
-2324.9999831698333
 20
-63.000025385096052
 30
0.0
 11
-2879.9999998509884
 21
-63.000025385096052
 31
0.0
  0
LINE
  5
19A
100
AcDbEntity
  8
IMPORTED
  6
CONTINUOUS
 62
               1
100
AcDbLine
 10
-2154.9999831698333
 20
1386.9999746149037
 30
0.0
 11
-2879.9999998509884
 21
1386.9999746149037
 31
0.0
  0
LINE
  5
19B
100
AcDbEntity
  8
IMPORTED
  6
CONTINUOUS
 62
               1
100
AcDbLine
 10
-2840.0
 20
-103.00002523608444
 30
0.0
 11
-2840.0
 21
-63.000025385096052
 31
0.0
  0
LINE
  5
19C
100
AcDbEntity
  8
IMPORTED
  6
CONTINUOUS
 62
               1
100
AcDbLine
 10
-2840.0
 20
1386.9999746149037
 30
0.0
 11
-2840.0
 21
1426.9999744658921
 31
0.0
  0
LINE
  5
19D
100
AcDbEntity
  8
IMPORTED
  6
CONTINUOUS
 62
               1
100
AcDbLine
 10
-2840.0
 20
-63.000025385096052
 30
0.0
 11
-2840.0
 21
1386.9999746149037
 31
0.0
  0
SOLID
  5
19E
100
AcDbEntity
  8
IMPORTED
 62
               1
100
AcDbTrace
 10
-2840.0
 20
-63.000025385096052
 30
0.0
 11
-2843.499332945667
 21
-23.002466791346055
 31
0.0
 12
-2836.500667054333
 22
-23.002466791346055
 32
0.0
 13
-2836.500667054333
 23
-23.002466791346055
 33
0.0
  0
SOLID
  5
19F
100
AcDbEntity
  8
IMPORTED
 62
               1
100
AcDbTrace
 10
-2840.0
 20
1386.9999746149037
 30
0.0
 11
-2836.500667054333
 21
1347.0024160211537
 31
0.0
 12
-2843.499332945667
 22
1347.0024160211537
 32
0.0
 13
-2843.499332945667
 23
1347.0024160211537
 33
0.0
  0
MTEXT
  5
1A0
100
AcDbEntity
  8
IMPORTED
 62
               1
100
AcDbMText
 10
-2898.5034895088279
 20
619.66664128157061
 30
0.0
 40
32.576822916666664
 41
0.0
 71
               1
 72
               1
  1
1450
  7
_______
 11
0.0
 21
1.0
 31
0.0
  0
LINE
  5
1A1
100
AcDbEntity
  8
IMPORTED
  6
CONTINUOUS
 62
               1
100
AcDbLine
 10
-264.99998339335087
 20
-272.99992516157863
 30
0.0
 11
-264.99998339335087
 21
-433.99999985098839
 31
0.0
  0
LINE
  5
1A2
100
AcDbEntity
  8
IMPORTED
  6
CONTINUOUS
 62
               1
100
AcDbLine
 10
-214.99998339335087
 20
-123.00002516157863
 30
0.0
 11
-214.99998339335087
 21
-433.99999985098839
 31
0.0
  0
LINE
  5
1A3
100
AcDbEntity
  8
IMPORTED
  6
CONTINUOUS
 62
               1
100
AcDbLine
 10
-304.99998324433926
 20
-394.0
 30
0.0
 11
-264.99998339335087
 21
-394.0
 31
0.0
  0
LINE
  5
1A4
100
AcDbEntity
  8
IMPORTED
  6
CONTINUOUS
 62
               1
100
AcDbLine
 10
-214.99998339335087
 20
-394.0
 30
0.0
 11
-174.99998354236249
 21
-394.0
 31
0.0
  0
LINE
  5
1A5
100
AcDbEntity
  8
IMPORTED
  6
CONTINUOUS
 62
               1
100
AcDbLine
 10
-264.99998339335087
 20
-394.0
 30
0.0
 11
-214.99998339335087
 21
-394.0
 31
0.0
  0
SOLID
  5
1A6
100
AcDbEntity
  8
IMPORTED
 62
               1
100
AcDbTrace
 10
-264.99998339335087
 20
-394.0
 30
0.0
 11
-225.00242479960087
 21
-390.50066705433295
 31
0.0
 12
-225.00242479960087
 22
-397.49933294566705
 32
0.0
 13
-225.00242479960087
 23
-397.49933294566705
 33
0.0
  0
SOLID
  5
1A7
100
AcDbEntity
  8
IMPORTED
 62
               1
100
AcDbTrace
 10
-214.99998339335087
 20
-394.0
 30
0.0
 11
-254.99754198710087
 21
-397.49933294566705
 31
0.0
 12
-254.99754198710087
 22
-390.50066705433301
 32
0.0
 13
-254.99754198710087
 23
-390.50066705433301
 33
0.0
  0
MTEXT
  5
1A8
100
AcDbEntity
  8
IMPORTED
 62
               1
100
AcDbMText
 10
-261.16665006001756
 20
-335.4965104911725
 30
0.0
 40
32.576822916666664
 41
0.0
 71
               1
 72
               1
  1
50
  7
_______
  0
LINE
  5
1A9
100
AcDbEntity
  8
IMPORTED
  6
CONTINUOUS
 62
               1
100
AcDbLine
 10
-214.99998339335087
 20
-123.00002516157863
 30
0.0
 11
-214.99998339335087
 21
-433.99999985098839
 31
0.0
  0
LINE
  5
1AA
100
AcDbEntity
  8
IMPORTED
  6
CONTINUOUS
 62
               1
100
AcDbLine
 10
135.0000166066491
 20
-123.00002516157863
 30
0.0
 11
135.0000166066491
 21
-433.99999985098839
 31
0.0
  0
LINE
  5
1AB
100
AcDbEntity
  8
IMPORTED
  6
CONTINUOUS
 62
               1
100
AcDbLine
 10
-254.99998324433926
 20
-394.0
 30
0.0
 11
-214.99998339335087
 21
-394.0
 31
0.0
  0
LINE
  5
1AC
100
AcDbEntity
  8
IMPORTED
  6
CONTINUOUS
 62
               1
100
AcDbLine
 10
135.0000166066491
 20
-394.0
 30
0.0
 11
175.00001645763751
 21
-394.0
 31
0.0
  0
LINE
  5
1AD
100
AcDbEntity
  8
IMPORTED
  6
CONTINUOUS
 62
               1
100
AcDbLine
 10
-214.99998339335087
 20
-394.0
 30
0.0
 11
135.0000166066491
 21
-394.0
 31
0.0
  0
SOLID
  5
1AE
100
AcDbEntity
  8
IMPORTED
 62
               1
100
AcDbTrace
 10
-214.99998339335087
 20
-394.0
 30
0.0
 11
-175.00242479960087
 21
-390.50066705433295
 31
0.0
 12
-175.00242479960087
 22
-397.49933294566705
 32
0.0
 13
-175.00242479960087
 23
-397.49933294566705
 33
0.0
  0
SOLID
  5
1AF
100
AcDbEntity
  8
IMPORTED
 62
               1
100
AcDbTrace
 10
135.0000166066491
 20
-394.0
 30
0.0
 11
95.002458012899112
 21
-397.49933294566705
 31
0.0
 12
95.002458012899112
 22
-390.50066705433301
 32
0.0
 13
95.002458012899112
 23
-390.50066705433301
 33
0.0
  0
MTEXT
  5
1B0
100
AcDbEntity
  8
IMPORTED
 62
               1
100
AcDbMText
 10
-71.749983393350874
 20
-335.4965104911725
 30
0.0
 40
32.576822916666664
 41
0.0
 71
               1
 72
               1
  1
350
  7
_______
  0
LINE
  5
1B1
100
AcDbEntity
  8
IMPORTED
  6
CONTINUOUS
 62
               1
100
AcDbLine
 10
135.0000166066491
 20
-123.00002516157863
 30
0.0
 11
135.0000166066491
 21
-433.99999985098839
 31
0.0
  0
LINE
  5
1B2
100
AcDbEntity
  8
IMPORTED
  6
CONTINUOUS
 62
               1
100
AcDbLine
 10
185.0000166066491
 20
-272.99992516157863
 30
0.0
 11
185.0000166066491
 21
-433.99999985098839
 31
0.0
  0
LINE
  5
1B3
100
AcDbEntity
  8
IMPORTED
  6
CONTINUOUS
 62
               1
100
AcDbLine
 10
95.000016755660724
 20
-394.0
 30
0.0
 11
135.0000166066491
 21
-394.0
 31
0.0
  0
LINE
  5
1B4
100
AcDbEntity
  8
IMPORTED
  6
CONTINUOUS
 62
               1
100
AcDbLine
 10
185.0000166066491
 20
-394.0
 30
0.0
 11
225.00001645763749
 21
-394.0
 31
0.0
  0
LINE
  5
1B5
100
AcDbEntity
  8
IMPORTED
  6
CONTINUOUS
 62
               1
100
AcDbLine
 10
135.0000166066491
 20
-394.0
 30
0.0
 11
185.0000166066491
 21
-394.0
 31
0.0
  0
SOLID
  5
1B6
100
AcDbEntity
  8
IMPORTED
 62
               1
100
AcDbTrace
 10
135.0000166066491
 20
-394.0
 30
0.0
 11
174.99757520039913
 21
-390.50066705433295
 31
0.0
 12
174.99757520039913
 22
-397.49933294566705
 32
0.0
 13
174.99757520039913
 23
-397.49933294566705
 33
0.0
  0
SOLID
  5
1B7
100
AcDbEntity
  8
IMPORTED
 62
               1
100
AcDbTrace
 10
185.0000166066491
 20
-394.0
 30
0.0
 11
145.0024580128991
 21
-397.49933294566705
 31
0.0
 12
145.0024580128991
 22
-390.50066705433301
 32
0.0
 13
145.0024580128991
 23
-390.50066705433301
 33
0.0
  0
MTEXT
  5
1B8
100
AcDbEntity
  8
IMPORTED
 62
               1
100
AcDbMText
 10
138.83334993998244
 20
-335.4965104911725
 30
0.0
 40
32.576822916666664
 41
0.0
 71
               1
 72
               1
  1
50
  7
_______
  0
LINE
  5
1B9
100
AcDbEntity
  8
IMPORTED
  6
CONTINUOUS
 62
               1
100
AcDbLine
 10
185.0000166066491
 20
-272.99992516157863
 30
0.0
 11
185.0000166066491
 21
-539.99992523608444
 31
0.0
  0
LINE
  5
1BA
100
AcDbEntity
  8
IMPORTED
  6
CONTINUOUS
 62
               1
100
AcDbLine
 10
-264.99998339335087
 20
-272.99992516157863
 30
0.0
 11
-264.99998339335087
 21
-539.99992523608444
 31
0.0
  0
LINE
  5
1BB
100
AcDbEntity
  8
IMPORTED
  6
CONTINUOUS
 62
               1
100
AcDbLine
 10
225.00001645763749
 20
-499.99992538509599
 30
0.0
 11
185.0000166066491
 21
-499.99992538509599
 31
0.0
  0
LINE
  5
1BC
100
AcDbEntity
  8
IMPORTED
  6
CONTINUOUS
 62
               1
100
AcDbLine
 10
-264.99998339335087
 20
-499.99992538509599
 30
0.0
 11
-304.99998324433926
 21
-499.99992538509599
 31
0.0
  0
LINE
  5
1BD
100
AcDbEntity
  8
IMPORTED
  6
CONTINUOUS
 62
               1
100
AcDbLine
 10
185.0000166066491
 20
-499.99992538509599
 30
0.0
 11
-264.99998339335087
 21
-499.99992538509599
 31
0.0
  0
SOLID
  5
1BE
100
AcDbEntity
  8
IMPORTED
 62
               1
100
AcDbTrace
 10
185.0000166066491
 20
-499.99992538509599
 30
0.0
 11
145.0024580128991
 21
-503.49925833076304
 31
0.0
 12
145.0024580128991
 22
-496.500592439429
 32
0.0
 13
145.0024580128991
 23
-496.500592439429
 33
0.0
  0
SOLID
  5
1BF
100
AcDbEntity
  8
IMPORTED
 62
               1
100
AcDbTrace
 10
-264.99998339335087
 20
-499.99992538509599
 30
0.0
 11
-225.00242479960087
 21
-496.50059243942894
 31
0.0
 12
-225.00242479960087
 22
-503.49925833076304
 32
0.0
 13
-225.00242479960087
 23
-503.49925833076304
 33
0.0
  0
MTEXT
  5
1C0
100
AcDbEntity
  8
IMPORTED
 62
               1
100
AcDbMText
 10
-71.749983393350874
 20
-441.49643587626849
 30
0.0
 40
32.576822916666664
 41
0.0
 71
               1
 72
               1
  1
450
  7
_______
  0
LINE
  5
1C1
100
AcDbEntity
  8
IMPORTED
  6
CONTINUOUS
 62
               1
100
AcDbLine
 10
245.00001638313168
 20
-212.99992538509605
 30
0.0
 11
485.02307187042146
 21
-212.99992538509605
 31
0.0
  0
LINE
  5
1C2
100
AcDbEntity
  8
IMPORTED
  6
CONTINUOUS
 62
               1
100
AcDbLine
 10
245.00001638313168
 20
-113.00002538509605
 30
0.0
 11
485.02307187042146
 21
-113.00002538509605
 31
0.0
  0
LINE
  5
1C3
100
AcDbEntity
  8
IMPORTED
  6
CONTINUOUS
 62
               1
100
AcDbLine
 10
445.02307201943307
 20
-252.99992523608444
 30
0.0
 11
445.02307201943307
 21
-212.99992538509605
 31
0.0
  0
LINE
  5
1C4
100
AcDbEntity
  8
IMPORTED
  6
CONTINUOUS
 62
               1
100
AcDbLine
 10
445.02307201943307
 20
-113.00002538509605
 30
0.0
 11
445.02307201943307
 21
-73.000025534107664
 31
0.0
  0
LINE
  5
1C5
100
AcDbEntity
  8
IMPORTED
  6
CONTINUOUS
 62
               1
100
AcDbLine
 10
445.02307201943307
 20
-212.99992538509605
 30
0.0
 11
445.02307201943307
 21
-113.00002538509605
 31
0.0
  0
SOLID
  5
1C6
100
AcDbEntity
  8
IMPORTED
 62
               1
100
AcDbTrace
 10
445.02307201943307
 20
-212.99992538509605
 30
0.0
 11
441.52373907376602
 21
-173.00236679134605
 31
0.0
 12
448.52240496510012
 22
-173.00236679134605
 32
0.0
 13
448.52240496510012
 23
-173.00236679134605
 33
0.0
  0
SOLID
  5
1C7
100
AcDbEntity
  8
IMPORTED
 62
               1
100
AcDbTrace
 10
445.02307201943307
 20
-113.00002538509605
 30
0.0
 11
448.52240496510012
 21
-152.99758397884605
 31
0.0
 12
441.52373907376602
 22
-152.99758397884605
 32
0.0
 13
441.52373907376602
 23
-152.99758397884605
 33
0.0
  0
MTEXT
  5
1C8
100
AcDbEntity
  8
IMPORTED
 62
               1
100
AcDbMText
 10
386.51958251060552
 20
-194.74997538509604
 30
0.0
 40
32.576822916666664
 41
0.0
 71
               1
 72
               1
  1
100
  7
_______
 11
0.0
 21
1.0
 31
0.0
  0
LINE
  5
1C9
100
AcDbEntity
  8
IMPORTED
  6
CONTINUOUS
 62
               1
100
AcDbLine
 10
245.00001638313168
 20
-113.00002538509605
 30
0.0
 11
485.02307187042146
 21
-113.00002538509605
 31
0.0
  0
LINE
  5
1CA
100
AcDbEntity
  8
IMPORTED
  6
CONTINUOUS
 62
               1
100
AcDbLine
 10
245.00001638313168
 20
-63.000025385096052
 30
0.0
 11
485.02307187042146
 21
-63.000025385096052
 31
0.0
  0
LINE
  5
1CB
100
AcDbEntity
  8
IMPORTED
  6
CONTINUOUS
 62
               1
100
AcDbLine
 10
445.02307201943307
 20
-153.00002523608444
 30
0.0
 11
445.02307201943307
 21
-113.00002538509605
 31
0.0
  0
LINE
  5
1CC
100
AcDbEntity
  8
IMPORTED
  6
CONTINUOUS
 62
               1
100
AcDbLine
 10
445.02307201943307
 20
-63.000025385096052
 30
0.0
 11
445.02307201943307
 21
-23.000025534107667
 31
0.0
  0
LINE
  5
1CD
100
AcDbEntity
  8
IMPORTED
  6
CONTINUOUS
 62
               1
100
AcDbLine
 10
445.02307201943307
 20
-113.00002538509605
 30
0.0
 11
445.02307201943307
 21
-63.000025385096052
 31
0.0
  0
SOLID
  5
1CE
100
AcDbEntity
  8
IMPORTED
 62
               1
100
AcDbTrace
 10
445.02307201943307
 20
-113.00002538509605
 30
0.0
 11
441.52373907376602
 21
-73.002466791346052
 31
0.0
 12
448.52240496510012
 22
-73.002466791346052
 32
0.0
 13
448.52240496510012
 23
-73.002466791346052
 33
0.0
  0
SOLID
  5
1CF
100
AcDbEntity
  8
IMPORTED
 62
               1
100
AcDbTrace
 10
445.02307201943307
 20
-63.000025385096052
 30
0.0
 11
448.52240496510012
 21
-102.99758397884605
 31
0.0
 12
441.52373907376602
 22
-102.99758397884605
 32
0.0
 13
441.52373907376602
 23
-102.99758397884605
 33
0.0
  0
MTEXT
  5
1D0
100
AcDbEntity
  8
IMPORTED
 62
               1
100
AcDbMText
 10
386.51958251060552
 20
-109.16669205176271
 30
0.0
 40
32.576822916666664
 41
0.0
 71
               1
 72
               1
  1
50
  7
_______
 11
0.0
 21
1.0
 31
0.0
  0
LINE
  5
1D1
100
AcDbEntity
  8
IMPORTED
  6
CONTINUOUS
 62
               1
100
AcDbLine
 10
245.00001638313168
 20
-63.000025385096052
 30
0.0
 11
485.02307187042146
 21
-63.000025385096052
 31
0.0
  0
LINE
  5
1D2
100
AcDbEntity
  8
IMPORTED
  6
CONTINUOUS
 62
               1
100
AcDbLine
 10
195.00001638313171
 20
436.99997461490392
 30
0.0
 11
485.02307187042146
 21
436.99997461490392
 31
0.0
  0
LINE
  5
1D3
100
AcDbEntity
  8
IMPORTED
  6
CONTINUOUS
 62
               1
100
AcDbLine
 10
445.02307201943307
 20
-103.00002523608444
 30
0.0
 11
445.02307201943307
 21
-63.000025385096052
 31
0.0
  0
LINE
  5
1D4
100
AcDbEntity
  8
IMPORTED
  6
CONTINUOUS
 62
               1
100
AcDbLine
 10
445.02307201943307
 20
436.99997461490392
 30
0.0
 11
445.02307201943307
 21
476.99997446589231
 31
0.0
  0
LINE
  5
1D5
100
AcDbEntity
  8
IMPORTED
  6
CONTINUOUS
 62
               1
100
AcDbLine
 10
445.02307201943307
 20
-63.000025385096052
 30
0.0
 11
445.02307201943307
 21
436.99997461490392
 31
0.0
  0
SOLID
  5
1D6
100
AcDbEntity
  8
IMPORTED
 62
               1
100
AcDbTrace
 10
445.02307201943307
 20
-63.000025385096052
 30
0.0
 11
441.52373907376602
 21
-23.002466791346055
 31
0.0
 12
448.52240496510012
 22
-23.002466791346055
 32
0.0
 13
448.52240496510012
 23
-23.002466791346055
 33
0.0
  0
SOLID
  5
1D7
100
AcDbEntity
  8
IMPORTED
 62
               1
100
AcDbTrace
 10
445.02307201943307
 20
436.99997461490392
 30
0.0
 11
448.52240496510012
 21
397.00241602115392
 31
0.0
 12
441.52373907376602
 22
397.00241602115392
 32
0.0
 13
441.52373907376602
 23
397.00241602115392
 33
0.0
  0
MTEXT
  5
1D8
100
AcDbEntity
  8
IMPORTED
 62
               1
100
AcDbMText
 10
386.51958251060552
 20
155.24997461490392
 30
0.0
 40
32.576822916666664
 41
0.0
 71
               1
 72
               1
  1
500
  7
_______
 11
0.0
 21
1.0
 31
0.0
  0
LINE
  5
1D9
100
AcDbEntity
  8
IMPORTED
  6
CONTINUOUS
 62
               1
100
AcDbLine
 10
195.00001638313171
 20
436.99997461490392
 30
0.0
 11
485.02307187042146
 21
436.99997461490392
 31
0.0
  0
LINE
  5
1DA
100
AcDbEntity
  8
IMPORTED
  6
CONTINUOUS
 62
               1
100
AcDbLine
 10
266.00001638313165
 20
486.99997461490392
 30
0.0
 11
485.02307187042146
 21
486.99997461490392
 31
0.0
  0
LINE
  5
1DB
100
AcDbEntity
  8
IMPORTED
  6
CONTINUOUS
 62
               1
100
AcDbLine
 10
445.02307201943307
 20
396.99997476391553
 30
0.0
 11
445.02307201943307
 21
436.99997461490392
 31
0.0
  0
LINE
  5
1DC
100
AcDbEntity
  8
IMPORTED
  6
CONTINUOUS
 62
               1
100
AcDbLine
 10
445.02307201943307
 20
486.99997461490392
 30
0.0
 11
445.02307201943307
 21
526.99997446589236
 31
0.0
  0
LINE
  5
1DD
100
AcDbEntity
  8
IMPORTED
  6
CONTINUOUS
 62
               1
100
AcDbLine
 10
445.02307201943307
 20
436.99997461490392
 30
0.0
 11
445.02307201943307
 21
486.99997461490392
 31
0.0
  0
SOLID
  5
1DE
100
AcDbEntity
  8
IMPORTED
 62
               1
100
AcDbTrace
 10
445.02307201943307
 20
436.99997461490392
 30
0.0
 11
441.52373907376602
 21
476.99753320865392
 31
0.0
 12
448.52240496510012
 22
476.99753320865392
 32
0.0
 13
448.52240496510012
 23
476.99753320865392
 33
0.0
  0
SOLID
  5
1DF
100
AcDbEntity
  8
IMPORTED
 62
               1
100
AcDbTrace
 10
445.02307201943307
 20
486.99997461490392
 30
0.0
 11
448.52240496510012
 21
447.00241602115392
 31
0.0
 12
441.52373907376602
 22
447.00241602115392
 32
0.0
 13
441.52373907376602
 23
447.00241602115392
 33
0.0
  0
MTEXT
  5
1E0
100
AcDbEntity
  8
IMPORTED
 62
               1
100
AcDbMText
 10
386.51958251060552
 20
440.83330794823723
 30
0.0
 40
32.576822916666664
 41
0.0
 71
               1
 72
               1
  1
50
  7
_______
 11
0.0
 21
1.0
 31
0.0
  0
LINE
  5
1E1
100
AcDbEntity
  8
IMPORTED
  6
CONTINUOUS
 62
               1
100
AcDbLine
 10
266.00001638313165
 20
486.99997461490392
 30
0.0
 11
485.02307187042146
 21
486.99997461490392
 31
0.0
  0
LINE
  5
1E2
100
AcDbEntity
  8
IMPORTED
  6
CONTINUOUS
 62
               1
100
AcDbLine
 10
265.99991638313168
 20
1286.9999746149037
 30
0.0
 11
485.0230718704214
 21
1286.9999746149037
 31
0.0
  0
LINE
  5
1E3
100
AcDbEntity
  8
IMPORTED
  6
CONTINUOUS
 62
               1
100
AcDbLine
 10
445.02307201943302
 20
446.99997476391553
 30
0.0
 11
445.02307201943302
 21
486.99997461490392
 31
0.0
  0
LINE
  5
1E4
100
AcDbEntity
  8
IMPORTED
  6
CONTINUOUS
 62
               1
100
AcDbLine
 10
445.02307201943302
 20
1286.9999746149037
 30
0.0
 11
445.02307201943302
 21
1326.9999744658921
 31
0.0
  0
LINE
  5
1E5
100
AcDbEntity
  8
IMPORTED
  6
CONTINUOUS
 62
               1
100
AcDbLine
 10
445.02307201943302
 20
486.99997461490392
 30
0.0
 11
445.02307201943302
 21
1286.9999746149037
 31
0.0
  0
SOLID
  5
1E6
100
AcDbEntity
  8
IMPORTED
 62
               1
100
AcDbTrace
 10
445.02307201943302
 20
486.99997461490392
 30
0.0
 11
441.52373907376597
 21
526.99753320865398
 31
0.0
 12
448.52240496510007
 22
526.99753320865398
 32
0.0
 13
448.52240496510007
 23
526.99753320865398
 33
0.0
  0
SOLID
  5
1E7
100
AcDbEntity
  8
IMPORTED
 62
               1
100
AcDbTrace
 10
445.02307201943302
 20
1286.9999746149037
 30
0.0
 11
448.52240496510007
 21
1247.0024160211537
 31
0.0
 12
441.52373907376597
 22
1247.0024160211537
 32
0.0
 13
441.52373907376597
 23
1247.0024160211537
 33
0.0
  0
MTEXT
  5
1E8
100
AcDbEntity
  8
IMPORTED
 62
               1
100
AcDbMText
 10
386.51958251060546
 20
855.24997461490386
 30
0.0
 40
32.576822916666664
 41
0.0
 71
               1
 72
               1
  1
800
  7
_______
 11
0.0
 21
1.0
 31
0.0
  0
LINE
  5
1E9
100
AcDbEntity
  8
IMPORTED
  6
CONTINUOUS
 62
               1
100
AcDbLine
 10
75.000016383131694
 20
1386.9999746149037
 30
0.0
 11
624.99999985098839
 21
1386.9999746149037
 31
0.0
  0
LINE
  5
1EA
100
AcDbEntity
  8
IMPORTED
  6
CONTINUOUS
 62
               1
100
AcDbLine
 10
266.00001638313165
 20
486.99997461490392
 30
0.0
 11
624.99999985098839
 21
486.99997461490392
 31
0.0
  0
LINE
  5
1EB
100
AcDbEntity
  8
IMPORTED
  6
CONTINUOUS
 62
               1
100
AcDbLine
 10
585.0
 20
1426.9999744658921
 30
0.0
 11
585.0
 21
1386.9999746149037
 31
0.0
  0
LINE
  5
1EC
100
AcDbEntity
  8
IMPORTED
  6
CONTINUOUS
 62
               1
100
AcDbLine
 10
585.0
 20
486.99997461490392
 30
0.0
 11
585.0
 21
446.99997476391553
 31
0.0
  0
LINE
  5
1ED
100
AcDbEntity
  8
IMPORTED
  6
CONTINUOUS
 62
               1
100
AcDbLine
 10
585.0
 20
1386.9999746149037
 30
0.0
 11
585.0
 21
486.99997461490392
 31
0.0
  0
SOLID
  5
1EE
100
AcDbEntity
  8
IMPORTED
 62
               1
100
AcDbTrace
 10
585.0
 20
1386.9999746149037
 30
0.0
 11
588.49933294566699
 21
1347.0024160211537
 31
0.0
 12
581.50066705433301
 22
1347.0024160211537
 32
0.0
 13
581.50066705433301
 23
1347.0024160211537
 33
0.0
  0
SOLID
  5
1EF
100
AcDbEntity
  8
IMPORTED
 62
               1
100
AcDbTrace
 10
585.0
 20
486.99997461490392
 30
0.0
 11
581.50066705433301
 21
526.99753320865398
 31
0.0
 12
588.49933294566699
 22
526.99753320865398
 32
0.0
 13
588.49933294566699
 23
526.99753320865398
 33
0.0
  0
MTEXT
  5
1F0
100
AcDbEntity
  8
IMPORTED
 62
               1
100
AcDbMText
 10
526.49651049117244
 20
905.24997461490386
 30
0.0
 40
32.576822916666664
 41
0.0
 71
               1
 72
               1
  1
900
  7
_______
 11
0.0
 21
1.0
 31
0.0
  0
LINE
  5
1F1
100
AcDbEntity
  8
IMPORTED
  6
CONTINUOUS
 62
               1
100
AcDbLine
 10
266.00001638313165
 20
486.99997461490392
 30
0.0
 11
624.99999985098839
 21
486.99997461490392
 31
0.0
  0
LINE
  5
1F2
100
AcDbEntity
  8
IMPORTED
  6
CONTINUOUS
 62
               1
100
AcDbLine
 10
245.00001638313168
 20
-212.99992538509605
 30
0.0
 11
624.99999985098839
 21
-212.99992538509605
 31
0.0
  0
LINE
  5
1F3
100
AcDbEntity
  8
IMPORTED
  6
CONTINUOUS
 62
               1
100
AcDbLine
 10
585.0
 20
526.99997446589236
 30
0.0
 11
585.0
 21
486.99997461490392
 31
0.0
  0
LINE
  5
1F4
100
AcDbEntity
  8
IMPORTED
  6
CONTINUOUS
 62
               1
100
AcDbLine
 10
585.0
 20
-212.99992538509605
 30
0.0
 11
585.0
 21
-252.99992523608444
 31
0.0
  0
LINE
  5
1F5
100
AcDbEntity
  8
IMPORTED
  6
CONTINUOUS
 62
               1
100
AcDbLine
 10
585.0
 20
486.99997461490392
 30
0.0
 11
585.0
 21
-212.99992538509605
 31
0.0
  0
SOLID
  5
1F6
100
AcDbEntity
  8
IMPORTED
 62
               1
100
AcDbTrace
 10
585.0
 20
486.99997461490392
 30
0.0
 11
588.49933294566699
 21
447.00241602115392
 31
0.0
 12
581.50066705433301
 22
447.00241602115392
 32
0.0
 13
581.50066705433301
 23
447.00241602115392
 33
0.0
  0
SOLID
  5
1F7
100
AcDbEntity
  8
IMPORTED
 62
               1
100
AcDbTrace
 10
585.0
 20
-212.99992538509605
 30
0.0
 11
581.50066705433301
 21
-173.00236679134605
 31
0.0
 12
588.49933294566699
 22
-173.00236679134605
 32
0.0
 13
588.49933294566699
 23
-173.00236679134605
 33
0.0
  0
MTEXT
  5
1F8
100
AcDbEntity
  8
IMPORTED
 62
               1
100
AcDbMText
 10
526.49651049117244
 20
105.25002461490395
 30
0.0
 40
32.576822916666664
 41
0.0
 71
               1
 72
               1
  1
700
  7
_______
 11
0.0
 21
1.0
 31
0.0
  0
LINE
  5
1F9
100
AcDbEntity
  8
IMPORTED
  6
CONTINUOUS
 62
               1
100
AcDbLine
 10
-2039.9999833933507
 20
1446.9999743913863
 30
0.0
 11
-2039.9999833933507
 21
1859.9999998509884
 31
0.0
  0
LINE
  5
1FA
100
AcDbEntity
  8
IMPORTED
  6
CONTINUOUS
 62
               1
100
AcDbLine
 10
-39.999983393350888
 20
1446.9999743913863
 30
0.0
 11
-39.999983393350888
 21
1859.9999998509884
 31
0.0
  0
LINE
  5
1FB
100
AcDbEntity
  8
IMPORTED
  6
CONTINUOUS
 62
               1
100
AcDbLine
 10
-2079.9999832443391
 20
1820.0
 30
0.0
 11
-2039.9999833933507
 21
1820.0
 31
0.0
  0
LINE
  5
1FC
100
AcDbEntity
  8
IMPORTED
  6
CONTINUOUS
 62
               1
100
AcDbLine
 10
-39.999983393350888
 20
1820.0
 30
0.0
 11
0.0000164576375017
 21
1820.0
 31
0.0
  0
LINE
  5
1FD
100
AcDbEntity
  8
IMPORTED
  6
CONTINUOUS
 62
               1
100
AcDbLine
 10
-2039.9999833933507
 20
1820.0
 30
0.0
 11
-39.999983393350888
 21
1820.0
 31
0.0
  0
SOLID
  5
1FE
100
AcDbEntity
  8
IMPORTED
 62
               1
100
AcDbTrace
 10
-2039.9999833933507
 20
1820.0
 30
0.0
 11
-2000.0024247996007
 21
1823.499332945667
 31
0.0
 12
-2000.0024247996007
 22
1816.500667054333
 32
0.0
 13
-2000.0024247996007
 23
1816.500667054333
 33
0.0
  0
SOLID
  5
1FF
100
AcDbEntity
  8
IMPORTED
 62
               1
100
AcDbTrace
 10
-39.999983393350888
 20
1820.0
 30
0.0
 11
-79.997541987100874
 21
1816.500667054333
 31
0.0
 12
-79.997541987100874
 22
1823.499332945667
 32
0.0
 13
-79.997541987100874
 23
1823.499332945667
 33
0.0
  0
MTEXT
  5
200
100
AcDbEntity
  8
IMPORTED
 62
               1
100
AcDbMText
 10
-1082.3333167266842
 20
1878.5034895088274
 30
0.0
 40
32.576822916666664
 41
0.0
 71
               1
 72
               1
  1
2000
  7
_______
  0
LINE
  5
201
100
AcDbEntity
  8
IMPORTED
  6
CONTINUOUS
 62
               1
100
AcDbLine
 10
-2099.9999833933507
 20
1441.6295743913863
 30
0.0
 11
-2099.9999833933507
 21
1719.9999998509884
 31
0.0
  0
LINE
  5
202
100
AcDbEntity
  8
IMPORTED
  6
CONTINUOUS
 62
               1
100
AcDbLine
 10
-1979.9999833933507
 20
1441.6295743913863
 30
0.0
 11
-1979.9999833933507
 21
1719.9999998509884
 31
0.0
  0
LINE
  5
203
100
AcDbEntity
  8
IMPORTED
  6
CONTINUOUS
 62
               1
100
AcDbLine
 10
-2139.9999832443391
 20
1680.0
 30
0.0
 11
-2099.9999833933507
 21
1680.0
 31
0.0
  0
LINE
  5
204
100
AcDbEntity
  8
IMPORTED
  6
CONTINUOUS
 62
               1
100
AcDbLine
 10
-1979.9999833933507
 20
1680.0
 30
0.0
 11
-1939.9999835423623
 21
1680.0
 31
0.0
  0
LINE
  5
205
100
AcDbEntity
  8
IMPORTED
  6
CONTINUOUS
 62
               1
100
AcDbLine
 10
-2099.9999833933507
 20
1680.0
 30
0.0
 11
-1979.9999833933507
 21
1680.0
 31
0.0
  0
SOLID
  5
206
100
AcDbEntity
  8
IMPORTED
 62
               1
100
AcDbTrace
 10
-2099.9999833933507
 20
1680.0
 30
0.0
 11
-2060.0024247996007
 21
1683.499332945667
 31
0.0
 12
-2060.0024247996007
 22
1676.500667054333
 32
0.0
 13
-2060.0024247996007
 23
1676.500667054333
 33
0.0
  0
SOLID
  5
207
100
AcDbEntity
  8
IMPORTED
 62
               1
100
AcDbTrace
 10
-1979.9999833933507
 20
1680.0
 30
0.0
 11
-2019.9975419871007
 21
1676.500667054333
 31
0.0
 12
-2019.9975419871007
 22
1683.499332945667
 32
0.0
 13
-2019.9975419871007
 23
1683.499332945667
 33
0.0
  0
MTEXT
  5
208
100
AcDbEntity
  8
IMPORTED
 62
               1
100
AcDbMText
 10
-2071.7499833933507
 20
1738.5034895088274
 30
0.0
 40
32.576822916666664
 41
0.0
 71
               1
 72
               1
  1
120
  7
_______
  0
LINE
  5
209
100
AcDbEntity
  8
IMPORTED
  6
CONTINUOUS
 62
               1
100
AcDbLine
 10
-1979.9999833933507
 20
1441.6295743913863
 30
0.0
 11
-1979.9999833933507
 21
1719.9999998509884
 31
0.0
  0
LINE
  5
20A
100
AcDbEntity
  8
IMPORTED
  6
CONTINUOUS
 62
               1
100
AcDbLine
 10
-99.999983393350874
 20
1441.6295743913863
 30
0.0
 11
-99.999983393350874
 21
1719.9999998509884
 31
0.0
  0
LINE
  5
20B
100
AcDbEntity
  8
IMPORTED
  6
CONTINUOUS
 62
               1
100
AcDbLine
 10
-2019.9999832443391
 20
1680.0
 30
0.0
 11
-1979.9999833933507
 21
1680.0
 31
0.0
  0
LINE
  5
20C
100
AcDbEntity
  8
IMPORTED
  6
CONTINUOUS
 62
               1
100
AcDbLine
 10
-99.999983393350874
 20
1680.0
 30
0.0
 11
-59.999983542362493
 21
1680.0
 31
0.0
  0
LINE
  5
20D
100
AcDbEntity
  8
IMPORTED
  6
CONTINUOUS
 62
               1
100
AcDbLine
 10
-1979.9999833933507
 20
1680.0
 30
0.0
 11
-99.999983393350874
 21
1680.0
 31
0.0
  0
SOLID
  5
20E
100
AcDbEntity
  8
IMPORTED
 62
               1
100
AcDbTrace
 10
-1979.9999833933507
 20
1680.0
 30
0.0
 11
-1940.0024247996007
 21
1683.499332945667
 31
0.0
 12
-1940.0024247996007
 22
1676.500667054333
 32
0.0
 13
-1940.0024247996007
 23
1676.500667054333
 33
0.0
  0
SOLID
  5
20F
100
AcDbEntity
  8
IMPORTED
 62
               1
100
AcDbTrace
 10
-99.999983393350874
 20
1680.0
 30
0.0
 11
-139.99754198710087
 21
1676.500667054333
 31
0.0
 12
-139.99754198710087
 22
1683.499332945667
 32
0.0
 13
-139.99754198710087
 23
1683.499332945667
 33
0.0
  0
MTEXT
  5
210
100
AcDbEntity
  8
IMPORTED
 62
               1
100
AcDbMText
 10
-1082.333316726684
 20
1738.5034895088274
 30
0.0
 40
32.576822916666664
 41
0.0
 71
               1
 72
               1
  1
1880
  7
_______
  0
LINE
  5
211
100
AcDbEntity
  8
IMPORTED
  6
CONTINUOUS
 62
               1
100
AcDbLine
 10
-99.999983393350874
 20
1441.6295743913863
 30
0.0
 11
-99.999983393350874
 21
1719.9999998509884
 31
0.0
  0
LINE
  5
212
100
AcDbEntity
  8
IMPORTED
  6
CONTINUOUS
 62
               1
100
AcDbLine
 10
20.000016606649112
 20
1441.9999743913863
 30
0.0
 11
20.000016606649112
 21
1719.9999998509884
 31
0.0
  0
LINE
  5
213
100
AcDbEntity
  8
IMPORTED
  6
CONTINUOUS
 62
               1
100
AcDbLine
 10
-139.99998324433926
 20
1680.0
 30
0.0
 11
-99.999983393350874
 21
1680.0
 31
0.0
  0
LINE
  5
214
100
AcDbEntity
  8
IMPORTED
  6
CONTINUOUS
 62
               1
100
AcDbLine
 10
20.000016606649112
 20
1680.0
 30
0.0
 11
60.0000164576375
 21
1680.0
 31
0.0
  0
LINE
  5
215
100
AcDbEntity
  8
IMPORTED
  6
CONTINUOUS
 62
               1
100
AcDbLine
 10
-99.999983393350874
 20
1680.0
 30
0.0
 11
20.000016606649112
 21
1680.0
 31
0.0
  0
SOLID
  5
216
100
AcDbEntity
  8
IMPORTED
 62
               1
100
AcDbTrace
 10
-99.999983393350874
 20
1680.0
 30
0.0
 11
-60.002424799600881
 21
1683.499332945667
 31
0.0
 12
-60.002424799600881
 22
1676.500667054333
 32
0.0
 13
-60.002424799600881
 23
1676.500667054333
 33
0.0
  0
SOLID
  5
217
100
AcDbEntity
  8
IMPORTED
 62
               1
100
AcDbTrace
 10
20.000016606649112
 20
1680.0
 30
0.0
 11
-19.997541987100888
 21
1676.500667054333
 31
0.0
 12
-19.997541987100888
 22
1683.499332945667
 32
0.0
 13
-19.997541987100888
 23
1683.499332945667
 33
0.0
  0
MTEXT
  5
218
100
AcDbEntity
  8
IMPORTED
 62
               1
100
AcDbMText
 10
-71.749983393350874
 20
1738.5034895088274
 30
0.0
 40
32.576822916666664
 41
0.0
 71
               1
 72
               1
  1
120
  7
_______
  0
POLYLINE
  5
219
100
AcDbEntity
  8
IMPORTED
  6
CONTINUOUS
 62
              30
100
AcDb2dPolyline
 66
               1
 10
0.0
 20
0.0
 30
0.0
 70
             129
  0
VERTEX
  5
21A
100
AcDbEntity
  8
IMPORTED
  6
CONTINUOUS
 62
              30
100
AcDbVertex
100
AcDb2dVertex
 10
-1973.4999833933507
 20
1286.9999746149037
 30
0.0
  0
VERTEX
  5
21B
100
AcDbEntity
  8
IMPORTED
  6
CONTINUOUS
 62
              30
100
AcDbVertex
100
AcDb2dVertex
 10
-106.49998339335087
 20
1286.9999746149037
 30
0.0
  0
VERTEX
  5
21C
100
AcDbEntity
  8
IMPORTED
  6
CONTINUOUS
 62
              30
100
AcDbVertex
100
AcDb2dVertex
 10
-106.49998339335087
 20
1191.9999746149037
 30
0.0
  0
VERTEX
  5
21D
100
AcDbEntity
  8
IMPORTED
  6
CONTINUOUS
 62
              30
100
AcDbVertex
100
AcDb2dVertex
 10
-1973.4999833933507
 20
1191.9999746149037
 30
0.0
  0
VERTEX
  5
21E
100
AcDbEntity
  8
IMPORTED
  6
CONTINUOUS
 62
              30
100
AcDbVertex
100
AcDb2dVertex
 10
-1973.4999833933507
 20
1286.9999746149037
 30
0.0
  0
SEQEND
  5
21F
100
AcDbEntity
  8
IMPORTED
  6
CONTINUOUS
 62
              30
  0
POLYLINE
  5
220
100
AcDbEntity
  8
IMPORTED
  6
CONTINUOUS
 62
              30
100
AcDb2dPolyline
 66
               1
 10
0.0
 20
0.0
 30
0.0
 70
             129
  0
VERTEX
  5
221
100
AcDbEntity
  8
IMPORTED
  6
CONTINUOUS
 62
              30
100
AcDbVertex
100
AcDb2dVertex
 10
-2214.9999833933507
 20
436.99997461490392
 30
0.0
  0
VERTEX
  5
222
100
AcDbEntity
  8
IMPORTED
  6
CONTINUOUS
 62
              30
100
AcDbVertex
100
AcDb2dVertex
 10
-1864.9999833933507
 20
436.99997461490392
 30
0.0
  0
VERTEX
  5
223
100
AcDbEntity
  8
IMPORTED
  6
CONTINUOUS
 62
              30
100
AcDbVertex
100
AcDb2dVertex
 10
-1864.9999833933507
 20
-63.000025385096052
 30
0.0
  0
VERTEX
  5
224
100
AcDbEntity
  8
IMPORTED
  6
CONTINUOUS
 62
              30
100
AcDbVertex
100
AcDb2dVertex
 10
-2214.9999833933507
 20
-63.000025385096052
 30
0.0
  0
VERTEX
  5
225
100
AcDbEntity
  8
IMPORTED
  6
CONTINUOUS
 62
              30
100
AcDbVertex
100
AcDb2dVertex
 10
-2214.9999833933507
 20
436.99997461490392
 30
0.0
  0
SEQEND
  5
226
100
AcDbEntity
  8
IMPORTED
  6
CONTINUOUS
 62
              30
  0
LINE
  5
227
100
AcDbEntity
  8
IMPORTED
  6
CONTINUOUS
 62
              30
100
AcDbLine
 10
-2214.9999833933507
 20
396.7663746149039
 30
0.0
 11
-2182.8131833933508
 21
436.99997461490392
 31
0.0
  0
LINE
  5
228
100
AcDbEntity
  8
IMPORTED
  6
CONTINUOUS
 62
              30
100
AcDbLine
 10
-2214.9999833933507
 20
184.63437461490392
 30
0.0
 11
-2013.1075833933508
 21
436.99997461490392
 31
0.0
  0
LINE
  5
229
100
AcDbEntity
  8
IMPORTED
  6
CONTINUOUS
 62
              30
100
AcDbLine
 10
-2214.9999833933507
 20
-27.497625385096061
 30
0.0
 11
-1864.9999833933507
 21
410.00237461490389
 31
0.0
  0
LINE
  5
22A
100
AcDbEntity
  8
IMPORTED
  6
CONTINUOUS
 62
              30
100
AcDbLine
 10
-2073.6964833933507
 20
-63.000025385096052
 30
0.0
 11
-1865.0000833933507
 21
197.87037461490394
 31
0.0
  0
LINE
  5
22B
100
AcDbEntity
  8
IMPORTED
  6
CONTINUOUS
 62
              30
100
AcDbLine
 10
-1903.9908833933507
 20
-63.000025385096052
 30
0.0
 11
-1865.0000833933507
 21
-14.26162538509606
 31
0.0
  0
LINE
  5
22C
100
AcDbEntity
  8
IMPORTED
  6
CONTINUOUS
 62
              30
100
AcDbLine
 10
-2214.9999833933507
 20
421.51517461490391
 30
0.0
 11
-2202.6121833933507
 21
436.99997461490392
 31
0.0
  0
LINE
  5
22D
100
AcDbEntity
  8
IMPORTED
  6
CONTINUOUS
 62
              30
100
AcDbLine
 10
-2214.9999833933507
 20
209.38317461490394
 30
0.0
 11
-2032.9065833933507
 21
436.99997461490392
 31
0.0
  0
LINE
  5
22E
100
AcDbEntity
  8
IMPORTED
  6
CONTINUOUS
 62
              30
100
AcDbLine
 10
-2214.9999833933507
 20
-2.7488253850960618
 30
0.0
 11
-1864.9999833933507
 21
434.7511746149039
 31
0.0
  0
LINE
  5
22F
100
AcDbEntity
  8
IMPORTED
  6
CONTINUOUS
 62
              30
100
AcDbLine
 10
-2093.4954833933507
 20
-63.000025385096052
 30
0.0
 11
-1865.0000833933507
 21
222.61917461490393
 31
0.0
  0
LINE
  5
230
100
AcDbEntity
  8
IMPORTED
  6
CONTINUOUS
 62
              30
100
AcDbLine
 10
-1923.7898833933507
 20
-63.000025385096052
 30
0.0
 11
-1865.0000833933507
 21
10.487174614903939
 31
0.0
  0
LINE
  5
231
100
AcDbEntity
  8
IMPORTED
  6
CONTINUOUS
 62
              30
100
AcDbLine
 10
-2214.9999833933507
 20
234.13197461490392
 30
0.0
 11
-2052.7055833933509
 21
436.99997461490392
 31
0.0
  0
LINE
  5
232
100
AcDbEntity
  8
IMPORTED
  6
CONTINUOUS
 62
              30
100
AcDbLine
 10
-2214.9999833933507
 20
21.999974614903937
 30
0.0
 11
-1882.9999833933507
 21
436.99997461490392
 31
0.0
  0
LINE
  5
233
100
AcDbEntity
  8
IMPORTED
  6
CONTINUOUS
 62
              30
100
AcDbLine
 10
-2113.2943833933509
 20
-63.000025385096052
 30
0.0
 11
-1864.9999833933507
 21
247.36797461490391
 31
0.0
  0
LINE
  5
234
100
AcDbEntity
  8
IMPORTED
  6
CONTINUOUS
 62
              30
100
AcDbLine
 10
-1943.5888833933507
 20
-63.000025385096052
 30
0.0
 11
-1865.0000833933507
 21
35.235974614903938
 31
0.0
  0
LINE
  5
235
100
AcDbEntity
  8
IMPORTED
  6
CONTINUOUS
 62
              30
100
AcDbLine
 10
-2099.999883393351
 20
431.91487461490391
 30
0.0
 11
-2095.9318833933507
 21
436.99987461490389
 31
0.0
  0
LINE
  5
236
100
AcDbEntity
  8
IMPORTED
  6
CONTINUOUS
 62
              30
100
AcDbLine
 10
-2099.9999833933507
 20
376.67217461490389
 30
0.0
 11
-2051.7377833933506
 21
436.99997461490392
 31
0.0
  0
LINE
  5
237
100
AcDbEntity
  8
IMPORTED
  6
CONTINUOUS
 62
              30
100
AcDbLine
 10
-2099.9999833933507
 20
321.42957461490391
 30
0.0
 11
-2007.5435833933507
 21
436.99997461490392
 31
0.0
  0
LINE
  5
238
100
AcDbEntity
  8
IMPORTED
  6
CONTINUOUS
 62
              30
100
AcDbLine
 10
-2099.999883393351
 20
266.18677461490392
 30
0.0
 11
-1979.9998833933507
 21
416.18677461490392
 31
0.0
  0
LINE
  5
239
100
AcDbEntity
  8
IMPORTED
  6
CONTINUOUS
 62
              30
100
AcDbLine
 10
-2099.999883393351
 20
210.94417461490391
 30
0.0
 11
-1979.9998833933507
 21
360.94407461490391
 31
0.0
  0
LINE
  5
23A
100
AcDbEntity
  8
IMPORTED
  6
CONTINUOUS
 62
              30
100
AcDbLine
 10
-2099.999883393351
 20
155.70137461490393
 30
0.0
 11
-1979.9998833933507
 21
305.7013746149039
 31
0.0
  0
LINE
  5
23B
100
AcDbEntity
  8
IMPORTED
  6
CONTINUOUS
 62
              30
100
AcDbLine
 10
-2099.999883393351
 20
100.45867461490393
 30
0.0
 11
-1979.9998833933507
 21
250.45867461490394
 31
0.0
  0
LINE
  5
23C
100
AcDbEntity
  8
IMPORTED
  6
CONTINUOUS
 62
              30
100
AcDbLine
 10
-2099.999883393351
 20
45.215974614903928
 30
0.0
 11
-1979.9998833933507
 21
195.21587461490392
 31
0.0
  0
LINE
  5
23D
100
AcDbEntity
  8
IMPORTED
  6
CONTINUOUS
 62
              30
100
AcDbLine
 10
-2099.999883393351
 20
-10.026725385096061
 30
0.0
 11
-1979.9998833933507
 21
139.97327461490394
 31
0.0
  0
LINE
  5
23E
100
AcDbEntity
  8
IMPORTED
  6
CONTINUOUS
 62
              30
100
AcDbLine
 10
-2098.1843833933508
 20
-62.999925385096063
 30
0.0
 11
-1979.9999833933507
 21
84.730574614903929
 31
0.0
  0
LINE
  5
23F
100
AcDbEntity
  8
IMPORTED
  6
CONTINUOUS
 62
              30
100
AcDbLine
 10
-2053.9901833933509
 20
-62.999925385096063
 30
0.0
 11
-1979.9999833933507
 21
29.487874614903934
 31
0.0
  0
LINE
  5
240
100
AcDbEntity
  8
IMPORTED
  6
CONTINUOUS
 62
              30
100
AcDbLine
 10
-2009.7960833933507
 20
-62.999925385096063
 30
0.0
 11
-1980.0000833933507
 21
-25.754925385096058
 31
0.0
  0
LINE
  5
241
100
AcDbEntity
  8
IMPORTED
  6
CONTINUOUS
 62
              30
100
AcDbLine
 10
-2083.795983393351
 20
-63.000025385096052
 30
0.0
 11
-2099.9999833933507
 21
-42.745025385096056
 31
0.0
  0
LINE
  5
242
100
AcDbEntity
  8
IMPORTED
  6
CONTINUOUS
 62
              30
100
AcDbLine
 10
-2039.6018833933508
 20
-62.999925385096063
 30
0.0
 11
-2099.999883393351
 21
12.497574614903936
 31
0.0
  0
LINE
  5
243
100
AcDbEntity
  8
IMPORTED
  6
CONTINUOUS
 62
              30
100
AcDbLine
 10
-1995.4076833933507
 20
-62.999925385096063
 30
0.0
 11
-2099.999883393351
 21
67.740274614903939
 31
0.0
  0
LINE
  5
244
100
AcDbEntity
  8
IMPORTED
  6
CONTINUOUS
 62
              30
100
AcDbLine
 10
-1979.9998833933507
 20
-27.016925385096059
 30
0.0
 11
-2099.999883393351
 21
122.98307461490393
 31
0.0
  0
LINE
  5
245
100
AcDbEntity
  8
IMPORTED
  6
CONTINUOUS
 62
              30
100
AcDbLine
 10
-1979.9998833933507
 20
28.225874614903933
 30
0.0
 11
-2099.999883393351
 21
178.22577461490391
 31
0.0
  0
LINE
  5
246
100
AcDbEntity
  8
IMPORTED
  6
CONTINUOUS
 62
              30
100
AcDbLine
 10
-1979.9998833933507
 20
83.468374614903937
 30
0.0
 11
-2099.999883393351
 21
233.46837461490392
 31
0.0
  0
LINE
  5
247
100
AcDbEntity
  8
IMPORTED
  6
CONTINUOUS
 62
              30
100
AcDbLine
 10
-1979.9998833933507
 20
138.71117461490394
 30
0.0
 11
-2099.999883393351
 21
288.71107461490391
 31
0.0
  0
LINE
  5
248
100
AcDbEntity
  8
IMPORTED
  6
CONTINUOUS
 62
              30
100
AcDbLine
 10
-1979.9998833933507
 20
193.95387461490392
 30
0.0
 11
-2099.999883393351
 21
343.9538746149039
 31
0.0
  0
LINE
  5
249
100
AcDbEntity
  8
IMPORTED
  6
CONTINUOUS
 62
              30
100
AcDbLine
 10
-1979.9998833933507
 20
249.19667461490394
 30
0.0
 11
-2099.999883393351
 21
399.19667461490388
 31
0.0
  0
LINE
  5
24A
100
AcDbEntity
  8
IMPORTED
  6
CONTINUOUS
 62
              30
100
AcDbLine
 10
-1979.9998833933507
 20
304.43927461490392
 30
0.0
 11
-2086.0484833933506
 21
436.99997461490392
 31
0.0
  0
LINE
  5
24B
100
AcDbEntity
  8
IMPORTED
  6
CONTINUOUS
 62
              30
100
AcDbLine
 10
-1979.9998833933507
 20
359.68197461490394
 30
0.0
 11
-2041.8542833933507
 21
436.99997461490392
 31
0.0
  0
LINE
  5
24C
100
AcDbEntity
  8
IMPORTED
  6
CONTINUOUS
 62
              30
100
AcDbLine
 10
-1979.9999833933507
 20
414.92477461490392
 30
0.0
 11
-1997.6601833933507
 21
436.99997461490392
 31
0.0
  0
POLYLINE
  5
24D
100
AcDbEntity
  8
IMPORTED
  6
CONTINUOUS
 62
              30
100
AcDb2dPolyline
 66
               1
 10
0.0
 20
0.0
 30
0.0
 70
             129
  0
VERTEX
  5
24E
100
AcDbEntity
  8
IMPORTED
  6
CONTINUOUS
 62
              30
100
AcDbVertex
100
AcDb2dVertex
 10
-214.99998339335087
 20
436.99997461490392
 30
0.0
  0
VERTEX
  5
24F
100
AcDbEntity
  8
IMPORTED
  6
CONTINUOUS
 62
              30
100
AcDbVertex
100
AcDb2dVertex
 10
135.0000166066491
 20
436.99997461490392
 30
0.0
  0
VERTEX
  5
250
100
AcDbEntity
  8
IMPORTED
  6
CONTINUOUS
 62
              30
100
AcDbVertex
100
AcDb2dVertex
 10
135.0000166066491
 20
-63.000025385096052
 30
0.0
  0
VERTEX
  5
251
100
AcDbEntity
  8
IMPORTED
  6
CONTINUOUS
 62
              30
100
AcDbVertex
100
AcDb2dVertex
 10
-214.99998339335087
 20
-63.000025385096052
 30
0.0
  0
VERTEX
  5
252
100
AcDbEntity
  8
IMPORTED
  6
CONTINUOUS
 62
              30
100
AcDbVertex
100
AcDb2dVertex
 10
-214.99998339335087
 20
436.99997461490392
 30
0.0
  0
SEQEND
  5
253
100
AcDbEntity
  8
IMPORTED
  6
CONTINUOUS
 62
              30
  0
LINE
  5
254
100
AcDbEntity
  8
IMPORTED
  6
CONTINUOUS
 62
              30
100
AcDbLine
 10
-214.99998339335087
 20
396.7663746149039
 30
0.0
 11
-182.81318339335087
 21
436.99997461490392
 31
0.0
  0
LINE
  5
255
100
AcDbEntity
  8
IMPORTED
  6
CONTINUOUS
 62
              30
100
AcDbLine
 10
-214.99998339335087
 20
184.63437461490392
 30
0.0
 11
-13.107583393350884
 21
436.99997461490392
 31
0.0
  0
LINE
  5
256
100
AcDbEntity
  8
IMPORTED
  6
CONTINUOUS
 62
              30
100
AcDbLine
 10
-214.99998339335087
 20
-27.497625385096061
 30
0.0
 11
135.0000166066491
 21
410.00237461490389
 31
0.0
  0
LINE
  5
257
100
AcDbEntity
  8
IMPORTED
  6
CONTINUOUS
 62
              30
100
AcDbLine
 10
-73.696483393350874
 20
-63.000025385096052
 30
0.0
 11
134.99991660664909
 21
197.87037461490394
 31
0.0
  0
LINE
  5
258
100
AcDbEntity
  8
IMPORTED
  6
CONTINUOUS
 62
              30
100
AcDbLine
 10
96.009116606649116
 20
-63.000025385096052
 30
0.0
 11
134.99991660664909
 21
-14.26162538509606
 31
0.0
  0
LINE
  5
259
100
AcDbEntity
  8
IMPORTED
  6
CONTINUOUS
 62
              30
100
AcDbLine
 10
-214.99998339335087
 20
421.51517461490391
 30
0.0
 11
-202.61218339335088
 21
436.99997461490392
 31
0.0
  0
LINE
  5
25A
100
AcDbEntity
  8
IMPORTED
  6
CONTINUOUS
 62
              30
100
AcDbLine
 10
-214.99998339335087
 20
209.38317461490394
 30
0.0
 11
-32.906583393350886
 21
436.99997461490392
 31
0.0
  0
LINE
  5
25B
100
AcDbEntity
  8
IMPORTED
  6
CONTINUOUS
 62
              30
100
AcDbLine
 10
-214.99998339335087
 20
-2.7488253850960618
 30
0.0
 11
135.0000166066491
 21
434.7511746149039
 31
0.0
  0
LINE
  5
25C
100
AcDbEntity
  8
IMPORTED
  6
CONTINUOUS
 62
              30
100
AcDbLine
 10
-93.495483393350867
 20
-63.000025385096052
 30
0.0
 11
134.99991660664909
 21
222.61917461490393
 31
0.0
  0
LINE
  5
25D
100
AcDbEntity
  8
IMPORTED
  6
CONTINUOUS
 62
              30
100
AcDbLine
 10
76.210116606649109
 20
-63.000025385096052
 30
0.0
 11
134.99991660664909
 21
10.487174614903939
 31
0.0
  0
LINE
  5
25E
100
AcDbEntity
  8
IMPORTED
  6
CONTINUOUS
 62
              30
100
AcDbLine
 10
-214.99998339335087
 20
234.13197461490392
 30
0.0
 11
-52.705583393350885
 21
436.99997461490392
 31
0.0
  0
LINE
  5
25F
100
AcDbEntity
  8
IMPORTED
  6
CONTINUOUS
 62
              30
100
AcDbLine
 10
-214.99998339335087
 20
21.999974614903937
 30
0.0
 11
117.00001660664911
 21
436.99997461490392
 31
0.0
  0
LINE
  5
260
100
AcDbEntity
  8
IMPORTED
  6
CONTINUOUS
 62
              30
100
AcDbLine
 10
-113.29438339335087
 20
-63.000025385096052
 30
0.0
 11
135.0000166066491
 21
247.36797461490391
 31
0.0
  0
LINE
  5
261
100
AcDbEntity
  8
IMPORTED
  6
CONTINUOUS
 62
              30
100
AcDbLine
 10
56.411116606649109
 20
-63.000025385096052
 30
0.0
 11
134.99991660664909
 21
35.235974614903938
 31
0.0
  0
POLYLINE
  5
262
100
AcDbEntity
  8
IMPORTED
  6
CONTINUOUS
 62
              30
100
AcDb2dPolyline
 66
               1
 10
0.0
 20
0.0
 30
0.0
 70
             129
  0
VERTEX
  5
263
100
AcDbEntity
  8
IMPORTED
  6
CONTINUOUS
 62
              30
100
AcDbVertex
100
AcDb2dVertex
 10
1364.9999166066489
 20
-62.999925385096063
 30
0.0
  0
VERTEX
  5
264
100
AcDbEntity
  8
IMPORTED
  6
CONTINUOUS
 62
              30
100
AcDbVertex
100
AcDb2dVertex
 10
1814.9999166066489
 20
-62.999925385096063
 30
0.0
  0
VERTEX
  5
265
100
AcDbEntity
  8
IMPORTED
  6
CONTINUOUS
 62
              30
100
AcDbVertex
100
AcDb2dVertex
 10
1814.9999166066489
 20
-162.99992538509605
 30
0.0
  0
VERTEX
  5
266
100
AcDbEntity
  8
IMPORTED
  6
CONTINUOUS
 62
              30
100
AcDbVertex
100
AcDb2dVertex
 10
1364.9999166066489
 20
-162.99992538509605
 30
0.0
  0
VERTEX
  5
267
100
AcDbEntity
  8
IMPORTED
  6
CONTINUOUS
 62
              30
100
AcDbVertex
100
AcDb2dVertex
 10
1364.9999166066489
 20
-62.999925385096063
 30
0.0
  0
SEQEND
  5
268
100
AcDbEntity
  8
IMPORTED
  6
CONTINUOUS
 62
              30
  0
POLYLINE
  5
269
100
AcDbEntity
  8
IMPORTED
  6
CONTINUOUS
 62
              30
100
AcDb2dPolyline
 66
               1
 10
0.0
 20
0.0
 30
0.0
 70
             129
  0
VERTEX
  5
26A
100
AcDbEntity
  8
IMPORTED
  6
CONTINUOUS
 62
              30
100
AcDbVertex
100
AcDb2dVertex
 10
1364.9999166066489
 20
-13.000025385096061
 30
0.0
  0
VERTEX
  5
26B
100
AcDbEntity
  8
IMPORTED
  6
CONTINUOUS
 62
              30
100
AcDbVertex
100
AcDb2dVertex
 10
1814.9999166066489
 20
-13.000025385096061
 30
0.0
  0
VERTEX
  5
26C
100
AcDbEntity
  8
IMPORTED
  6
CONTINUOUS
 62
              30
100
AcDbVertex
100
AcDb2dVertex
 10
1814.9999166066489
 20
-63.000025385096052
 30
0.0
  0
VERTEX
  5
26D
100
AcDbEntity
  8
IMPORTED
  6
CONTINUOUS
 62
              30
100
AcDbVertex
100
AcDb2dVertex
 10
1364.9999166066489
 20
-63.000025385096052
 30
0.0
  0
VERTEX
  5
26E
100
AcDbEntity
  8
IMPORTED
  6
CONTINUOUS
 62
              30
100
AcDbVertex
100
AcDb2dVertex
 10
1364.9999166066489
 20
-13.000025385096061
 30
0.0
  0
SEQEND
  5
26F
100
AcDbEntity
  8
IMPORTED
  6
CONTINUOUS
 62
              30
  0
LINE
  5
270
100
AcDbEntity
  8
IMPORTED
  6
CONTINUOUS
 62
              30
100
AcDbLine
 10
1721.8577166066489
 20
-12.82442538509606
 30
0.0
 11
1771.8577166066489
 21
-62.824425385096063
 31
0.0
  0
LINE
  5
271
100
AcDbEntity
  8
IMPORTED
  6
CONTINUOUS
 62
              30
100
AcDbLine
 10
1735.9999166066489
 20
-12.82442538509606
 30
0.0
 11
1785.9999166066489
 21
-62.824425385096063
 31
0.0
  0
LINE
  5
272
100
AcDbEntity
  8
IMPORTED
  6
CONTINUOUS
 62
              30
100
AcDbLine
 10
1571.8577166066489
 20
-12.82442538509606
 30
0.0
 11
1621.8577166066489
 21
-62.824425385096063
 31
0.0
  0
LINE
  5
273
100
AcDbEntity
  8
IMPORTED
  6
CONTINUOUS
 62
              30
100
AcDbLine
 10
1585.9999166066489
 20
-12.82442538509606
 30
0.0
 11
1635.9999166066489
 21
-62.824425385096063
 31
0.0
  0
LINE
  5
274
100
AcDbEntity
  8
IMPORTED
  6
CONTINUOUS
 62
              30
100
AcDbLine
 10
1421.8577166066489
 20
-12.82442538509606
 30
0.0
 11
1471.8577166066489
 21
-62.824425385096063
 31
0.0
  0
LINE
  5
275
100
AcDbEntity
  8
IMPORTED
  6
CONTINUOUS
 62
              30
100
AcDbLine
 10
1435.9999166066489
 20
-12.82442538509606
 30
0.0
 11
1485.9999166066489
 21
-62.824425385096063
 31
0.0
  0
LINE
  5
276
100
AcDbEntity
  8
IMPORTED
  6
CONTINUOUS
 62
              30
100
AcDbLine
 10
1785.1286166066488
 20
-162.87872538509603
 30
0.0
 11
1727.3936166066489
 21
-62.878725385096061
 31
0.0
  0
LINE
  5
277
100
AcDbEntity
  8
IMPORTED
  6
CONTINUOUS
 62
              30
100
AcDbLine
 10
1741.827316606649
 20
-87.878725385096047
 30
0.0
 11
1756.261116606649
 21
-62.878725385096061
 31
0.0
  0
LINE
  5
278
100
AcDbEntity
  8
IMPORTED
  6
CONTINUOUS
 62
              30
100
AcDbLine
 10
1770.6948166066488
 20
-137.87872538509606
 30
0.0
 11
1756.2610166066488
 21
-162.87872538509603
 31
0.0
  0
LINE
  5
279
100
AcDbEntity
  8
IMPORTED
  6
CONTINUOUS
 62
              30
100
AcDbLine
 10
1701.1286166066488
 20
-162.87872538509603
 30
0.0
 11
1643.3936166066489
 21
-62.878725385096061
 31
0.0
  0
LINE
  5
27A
100
AcDbEntity
  8
IMPORTED
  6
CONTINUOUS
 62
              30
100
AcDbLine
 10
1657.827316606649
 20
-87.878725385096047
 30
0.0
 11
1672.261116606649
 21
-62.878725385096061
 31
0.0
  0
LINE
  5
27B
100
AcDbEntity
  8
IMPORTED
  6
CONTINUOUS
 62
              30
100
AcDbLine
 10
1686.6948166066488
 20
-137.87872538509606
 30
0.0
 11
1672.2610166066488
 21
-162.87872538509603
 31
0.0
  0
LINE
  5
27C
100
AcDbEntity
  8
IMPORTED
  6
CONTINUOUS
 62
              30
100
AcDbLine
 10
1617.1286166066488
 20
-162.87872538509603
 30
0.0
 11
1559.3936166066489
 21
-62.878725385096061
 31
0.0
  0
LINE
  5
27D
100
AcDbEntity
  8
IMPORTED
  6
CONTINUOUS
 62
              30
100
AcDbLine
 10
1573.827316606649
 20
-87.878725385096047
 30
0.0
 11
1588.261116606649
 21
-62.878725385096061
 31
0.0
  0
LINE
  5
27E
100
AcDbEntity
  8
IMPORTED
  6
CONTINUOUS
 62
              30
100
AcDbLine
 10
1602.6948166066488
 20
-137.87872538509606
 30
0.0
 11
1588.261016606649
 21
-162.87872538509603
 31
0.0
  0
LINE
  5
27F
100
AcDbEntity
  8
IMPORTED
  6
CONTINUOUS
 62
              30
100
AcDbLine
 10
1533.1286166066488
 20
-162.87872538509603
 30
0.0
 11
1475.3936166066489
 21
-62.878725385096061
 31
0.0
  0
LINE
  5
280
100
AcDbEntity
  8
IMPORTED
  6
CONTINUOUS
 62
              30
100
AcDbLine
 10
1489.827316606649
 20
-87.878725385096047
 30
0.0
 11
1504.261116606649
 21
-62.878725385096061
 31
0.0
  0
LINE
  5
281
100
AcDbEntity
  8
IMPORTED
  6
CONTINUOUS
 62
              30
100
AcDbLine
 10
1518.6948166066488
 20
-137.87872538509606
 30
0.0
 11
1504.261016606649
 21
-162.87872538509603
 31
0.0
  0
LINE
  5
282
100
AcDbEntity
  8
IMPORTED
  6
CONTINUOUS
 62
              30
100
AcDbLine
 10
1449.1286166066488
 20
-162.87872538509603
 30
0.0
 11
1391.3936166066489
 21
-62.878725385096061
 31
0.0
  0
LINE
  5
283
100
AcDbEntity
  8
IMPORTED
  6
CONTINUOUS
 62
              30
100
AcDbLine
 10
1405.827316606649
 20
-87.878725385096047
 30
0.0
 11
1420.261116606649
 21
-62.878725385096061
 31
0.0
  0
LINE
  5
284
100
AcDbEntity
  8
IMPORTED
  6
CONTINUOUS
 62
              30
100
AcDbLine
 10
1434.6948166066488
 20
-137.87872538509606
 30
0.0
 11
1420.261016606649
 21
-162.87872538509603
 31
0.0
  0
LINE
  5
285
100
AcDbEntity
  8
IMPORTED
  6
CONTINUOUS
 62
              30
100
AcDbLine
 10
1414.9999166066489
 20
-226.82432538509605
 30
0.0
 11
1414.9999166066489
 21
-318.99992538509605
 31
0.0
  0
LINE
  5
286
100
AcDbEntity
  8
IMPORTED
  6
CONTINUOUS
 62
              30
100
AcDbLine
 10
1764.9999166066489
 20
-226.82432538509605
 30
0.0
 11
1764.9999166066489
 21
-318.99992538509605
 31
0.0
  0
POLYLINE
  5
287
100
AcDbEntity
  8
IMPORTED
  6
CONTINUOUS
 62
              30
100
AcDb2dPolyline
 66
               1
 10
0.0
 20
0.0
 30
0.0
 70
               1
 75
               5
  0
VERTEX
  5
288
100
AcDbEntity
  8
IMPORTED
  6
CONTINUOUS
 62
              30
100
AcDbVertex
100
AcDb2dVertex
 10
1414.9999166066489
 20
-298.99992538509605
 30
0.0
  0
VERTEX
  5
289
100
AcDbEntity
  8
IMPORTED
  6
CONTINUOUS
 62
              30
100
AcDbVertex
100
AcDb2dVertex
 10
1418.9997166066489
 20
-298.65002538509606
 30
0.0
  0
VERTEX
  5
28A
100
AcDbEntity
  8
IMPORTED
  6
CONTINUOUS
 62
              30
100
AcDbVertex
100
AcDb2dVertex
 10
1418.9997166066489
 20
-299.34982538509604
 30
0.0
  0
SEQEND
  5
28B
100
AcDbEntity
  8
IMPORTED
  6
CONTINUOUS
 62
              30
  0
POLYLINE
  5
28D
100
AcDbEntity
  8
IMPORTED
  6
CONTINUOUS
 62
              30
100
AcDb2dPolyline
 66
               1
 10
0.0
 20
0.0
 30
0.0
 70
               1
 75
               5
  0
VERTEX
  5
28E
100
AcDbEntity
  8
IMPORTED
  6
CONTINUOUS
 62
              30
100
AcDbVertex
100
AcDb2dVertex
 10
1764.9999166066489
 20
-298.99992538509605
 30
0.0
  0
VERTEX
  5
28F
100
AcDbEntity
  8
IMPORTED
  6
CONTINUOUS
 62
              30
100
AcDbVertex
100
AcDb2dVertex
 10
1761.0001166066488
 20
-299.34982538509604
 30
0.0
  0
VERTEX
  5
290
100
AcDbEntity
  8
IMPORTED
  6
CONTINUOUS
 62
              30
100
AcDbVertex
100
AcDb2dVertex
 10
1761.0001166066488
 20
-298.65002538509606
 30
0.0
  0
SEQEND
  5
291
100
AcDbEntity
  8
IMPORTED
  6
CONTINUOUS
 62
              30
  0
LINE
  5
293
100
AcDbEntity
  8
IMPORTED
  6
CONTINUOUS
 62
              30
100
AcDbLine
 10
1414.9999166066489
 20
-298.99992538509605
 30
0.0
 11
1764.9999166066489
 21
-298.99992538509605
 31
0.0
  0
MTEXT
  5
294
100
AcDbEntity
  8
IMPORTED
 62
              30
100
AcDbMText
 10
1544.138916606649
 20
-235.32986611947103
 30
0.0
 40
32.576797265624997
 41
0.0
 71
               1
 72
               1
  1
350
  7
_______
  0
LINE
  5
295
100
AcDbEntity
  8
IMPORTED
  6
CONTINUOUS
 62
              30
100
AcDbLine
 10
1764.9999166066489
 20
-226.99992538509605
 30
0.0
 11
1764.9999166066489
 21
-318.99992538509605
 31
0.0
  0
LINE
  5
296
100
AcDbEntity
  8
IMPORTED
  6
CONTINUOUS
 62
              30
100
AcDbLine
 10
1814.9999166066489
 20
-226.99992538509605
 30
0.0
 11
1814.9999166066489
 21
-318.99992538509605
 31
0.0
  0
LINE
  5
297
100
AcDbEntity
  8
IMPORTED
  6
CONTINUOUS
 62
              30
100
AcDbLine
 10
1814.9999166066489
 20
-298.99992538509605
 30
0.0
 11
1764.9999166066489
 21
-298.99992538509605
 31
0.0
  0
MTEXT
  5
298
100
AcDbEntity
  8
IMPORTED
 62
              30
100
AcDbMText
 10
1758.2500166066488
 20
-235.32986611947103
 30
0.0
 40
32.576797265624997
 41
0.0
 71
               1
 72
               1
  1
50
  7
_______
  0
LINE
  5
299
100
AcDbEntity
  8
IMPORTED
  6
CONTINUOUS
 62
              30
100
AcDbLine
 10
1364.9999166066489
 20
-251.49992538509605
 30
0.0
 11
1364.9999166066489
 21
-469.99992538509599
 31
0.0
  0
LINE
  5
29A
100
AcDbEntity
  8
IMPORTED
  6
CONTINUOUS
 62
              30
100
AcDbLine
 10
1814.9999166066489
 20
-246.99992538509605
 30
0.0
 11
1814.9999166066489
 21
-469.99992538509599
 31
0.0
  0
POLYLINE
  5
29B
100
AcDbEntity
  8
IMPORTED
  6
CONTINUOUS
 62
              30
100
AcDb2dPolyline
 66
               1
 10
0.0
 20
0.0
 30
0.0
 70
               1
 75
               5
  0
VERTEX
  5
29C
100
AcDbEntity
  8
IMPORTED
  6
CONTINUOUS
 62
              30
100
AcDbVertex
100
AcDb2dVertex
 10
1364.9999166066489
 20
-449.99992538509599
 30
0.0
  0
VERTEX
  5
29D
100
AcDbEntity
  8
IMPORTED
  6
CONTINUOUS
 62
              30
100
AcDbVertex
100
AcDb2dVertex
 10
1368.9997166066489
 20
-449.650025385096
 30
0.0
  0
VERTEX
  5
29E
100
AcDbEntity
  8
IMPORTED
  6
CONTINUOUS
 62
              30
100
AcDbVertex
100
AcDb2dVertex
 10
1368.9997166066489
 20
-450.34982538509604
 30
0.0
  0
SEQEND
  5
29F
100
AcDbEntity
  8
IMPORTED
  6
CONTINUOUS
 62
              30
  0
POLYLINE
  5
2A1
100
AcDbEntity
  8
IMPORTED
  6
CONTINUOUS
 62
              30
100
AcDb2dPolyline
 66
               1
 10
0.0
 20
0.0
 30
0.0
 70
               1
 75
               5
  0
VERTEX
  5
2A2
100
AcDbEntity
  8
IMPORTED
  6
CONTINUOUS
 62
              30
100
AcDbVertex
100
AcDb2dVertex
 10
1814.9999166066489
 20
-449.99992538509599
 30
0.0
  0
VERTEX
  5
2A3
100
AcDbEntity
  8
IMPORTED
  6
CONTINUOUS
 62
              30
100
AcDbVertex
100
AcDb2dVertex
 10
1811.0001166066488
 20
-450.34982538509604
 30
0.0
  0
VERTEX
  5
2A4
100
AcDbEntity
  8
IMPORTED
  6
CONTINUOUS
 62
              30
100
AcDbVertex
100
AcDb2dVertex
 10
1811.0001166066488
 20
-449.650025385096
 30
0.0
  0
SEQEND
  5
2A5
100
AcDbEntity
  8
IMPORTED
  6
CONTINUOUS
 62
              30
  0
LINE
  5
2A7
100
AcDbEntity
  8
IMPORTED
  6
CONTINUOUS
 62
              30
100
AcDbLine
 10
1364.9999166066489
 20
-449.99992538509599
 30
0.0
 11
1814.9999166066489
 21
-449.99992538509599
 31
0.0
  0
MTEXT
  5
2A8
100
AcDbEntity
  8
IMPORTED
 62
              30
100
AcDbMText
 10
1544.138916606649
 20
-386.32986611947103
 30
0.0
 40
32.576797265624997
 41
0.0
 71
               1
 72
               1
  1
450
  7
_______
  0
LINE
  5
2A9
100
AcDbEntity
  8
IMPORTED
  6
CONTINUOUS
 62
              30
100
AcDbLine
 10
1364.9999166066489
 20
-226.99992538509605
 30
0.0
 11
1364.9999166066489
 21
-318.99992538509605
 31
0.0
  0
LINE
  5
2AA
100
AcDbEntity
  8
IMPORTED
  6
CONTINUOUS
 62
              30
100
AcDbLine
 10
1414.9999166066489
 20
-226.82432538509605
 30
0.0
 11
1414.9999166066489
 21
-318.99992538509605
 31
0.0
  0
LINE
  5
2AB
100
AcDbEntity
  8
IMPORTED
  6
CONTINUOUS
 62
              30
100
AcDbLine
 10
1414.9999166066489
 20
-298.99992538509605
 30
0.0
 11
1364.9999166066489
 21
-298.99992538509605
 31
0.0
  0
MTEXT
  5
2AC
100
AcDbEntity
  8
IMPORTED
 62
              30
100
AcDbMText
 10
1358.2500166066488
 20
-235.32986611947103
 30
0.0
 40
32.576797265624997
 41
0.0
 71
               1
 72
               1
  1
50
  7
_______
  0
LINE
  5
2AD
100
AcDbEntity
  8
IMPORTED
  6
CONTINUOUS
 62
              30
100
AcDbLine
 10
2089.9999166066491
 20
486.99997461490392
 30
0.0
 11
1089.9999166066489
 21
486.99997461490392
 31
0.0
  0
LINE
  5
2AE
100
AcDbEntity
  8
IMPORTED
  6
CONTINUOUS
 62
              30
100
AcDbLine
 10
206.0000166066491
 20
486.99997461490392
 30
0.0
 11
-2468.9999833933507
 21
486.99997461490392
 31
0.0
  0
MTEXT
  5
2AF
100
AcDbEntity
  8
IMPORTED
 62
              30
100
AcDbMText
 10
-2410.8554833933508
 20
561.54006580240389
 30
0.0
 40
55.430567187500003
 41
0.0
 71
               1
 72
               1
  1
▽GL
  7
_______
  0
MTEXT
  5
2B0
100
AcDbEntity
  8
IMPORTED
 62
              30
100
AcDbMText
 10
-1185.1761833933508
 20
-600.11403606138185
 30
0.0
 40
74.014592968750009
 41
0.0
 71
               1
 72
               1
  1
正面図
  7
_______
  0
POLYLINE
  5
2B1
100
AcDbEntity
  8
IMPORTED
  6
CONTINUOUS
 62
              30
100
AcDb2dPolyline
 66
               1
 10
0.0
 20
0.0
 30
0.0
 70
             129
  0
VERTEX
  5
2B2
100
AcDbEntity
  8
IMPORTED
  6
CONTINUOUS
 62
              30
100
AcDbVertex
100
AcDb2dVertex
 10
-1230.2585833933508
 20
-572.245125385096
 30
0.0
  0
VERTEX
  5
2B3
100
AcDbEntity
  8
IMPORTED
  6
CONTINUOUS
 62
              30
100
AcDbVertex
100
AcDb2dVertex
 10
-848.99998339335082
 20
-572.245125385096
 30
0.0
  0
VERTEX
  5
2B4
100
AcDbEntity
  8
IMPORTED
  6
CONTINUOUS
 62
              30
100
AcDbVertex
100
AcDb2dVertex
 10
-848.99998339335082
 20
-695.80442538509601
 30
0.0
  0
VERTEX
  5
2B5
100
AcDbEntity
  8
IMPORTED
  6
CONTINUOUS
 62
              30
100
AcDbVertex
100
AcDb2dVertex
 10
-1230.2585833933508
 20
-695.80442538509601
 30
0.0
  0
VERTEX
  5
2B6
100
AcDbEntity
  8
IMPORTED
  6
CONTINUOUS
 62
              30
100
AcDbVertex
100
AcDb2dVertex
 10
-1230.2585833933508
 20
-572.245125385096
 30
0.0
  0
SEQEND
  5
2B7
100
AcDbEntity
  8
IMPORTED
  6
CONTINUOUS
 62
              30
  0
POLYLINE
  5
2B8
100
AcDbEntity
  8
IMPORTED
  6
CONTINUOUS
 62
              30
100
AcDb2dPolyline
 66
               1
 10
0.0
 20
0.0
 30
0.0
 70
             129
  0
VERTEX
  5
2B9
100
AcDbEntity
  8
IMPORTED
  6
CONTINUOUS
 62
              30
100
AcDbVertex
100
AcDb2dVertex
 10
-2094.9999833933507
 20
1386.9999746149037
 30
0.0
  0
VERTEX
  5
2BA
100
AcDbEntity
  8
IMPORTED
  6
CONTINUOUS
 62
              30
100
AcDbVertex
100
AcDb2dVertex
 10
-1984.9999833933507
 20
1386.9999746149037
 30
0.0
  0
VERTEX
  5
2BB
100
AcDbEntity
  8
IMPORTED
  6
CONTINUOUS
 62
              30
100
AcDbVertex
100
AcDb2dVertex
 10
-1979.9999833933507
 20
1381.6295746149037
 30
0.0
  0
VERTEX
  5
2BC
100
AcDbEntity
  8
IMPORTED
  6
CONTINUOUS
 62
              30
100
AcDbVertex
100
AcDb2dVertex
 10
-1979.9999833933507
 20
-63.000025385096052
 30
0.0
  0
VERTEX
  5
2BD
100
AcDbEntity
  8
IMPORTED
  6
CONTINUOUS
 62
              30
100
AcDbVertex
100
AcDb2dVertex
 10
-2099.9999833933507
 20
-63.000025385096052
 30
0.0
  0
VERTEX
  5
2BE
100
AcDbEntity
  8
IMPORTED
  6
CONTINUOUS
 62
              30
100
AcDbVertex
100
AcDb2dVertex
 10
-2099.9999833933507
 20
1381.6295746149037
 30
0.0
  0
SEQEND
  5
2BF
100
AcDbEntity
  8
IMPORTED
  6
CONTINUOUS
 62
              30
  0
POLYLINE
  5
2C0
100
AcDbEntity
  8
IMPORTED
  6
CONTINUOUS
 62
              30
100
AcDb2dPolyline
 66
               1
 10
0.0
 20
0.0
 30
0.0
 70
             129
  0
VERTEX
  5
2C1
100
AcDbEntity
  8
IMPORTED
  6
CONTINUOUS
 62
              30
100
AcDbVertex
100
AcDb2dVertex
 10
-94.999983393350874
 20
1386.9999746149037
 30
0.0
  0
VERTEX
  5
2C2
100
AcDbEntity
  8
IMPORTED
  6
CONTINUOUS
 62
              30
100
AcDbVertex
100
AcDb2dVertex
 10
15.000016606649114
 20
1386.9999746149037
 30
0.0
  0
VERTEX
  5
2C3
100
AcDbEntity
  8
IMPORTED
  6
CONTINUOUS
 62
              30
100
AcDbVertex
100
AcDb2dVertex
 10
20.000016606649112
 20
1381.6295746149037
 30
0.0
  0
VERTEX
  5
2C4
100
AcDbEntity
  8
IMPORTED
  6
CONTINUOUS
 62
              30
100
AcDbVertex
100
AcDb2dVertex
 10
20.000016606649112
 20
-62.999925385096063
 30
0.0
  0
VERTEX
  5
2C5
100
AcDbEntity
  8
IMPORTED
  6
CONTINUOUS
 62
              30
100
AcDbVertex
100
AcDb2dVertex
 10
-99.999983393350874
 20
-62.999925385096063
 30
0.0
  0
VERTEX
  5
2C6
100
AcDbEntity
  8
IMPORTED
  6
CONTINUOUS
 62
              30
100
AcDbVertex
100
AcDb2dVertex
 10
-99.999983393350874
 20
1381.6295746149037
 30
0.0
  0
SEQEND
  5
2C7
100
AcDbEntity
  8
IMPORTED
  6
CONTINUOUS
 62
              30
  0
POLYLINE
  5
2C8
100
AcDbEntity
  8
IMPORTED
  6
CONTINUOUS
 62
              30
100
AcDb2dPolyline
 66
               1
 10
0.0
 20
0.0
 30
0.0
 70
             129
  0
VERTEX
  5
2C9
100
AcDbEntity
  8
IMPORTED
  6
CONTINUOUS
 62
              30
100
AcDbVertex
100
AcDb2dVertex
 10
1534.9999166066489
 20
1386.9999746149037
 30
0.0
  0
VERTEX
  5
2CA
100
AcDbEntity
  8
IMPORTED
  6
CONTINUOUS
 62
              30
100
AcDbVertex
100
AcDb2dVertex
 10
1644.9999166066489
 20
1386.9999746149037
 30
0.0
  0
VERTEX
  5
2CB
100
AcDbEntity
  8
IMPORTED
  6
CONTINUOUS
 62
              30
100
AcDbVertex
100
AcDb2dVertex
 10
1649.9999166066489
 20
1381.8154746149039
 30
0.0
  0
VERTEX
  5
2CC
100
AcDbEntity
  8
IMPORTED
  6
CONTINUOUS
 62
              30
100
AcDbVertex
100
AcDb2dVertex
 10
1649.9999166066489
 20
-12.824325385096063
 30
0.0
  0
VERTEX
  5
2CD
100
AcDbEntity
  8
IMPORTED
  6
CONTINUOUS
 62
              30
100
AcDbVertex
100
AcDb2dVertex
 10
1529.9999166066489
 20
-12.824325385096063
 30
0.0
  0
VERTEX
  5
2CE
100
AcDbEntity
  8
IMPORTED
  6
CONTINUOUS
 62
              30
100
AcDbVertex
100
AcDb2dVertex
 10
1529.9999166066489
 20
1381.8154746149039
 30
0.0
  0
SEQEND
  5
2CF
100
AcDbEntity
  8
IMPORTED
  6
CONTINUOUS
 62
              30
  0
MTEXT
  5
2D0
100
AcDbEntity
  8
IMPORTED
 62
              30
100
AcDbMText
 10
1461.817516606649
 20
-600.11403606138185
 30
0.0
 40
74.014592968750009
 41
0.0
 71
               1
 72
               1
  1
側面図
  7
_______
  0
POLYLINE
  5
2D1
100
AcDbEntity
  8
IMPORTED
  6
CONTINUOUS
 62
              30
100
AcDb2dPolyline
 66
               1
 10
0.0
 20
0.0
 30
0.0
 70
             129
  0
VERTEX
  5
2D2
100
AcDbEntity
  8
IMPORTED
  6
CONTINUOUS
 62
              30
100
AcDbVertex
100
AcDb2dVertex
 10
1416.735016606649
 20
-569.80022538509604
 30
0.0
  0
VERTEX
  5
2D3
100
AcDbEntity
  8
IMPORTED
  6
CONTINUOUS
 62
              30
100
AcDbVertex
100
AcDb2dVertex
 10
1791.0000166066488
 20
-569.80022538509604
 30
0.0
  0
VERTEX
  5
2D4
100
AcDbEntity
  8
IMPORTED
  6
CONTINUOUS
 62
              30
100
AcDbVertex
100
AcDb2dVertex
 10
1791.0000166066488
 20
-698.24942538509595
 30
0.0
  0
VERTEX
  5
2D5
100
AcDbEntity
  8
IMPORTED
  6
CONTINUOUS
 62
              30
100
AcDbVertex
100
AcDb2dVertex
 10
1416.735016606649
 20
-698.24942538509595
 30
0.0
  0
VERTEX
  5
2D6
100
AcDbEntity
  8
IMPORTED
  6
CONTINUOUS
 62
              30
100
AcDbVertex
100
AcDb2dVertex
 10
1416.735016606649
 20
-569.80022538509604
 30
0.0
  0
SEQEND
  5
2D7
100
AcDbEntity
  8
IMPORTED
  6
CONTINUOUS
 62
              30
  0
LINE
  5
2D8
100
AcDbEntity
  8
IMPORTED
  6
STYLE_06
 62
              30
100
AcDbLine
 10
-1041.7744833933509
 20
2457.4999746149037
 30
0.0
 11
-1041.7744833933509
 21
1957.4999746149037
 31
0.0
  0
POLYLINE
  5
2D9
100
AcDbEntity
  8
IMPORTED
  6
CONTINUOUS
 62
              30
100
AcDb2dPolyline
 66
               1
 10
0.0
 20
0.0
 30
0.0
 70
               1
 75
               5
  0
VERTEX
  5
2DA
100
AcDbEntity
  8
IMPORTED
  6
CONTINUOUS
 62
              30
100
AcDbVertex
100
AcDb2dVertex
 10
-1359.2744833933509
 20
2169.9999746149037
 30
0.0
  0
VERTEX
  5
2DB
100
AcDbEntity
  8
IMPORTED
  6
CONTINUOUS
 62
              30
100
AcDbVertex
100
AcDb2dVertex
 10
-1295.7744833933509
 20
2187.0147746149037
 30
0.0
  0
VERTEX
  5
2DC
100
AcDbEntity
  8
IMPORTED
  6
CONTINUOUS
 62
              30
100
AcDbVertex
100
AcDb2dVertex
 10
-1295.7744833933509
 20
2152.9851746149038
 30
0.0
  0
SEQEND
  5
2DD
100
AcDbEntity
  8
IMPORTED
  6
CONTINUOUS
 62
              30
  0
POLYLINE
  5
2DF
100
AcDbEntity
  8
IMPORTED
  6
CONTINUOUS
 62
              30
100
AcDb2dPolyline
 66
               1
 10
0.0
 20
0.0
 30
0.0
 70
               1
 75
               5
  0
VERTEX
  5
2E0
100
AcDbEntity
  8
IMPORTED
  6
CONTINUOUS
 62
              30
100
AcDbVertex
100
AcDb2dVertex
 10
-724.27448339335092
 20
2169.9999746149037
 30
0.0
  0
VERTEX
  5
2E1
100
AcDbEntity
  8
IMPORTED
  6
CONTINUOUS
 62
              30
100
AcDbVertex
100
AcDb2dVertex
 10
-787.77448339335092
 20
2152.9851746149038
 30
0.0
  0
VERTEX
  5
2E2
100
AcDbEntity
  8
IMPORTED
  6
CONTINUOUS
 62
              30
100
AcDbVertex
100
AcDb2dVertex
 10
-787.77448339335092
 20
2187.0147746149037
 30
0.0
  0
SEQEND
  5
2E3
100
AcDbEntity
  8
IMPORTED
  6
CONTINUOUS
 62
              30
  0
LINE
  5
2E5
100
AcDbEntity
  8
IMPORTED
  6
CONTINUOUS
 62
              30
100
AcDbLine
 10
-1359.2744833933509
 20
2169.9999746149037
 30
0.0
 11
-724.27448339335092
 21
2169.9999746149037
 31
0.0
  0
MTEXT
  5
2E6
100
AcDbEntity
  8
IMPORTED
 62
              30
100
AcDbMText
 10
-958.23532273338685
 20
2309.7885299117788
 30
0.0
 40
55.510829296874995
 41
0.0
 71
               1
 72
               1
  1
歩道側
  7
_______
  0
MTEXT
  5
2E7
100
AcDbEntity
  8
IMPORTED
 62
              30
100
AcDbMText
 10
-1350.3546833933508
 20
2309.7885299117788
 30
0.0
 40
55.510829296874995
 41
0.0
 71
               1
 72
               1
  1
車道側
  7
_______
  0
MTEXT
  5
2E8
100
AcDbEntity
  8
IMPORTED
 62
              30
100
AcDbMText
 10
1089.1445166066489
 20
561.54006580240389
 30
0.0
 40
55.430567187500003
 41
0.0
 71
               1
 72
               1
  1
▽GL
  7
_______
  0
POLYLINE
  5
2E9
100
AcDbEntity
  8
IMPORTED
  6
CONTINUOUS
 62
              30
100
AcDb2dPolyline
 66
               1
 10
0.0
 20
0.0
 30
0.0
 70
             129
  0
VERTEX
  5
2EA
100
AcDbEntity
  8
IMPORTED
  6
CONTINUOUS
 62
              30
100
AcDbVertex
100
AcDb2dVertex
 10
-3893.9999833933507
 20
2750.9999746149037
 30
0.0
  0
VERTEX
  5
2EB
100
AcDbEntity
  8
IMPORTED
  6
CONTINUOUS
 62
              30
100
AcDbVertex
100
AcDb2dVertex
 10
3906.0000166066488
 20
2750.9999746149037
 30
0.0
  0
VERTEX
  5
2EC
100
AcDbEntity
  8
IMPORTED
  6
CONTINUOUS
 62
              30
100
AcDbVertex
100
AcDb2dVertex
 10
3906.0000166066488
 20
-2749.0000253850958
 30
0.0
  0
VERTEX
  5
2ED
100
AcDbEntity
  8
IMPORTED
  6
CONTINUOUS
 62
              30
100
AcDbVertex
100
AcDb2dVertex
 10
-3893.9999833933507
 20
-2749.0000253850958
 30
0.0
  0
VERTEX
  5
2EE
100
AcDbEntity
  8
IMPORTED
  6
CONTINUOUS
 62
              30
100
AcDbVertex
100
AcDb2dVertex
 10
-3893.9999833933507
 20
2750.9999746149037
 30
0.0
  0
SEQEND
  5
2EF
100
AcDbEntity
  8
IMPORTED
  6
CONTINUOUS
 62
              30
  0
MTEXT
  5
2F0
100
AcDbEntity
  8
IMPORTED
 62
              30
100
AcDbMText
 10
2463.7360166066487
 20
2330.7388976774037
 30
0.0
 40
54.2947390625
 41
0.0
 71
               1
 72
               1
  1
記　　号
  7
_______
  0
MTEXT
  5
2F1
100
AcDbEntity
  8
IMPORTED
 62
              30
100
AcDbMText
 10
3215.7130166066486
 20
2334.6168976774038
 30
0.0
 40
54.2947390625
 41
0.0
 71
               1
 72
               1
  1
F-022
  7
_______
  0
MTEXT
  5
2F2
100
AcDbEntity
  8
IMPORTED
 62
              30
100
AcDbMText
 10
2463.7360166066487
 20
1972.6778976774037
 30
0.0
 40
54.2947390625
 41
0.0
 71
               1
 72
               1
  1
縮　　尺
  7
_______
  0
MTEXT
  5
2F3
100
AcDbEntity
  8
IMPORTED
 62
              30
100
AcDbMText
 10
2463.7360166066487
 20
2510.7388976774037
 30
0.0
 40
54.2947390625
 41
0.0
 71
               1
 72
               1
  1
仕　　様
  7
_______
  0
MTEXT
  5
2F4
100
AcDbEntity
  8
IMPORTED
 62
              30
100
AcDbMText
 10
2463.7360166066487
 20
2692.677897677404
 30
0.0
 40
54.2947390625
 41
0.0
 71
               1
 72
               1
  1
品　　名
  7
_______
  0
MTEXT
  5
2F5
100
AcDbEntity
  8
IMPORTED
 62
              30
100
AcDbMText
 10
3074.1610166066489
 20
2690.7388976774037
 30
0.0
 40
54.2947390625
 41
0.0
 71
               1
 72
               1
  1
ＥＳＷフェンス
  7
_______
  0
LINE
  5
2F6
100
AcDbEntity
  8
IMPORTED
  6
CONTINUOUS
 62
              30
100
AcDbLine
 10
-3893.9999833933507
 20
-2448.999925385096
 30
0.0
 11
3906.0000166066488
 21
-2448.999925385096
 31
0.0
  0
MTEXT
  5
2F7
100
AcDbEntity
  8
IMPORTED
 62
              30
100
AcDbMText
 10
2394.7270166066487
 20
-2537.6505566350957
 30
0.0
 40
97.73046875
 41
0.0
 71
               1
 72
               1
  1
イー・トップ株式会社
  7
_______
  0
MTEXT
  5
2F8
100
AcDbEntity
  8
IMPORTED
 62
              30
100
AcDbMText
 10
3000.1630166066489
 20
2511.331897677404
 30
0.0
 40
54.2947390625
 41
0.0
 71
               1
 72
               1
  1
ＥＩＮスーパーウッド
  7
_______
  0
LINE
  5
2F9
100
AcDbEntity
  8
IMPORTED
  6
CONTINUOUS
 62
              30
100
AcDbLine
 10
3905.9999166066486
 20
2570.9999746149037
 30
0.0
 11
2405.9999166066486
 21
2570.9999746149037
 31
0.0
  0
LINE
  5
2FA
100
AcDbEntity
  8
IMPORTED
  6
CONTINUOUS
 62
              30
100
AcDbLine
 10
3905.9999166066486
 20
2390.9999746149037
 30
0.0
 11
2405.9999166066486
 21
2390.9999746149037
 31
0.0
  0
LINE
  5
2FB
100
AcDbEntity
  8
IMPORTED
  6
CONTINUOUS
 62
              30
100
AcDbLine
 10
3905.9999166066486
 20
2210.9999746149037
 30
0.0
 11
2405.9999166066486
 21
2210.9999746149037
 31
0.0
  0
LINE
  5
2FC
100
AcDbEntity
  8
IMPORTED
  6
CONTINUOUS
 62
              30
100
AcDbLine
 10
3905.9999166066486
 20
2030.9999746149037
 30
0.0
 11
2405.9999166066486
 21
2030.9999746149037
 31
0.0
  0
LINE
  5
2FD
100
AcDbEntity
  8
IMPORTED
  6
CONTINUOUS
 62
              30
100
AcDbLine
 10
3905.9999166066486
 20
1850.9999746149037
 30
0.0
 11
2405.9999166066486
 21
1850.9999746149037
 31
0.0
  0
LINE
  5
2FE
100
AcDbEntity
  8
IMPORTED
  6
CONTINUOUS
 62
              30
100
AcDbLine
 10
2805.9999166066486
 20
2750.9999746149037
 30
0.0
 11
2805.9999166066486
 21
1850.9999746149037
 31
0.0
  0
LINE
  5
2FF
100
AcDbEntity
  8
IMPORTED
  6
CONTINUOUS
 62
              30
100
AcDbLine
 10
2405.9999166066486
 20
2750.9999746149037
 30
0.0
 11
2405.9999166066486
 21
1850.9999746149037
 31
0.0
  0
MTEXT
  5
300
100
AcDbEntity
  8
IMPORTED
 62
              30
100
AcDbMText
 10
3069.5800166066488
 20
2154.6168976774038
 30
0.0
 40
54.2947390625
 41
0.0
 71
               1
 72
               1
  1
H800×L2000
  7
_______
  0
MTEXT
  5
301
100
AcDbEntity
  8
IMPORTED
 62
              30
100
AcDbMText
 10
2463.7360166066487
 20
2150.7388976774037
 30
0.0
 40
54.2947390625
 41
0.0
 71
               1
 72
               1
  1
規格寸法
  7
_______
  0
LINE
  5
302
100
AcDbEntity
  8
IMPORTED
  6
CONTINUOUS
 62
              30
100
AcDbLine
 10
-99.999883393350871
 20
431.91487461490391
 30
0.0
 11
-95.931883393350873
 21
436.99987461490389
 31
0.0
  0
LINE
  5
303
100
AcDbEntity
  8
IMPORTED
  6
CONTINUOUS
 62
              30
100
AcDbLine
 10
-99.999983393350874
 20
376.67217461490389
 30
0.0
 11
-51.737783393350881
 21
436.99997461490392
 31
0.0
  0
LINE
  5
304
100
AcDbEntity
  8
IMPORTED
  6
CONTINUOUS
 62
              30
100
AcDbLine
 10
-99.999983393350874
 20
321.42957461490391
 30
0.0
 11
-7.5435833933508842
 21
436.99997461490392
 31
0.0
  0
LINE
  5
305
100
AcDbEntity
  8
IMPORTED
  6
CONTINUOUS
 62
              30
100
AcDbLine
 10
-99.999883393350871
 20
266.18677461490392
 30
0.0
 11
20.000116606649112
 21
416.18677461490392
 31
0.0
  0
LINE
  5
306
100
AcDbEntity
  8
IMPORTED
  6
CONTINUOUS
 62
              30
100
AcDbLine
 10
-99.999883393350871
 20
210.94417461490391
 30
0.0
 11
20.000116606649112
 21
360.94407461490391
 31
0.0
  0
LINE
  5
307
100
AcDbEntity
  8
IMPORTED
  6
CONTINUOUS
 62
              30
100
AcDbLine
 10
-99.999883393350871
 20
155.70137461490393
 30
0.0
 11
20.000116606649112
 21
305.7013746149039
 31
0.0
  0
LINE
  5
308
100
AcDbEntity
  8
IMPORTED
  6
CONTINUOUS
 62
              30
100
AcDbLine
 10
-99.999883393350871
 20
100.45867461490393
 30
0.0
 11
20.000116606649112
 21
250.45867461490394
 31
0.0
  0
LINE
  5
309
100
AcDbEntity
  8
IMPORTED
  6
CONTINUOUS
 62
              30
100
AcDbLine
 10
-99.999883393350871
 20
45.215974614903928
 30
0.0
 11
20.000116606649112
 21
195.21587461490392
 31
0.0
  0
LINE
  5
30A
100
AcDbEntity
  8
IMPORTED
  6
CONTINUOUS
 62
              30
100
AcDbLine
 10
-99.999883393350871
 20
-10.026725385096061
 30
0.0
 11
20.000116606649112
 21
139.97327461490394
 31
0.0
  0
LINE
  5
30B
100
AcDbEntity
  8
IMPORTED
  6
CONTINUOUS
 62
              30
100
AcDbLine
 10
-98.184383393350871
 20
-62.999925385096063
 30
0.0
 11
20.000016606649112
 21
84.730574614903929
 31
0.0
  0
LINE
  5
30C
100
AcDbEntity
  8
IMPORTED
  6
CONTINUOUS
 62
              30
100
AcDbLine
 10
-53.990183393350883
 20
-62.999925385096063
 30
0.0
 11
20.000016606649112
 21
29.487874614903934
 31
0.0
  0
LINE
  5
30D
100
AcDbEntity
  8
IMPORTED
  6
CONTINUOUS
 62
              30
100
AcDbLine
 10
-9.7960833933508855
 20
-62.999925385096063
 30
0.0
 11
19.999916606649112
 21
-25.754925385096058
 31
0.0
  0
LINE
  5
30E
100
AcDbEntity
  8
IMPORTED
  6
CONTINUOUS
 62
              30
100
AcDbLine
 10
-83.795983393350866
 20
-63.000025385096052
 30
0.0
 11
-99.999983393350874
 21
-42.745025385096056
 31
0.0
  0
LINE
  5
30F
100
AcDbEntity
  8
IMPORTED
  6
CONTINUOUS
 62
              30
100
AcDbLine
 10
-39.601883393350882
 20
-62.999925385096063
 30
0.0
 11
-99.999883393350871
 21
12.497574614903936
 31
0.0
  0
LINE
  5
310
100
AcDbEntity
  8
IMPORTED
  6
CONTINUOUS
 62
              30
100
AcDbLine
 10
4.5923166066491135
 20
-62.999925385096063
 30
0.0
 11
-99.999883393350871
 21
67.740274614903939
 31
0.0
  0
LINE
  5
311
100
AcDbEntity
  8
IMPORTED
  6
CONTINUOUS
 62
              30
100
AcDbLine
 10
20.000116606649112
 20
-27.016925385096059
 30
0.0
 11
-99.999883393350871
 21
122.98307461490393
 31
0.0
  0
LINE
  5
312
100
AcDbEntity
  8
IMPORTED
  6
CONTINUOUS
 62
              30
100
AcDbLine
 10
20.000116606649112
 20
28.225874614903933
 30
0.0
 11
-99.999883393350871
 21
178.22577461490391
 31
0.0
  0
LINE
  5
313
100
AcDbEntity
  8
IMPORTED
  6
CONTINUOUS
 62
              30
100
AcDbLine
 10
20.000116606649112
 20
83.468374614903937
 30
0.0
 11
-99.999883393350871
 21
233.46837461490392
 31
0.0
  0
LINE
  5
314
100
AcDbEntity
  8
IMPORTED
  6
CONTINUOUS
 62
              30
100
AcDbLine
 10
20.000116606649112
 20
138.71117461490394
 30
0.0
 11
-99.999883393350871
 21
288.71107461490391
 31
0.0
  0
LINE
  5
315
100
AcDbEntity
  8
IMPORTED
  6
CONTINUOUS
 62
              30
100
AcDbLine
 10
20.000116606649112
 20
193.95387461490392
 30
0.0
 11
-99.999883393350871
 21
343.9538746149039
 31
0.0
  0
LINE
  5
316
100
AcDbEntity
  8
IMPORTED
  6
CONTINUOUS
 62
              30
100
AcDbLine
 10
20.000116606649112
 20
249.19667461490394
 30
0.0
 11
-99.999883393350871
 21
399.19667461490388
 31
0.0
  0
LINE
  5
317
100
AcDbEntity
  8
IMPORTED
  6
CONTINUOUS
 62
              30
100
AcDbLine
 10
20.000116606649112
 20
304.43927461490392
 30
0.0
 11
-86.048483393350878
 21
436.99997461490392
 31
0.0
  0
LINE
  5
318
100
AcDbEntity
  8
IMPORTED
  6
CONTINUOUS
 62
              30
100
AcDbLine
 10
20.000116606649112
 20
359.68197461490394
 30
0.0
 11
-41.854283393350883
 21
436.99997461490392
 31
0.0
  0
LINE
  5
319
100
AcDbEntity
  8
IMPORTED
  6
CONTINUOUS
 62
              30
100
AcDbLine
 10
20.000016606649112
 20
414.92477461490392
 30
0.0
 11
2.339816606649114
 21
436.99997461490392
 31
0.0
  0
LINE
  5
31A
100
AcDbEntity
  8
IMPORTED
  6
CONTINUOUS
 62
              30
100
AcDbLine
 10
1530.0000166066488
 20
432.42517461490388
 30
0.0
 11
1534.0680166066488
 21
436.99987461490389
 31
0.0
  0
LINE
  5
31B
100
AcDbEntity
  8
IMPORTED
  6
CONTINUOUS
 62
              30
100
AcDbLine
 10
1529.9999166066489
 20
382.72617461490393
 30
0.0
 11
1578.262116606649
 21
436.99997461490392
 31
0.0
  0
LINE
  5
31C
100
AcDbEntity
  8
IMPORTED
  6
CONTINUOUS
 62
              30
100
AcDbLine
 10
1529.9999166066489
 20
333.02707461490394
 30
0.0
 11
1622.4563166066489
 21
436.99997461490392
 31
0.0
  0
LINE
  5
31D
100
AcDbEntity
  8
IMPORTED
  6
CONTINUOUS
 62
              30
100
AcDbLine
 10
1529.9999166066489
 20
283.32807461490393
 30
0.0
 11
1649.9999166066489
 21
418.27537461490391
 31
0.0
  0
LINE
  5
31E
100
AcDbEntity
  8
IMPORTED
  6
CONTINUOUS
 62
              30
100
AcDbLine
 10
1529.9999166066489
 20
233.62907461490391
 30
0.0
 11
1649.9999166066489
 21
368.5763746149039
 31
0.0
  0
LINE
  5
31F
100
AcDbEntity
  8
IMPORTED
  6
CONTINUOUS
 62
              30
100
AcDbLine
 10
1529.9999166066489
 20
183.92997461490393
 30
0.0
 11
1649.9999166066489
 21
318.87727461490391
 31
0.0
  0
LINE
  5
320
100
AcDbEntity
  8
IMPORTED
  6
CONTINUOUS
 62
              30
100
AcDbLine
 10
1529.9999166066489
 20
134.23107461490392
 30
0.0
 11
1649.9999166066489
 21
269.17837461490393
 31
0.0
  0
LINE
  5
321
100
AcDbEntity
  8
IMPORTED
  6
CONTINUOUS
 62
              30
100
AcDbLine
 10
1529.9999166066489
 20
84.53197461490393
 30
0.0
 11
1649.9999166066489
 21
219.47927461490391
 31
0.0
  0
LINE
  5
322
100
AcDbEntity
  8
IMPORTED
  6
CONTINUOUS
 62
              30
100
AcDbLine
 10
1529.9999166066489
 20
34.832974614903932
 30
0.0
 11
1649.9999166066489
 21
169.78037461490393
 31
0.0
  0
LINE
  5
323
100
AcDbEntity
  8
IMPORTED
  6
CONTINUOUS
 62
              30
100
AcDbLine
 10
1531.815416606649
 20
-12.82432538509606
 30
0.0
 11
1649.9998166066489
 21
120.08127461490392
 31
0.0
  0
LINE
  5
324
100
AcDbEntity
  8
IMPORTED
  6
CONTINUOUS
 62
              30
100
AcDbLine
 10
1576.0096166066489
 20
-12.82432538509606
 30
0.0
 11
1649.9998166066489
 21
70.382174614903931
 31
0.0
  0
LINE
  5
325
100
AcDbEntity
  8
IMPORTED
  6
CONTINUOUS
 62
              30
100
AcDbLine
 10
1620.2038166066488
 20
-12.82432538509606
 30
0.0
 11
1649.9998166066489
 21
20.683074614903937
 31
0.0
  0
LINE
  5
326
100
AcDbEntity
  8
IMPORTED
  6
CONTINUOUS
 62
              30
100
AcDbLine
 10
1546.2039166066488
 20
-12.82442538509606
 30
0.0
 11
1529.9999166066489
 21
5.3979746149039372
 31
0.0
  0
LINE
  5
327
100
AcDbEntity
  8
IMPORTED
  6
CONTINUOUS
 62
              30
100
AcDbLine
 10
1590.398016606649
 20
-12.82432538509606
 30
0.0
 11
1530.0000166066488
 21
55.096874614903939
 31
0.0
  0
LINE
  5
328
100
AcDbEntity
  8
IMPORTED
  6
CONTINUOUS
 62
              30
100
AcDbLine
 10
1634.5922166066489
 20
-12.82432538509606
 30
0.0
 11
1530.0000166066488
 21
104.79597461490393
 31
0.0
  0
LINE
  5
329
100
AcDbEntity
  8
IMPORTED
  6
CONTINUOUS
 62
              30
100
AcDbLine
 10
1649.9999166066489
 20
19.547774614903936
 30
0.0
 11
1529.9999166066489
 21
154.49507461490393
 31
0.0
  0
LINE
  5
32A
100
AcDbEntity
  8
IMPORTED
  6
CONTINUOUS
 62
              30
100
AcDbLine
 10
1649.9999166066489
 20
69.246774614903941
 30
0.0
 11
1529.9999166066489
 21
204.19417461490391
 31
0.0
  0
LINE
  5
32B
100
AcDbEntity
  8
IMPORTED
  6
CONTINUOUS
 62
              30
100
AcDbLine
 10
1649.9999166066489
 20
118.94577461490394
 30
0.0
 11
1529.9999166066489
 21
253.89307461490392
 31
0.0
  0
LINE
  5
32C
100
AcDbEntity
  8
IMPORTED
  6
CONTINUOUS
 62
              30
100
AcDbLine
 10
1649.9999166066489
 20
168.64477461490392
 30
0.0
 11
1529.9999166066489
 21
303.59207461490394
 31
0.0
  0
LINE
  5
32D
100
AcDbEntity
  8
IMPORTED
  6
CONTINUOUS
 62
              30
100
AcDbLine
 10
1649.9999166066489
 20
218.34377461490394
 30
0.0
 11
1529.9999166066489
 21
353.29117461490392
 31
0.0
  0
LINE
  5
32E
100
AcDbEntity
  8
IMPORTED
  6
CONTINUOUS
 62
              30
100
AcDbLine
 10
1649.9999166066489
 20
268.04287461490389
 30
0.0
 11
1529.9999166066489
 21
402.99017461490388
 31
0.0
  0
LINE
  5
32F
100
AcDbEntity
  8
IMPORTED
  6
CONTINUOUS
 62
              30
100
AcDbLine
 10
1649.9999166066489
 20
317.74187461490391
 30
0.0
 11
1543.951316606649
 21
436.99997461490392
 31
0.0
  0
LINE
  5
330
100
AcDbEntity
  8
IMPORTED
  6
CONTINUOUS
 62
              30
100
AcDbLine
 10
1649.9999166066489
 20
367.44097461490389
 30
0.0
 11
1588.1455166066489
 21
436.99997461490392
 31
0.0
  0
LINE
  5
331
100
AcDbEntity
  8
IMPORTED
  6
CONTINUOUS
 62
              30
100
AcDbLine
 10
1649.9999166066489
 20
417.13997461490391
 30
0.0
 11
1632.3397166066488
 21
436.99997461490392
 31
0.0
  0
MTEXT
  5
332
100
AcDbEntity
  8
IMPORTED
 62
              30
100
AcDbMText
 10
3154.4691166066486
 20
1970.7388976774039
 30
0.0
 40
54.2947390625
 41
0.0
 71
               1
 72
               1
  1
1：20(A3)
  7
_______
  0
LINE
  5
333
100
AcDbEntity
  8
IMPORTED
  6
CONTINUOUS
 62
              30
100
AcDbLine
 10
1529.9999166066489
 20
1381.9999746149037
 30
0.0
 11
1649.9999166066489
 21
1381.9999746149037
 31
0.0
  0
LINE
  5
334
100
AcDbEntity
  8
IMPORTED
  6
CONTINUOUS
 62
              30
100
AcDbLine
 10
1644.9999166066489
 20
1386.9999746149037
 30
0.0
 11
1644.9999166066489
 21
-13.000025385096061
 31
0.0
  0
LINE
  5
335
100
AcDbEntity
  8
IMPORTED
  6
CONTINUOUS
 62
              30
100
AcDbLine
 10
1534.9999166066489
 20
1386.9999746149037
 30
0.0
 11
1534.9999166066489
 21
-13.000025385096061
 31
0.0
  0
LINE
  5
336
100
AcDbEntity
  8
IMPORTED
  6
CONTINUOUS
 62
              30
100
AcDbLine
 10
-94.999983393350874
 20
1386.9999746149037
 30
0.0
 11
-94.999983393350874
 21
-63.000025385096052
 31
0.0
  0
LINE
  5
337
100
AcDbEntity
  8
IMPORTED
  6
CONTINUOUS
 62
              30
100
AcDbLine
 10
-99.999983393350874
 20
1381.9999746149037
 30
0.0
 11
20.000016606649112
 21
1381.9999746149037
 31
0.0
  0
LINE
  5
338
100
AcDbEntity
  8
IMPORTED
  6
CONTINUOUS
 62
              30
100
AcDbLine
 10
14.999916606649112
 20
1386.9999746149037
 30
0.0
 11
14.999916606649112
 21
-63.000025385096052
 31
0.0
  0
LINE
  5
339
100
AcDbEntity
  8
IMPORTED
  6
CONTINUOUS
 62
              30
100
AcDbLine
 10
-2094.9999833933507
 20
1386.9999746149037
 30
0.0
 11
-2094.9999833933507
 21
-63.000025385096052
 31
0.0
  0
LINE
  5
33A
100
AcDbEntity
  8
IMPORTED
  6
CONTINUOUS
 62
              30
100
AcDbLine
 10
-2099.9999833933507
 20
1381.9999746149037
 30
0.0
 11
-1979.9999833933507
 21
1381.9999746149037
 31
0.0
  0
LINE
  5
33B
100
AcDbEntity
  8
IMPORTED
  6
CONTINUOUS
 62
              30
100
AcDbLine
 10
-1984.9999833933507
 20
1386.9999746149037
 30
0.0
 11
-1984.9999833933507
 21
-63.000025385096052
 31
0.0
  0
POLYLINE
  5
33C
100
AcDbEntity
  8
IMPORTED
  6
CONTINUOUS
 62
              30
100
AcDb2dPolyline
 66
               1
 10
0.0
 20
0.0
 30
0.0
 70
             128
  0
VERTEX
  5
33D
100
AcDbEntity
  8
IMPORTED
  6
CONTINUOUS
 62
              30
100
AcDbVertex
100
AcDb2dVertex
 10
205.99991660664909
 20
1286.9999746149037
 30
0.0
  0
VERTEX
  5
33E
100
AcDbEntity
  8
IMPORTED
  6
CONTINUOUS
 62
              30
100
AcDbVertex
100
AcDb2dVertex
 10
26.499916606649112
 20
1286.9999746149037
 30
0.0
  0
VERTEX
  5
33F
100
AcDbEntity
  8
IMPORTED
  6
CONTINUOUS
 62
              30
100
AcDbVertex
100
AcDb2dVertex
 10
26.499916606649112
 20
1191.9999746149037
 30
0.0
  0
VERTEX
  5
340
100
AcDbEntity
  8
IMPORTED
  6
CONTINUOUS
 62
              30
100
AcDbVertex
100
AcDb2dVertex
 10
205.99991660664909
 20
1191.9999746149037
 30
0.0
  0
SEQEND
  5
341
100
AcDbEntity
  8
IMPORTED
  6
CONTINUOUS
 62
              30
  0
LINE
  5
342
100
AcDbEntity
  8
IMPORTED
  6
CONTINUOUS
 62
              30
100
AcDbLine
 10
26.499916606649112
 20
1281.9999746149037
 30
0.0
 11
205.99991660664909
 21
1281.9999746149037
 31
0.0
  0
LINE
  5
343
100
AcDbEntity
  8
IMPORTED
  6
CONTINUOUS
 62
              30
100
AcDbLine
 10
26.499916606649112
 20
1196.9999746149037
 30
0.0
 11
205.99991660664909
 21
1196.9999746149037
 31
0.0
  0
LINE
  5
344
100
AcDbEntity
  8
IMPORTED
  6
CONTINUOUS
 62
              30
100
AcDbLine
 10
-106.49998339335087
 20
1196.9999746149037
 30
0.0
 11
-1973.4999833933507
 21
1196.9999746149037
 31
0.0
  0
LINE
  5
345
100
AcDbEntity
  8
IMPORTED
  6
CONTINUOUS
 62
              30
100
AcDbLine
 10
-106.49998339335087
 20
1281.9999746149037
 30
0.0
 11
-1973.4999833933507
 21
1281.9999746149037
 31
0.0
  0
LINE
  5
346
100
AcDbEntity
  8
IMPORTED
  6
CONTINUOUS
 62
              30
100
AcDbLine
 10
-2489.9999833933507
 20
1281.9999746149037
 30
0.0
 11
-2106.4999833933507
 21
1281.9999746149037
 31
0.0
  0
LINE
  5
347
100
AcDbEntity
  8
IMPORTED
  6
CONTINUOUS
 62
              30
100
AcDbLine
 10
-2489.9999833933507
 20
1196.9999746149037
 30
0.0
 11
-2106.4999833933507
 21
1196.9999746149037
 31
0.0
  0
POLYLINE
  5
348
100
AcDbEntity
  8
IMPORTED
  6
CONTINUOUS
 62
              30
100
AcDb2dPolyline
 66
               1
 10
0.0
 20
0.0
 30
0.0
 70
             128
  0
VERTEX
  5
349
100
AcDbEntity
  8
IMPORTED
  6
CONTINUOUS
 62
              30
100
AcDbVertex
100
AcDb2dVertex
 10
-2489.9999833933507
 20
1191.9999746149037
 30
0.0
  0
VERTEX
  5
34A
100
AcDbEntity
  8
IMPORTED
  6
CONTINUOUS
 62
              30
100
AcDbVertex
100
AcDb2dVertex
 10
-2106.4999833933507
 20
1191.9999746149037
 30
0.0
  0
VERTEX
  5
34B
100
AcDbEntity
  8
IMPORTED
  6
CONTINUOUS
 62
              30
100
AcDbVertex
100
AcDb2dVertex
 10
-2106.4999833933507
 20
1286.9999746149037
 30
0.0
  0
VERTEX
  5
34C
100
AcDbEntity
  8
IMPORTED
  6
CONTINUOUS
 62
              30
100
AcDbVertex
100
AcDb2dVertex
 10
-2489.9999833933507
 20
1286.9999746149037
 30
0.0
  0
SEQEND
  5
34D
100
AcDbEntity
  8
IMPORTED
  6
CONTINUOUS
 62
              30
  0
POLYLINE
  5
34E
100
AcDbEntity
  8
IMPORTED
  6
CONTINUOUS
 62
              30
100
AcDb2dPolyline
 66
               1
 10
0.0
 20
0.0
 30
0.0
 70
             129
  0
VERTEX
  5
34F
100
AcDbEntity
  8
IMPORTED
  6
CONTINUOUS
 62
              30
100
AcDbVertex
100
AcDb2dVertex
 10
-1973.4999833933507
 20
881.99997461490386
 30
0.0
  0
VERTEX
  5
350
100
AcDbEntity
  8
IMPORTED
  6
CONTINUOUS
 62
              30
100
AcDbVertex
100
AcDb2dVertex
 10
-106.49998339335087
 20
881.99997461490386
 30
0.0
  0
VERTEX
  5
351
100
AcDbEntity
  8
IMPORTED
  6
CONTINUOUS
 62
              30
100
AcDbVertex
100
AcDb2dVertex
 10
-106.49998339335087
 20
786.99997461490386
 30
0.0
  0
VERTEX
  5
352
100
AcDbEntity
  8
IMPORTED
  6
CONTINUOUS
 62
              30
100
AcDbVertex
100
AcDb2dVertex
 10
-1973.4999833933507
 20
786.99997461490386
 30
0.0
  0
VERTEX
  5
353
100
AcDbEntity
  8
IMPORTED
  6
CONTINUOUS
 62
              30
100
AcDbVertex
100
AcDb2dVertex
 10
-1973.4999833933507
 20
881.99997461490386
 30
0.0
  0
SEQEND
  5
354
100
AcDbEntity
  8
IMPORTED
  6
CONTINUOUS
 62
              30
  0
LINE
  5
355
100
AcDbEntity
  8
IMPORTED
  6
CONTINUOUS
 62
              30
100
AcDbLine
 10
-106.49998339335087
 20
876.99997461490386
 30
0.0
 11
-1973.4999833933507
 21
876.99997461490386
 31
0.0
  0
LINE
  5
356
100
AcDbEntity
  8
IMPORTED
  6
CONTINUOUS
 62
              30
100
AcDbLine
 10
-106.49998339335087
 20
791.99997461490386
 30
0.0
 11
-1973.4999833933507
 21
791.99997461490386
 31
0.0
  0
POLYLINE
  5
357
100
AcDbEntity
  8
IMPORTED
  6
CONTINUOUS
 62
              30
100
AcDb2dPolyline
 66
               1
 10
0.0
 20
0.0
 30
0.0
 70
             128
  0
VERTEX
  5
358
100
AcDbEntity
  8
IMPORTED
  6
CONTINUOUS
 62
              30
100
AcDbVertex
100
AcDb2dVertex
 10
-2489.9999833933507
 20
786.99997461490386
 30
0.0
  0
VERTEX
  5
359
100
AcDbEntity
  8
IMPORTED
  6
CONTINUOUS
 62
              30
100
AcDbVertex
100
AcDb2dVertex
 10
-2106.4999833933507
 20
786.99997461490386
 30
0.0
  0
VERTEX
  5
35A
100
AcDbEntity
  8
IMPORTED
  6
CONTINUOUS
 62
              30
100
AcDbVertex
100
AcDb2dVertex
 10
-2106.4999833933507
 20
881.99997461490386
 30
0.0
  0
VERTEX
  5
35B
100
AcDbEntity
  8
IMPORTED
  6
CONTINUOUS
 62
              30
100
AcDbVertex
100
AcDb2dVertex
 10
-2489.9999833933507
 20
881.99997461490386
 30
0.0
  0
SEQEND
  5
35C
100
AcDbEntity
  8
IMPORTED
  6
CONTINUOUS
 62
              30
  0
LINE
  5
35D
100
AcDbEntity
  8
IMPORTED
  6
CONTINUOUS
 62
              30
100
AcDbLine
 10
-2489.9999833933507
 20
791.99997461490386
 30
0.0
 11
-2106.4999833933507
 21
791.99997461490386
 31
0.0
  0
LINE
  5
35E
100
AcDbEntity
  8
IMPORTED
  6
CONTINUOUS
 62
              30
100
AcDbLine
 10
-2489.9999833933507
 20
876.99997461490386
 30
0.0
 11
-2106.4999833933507
 21
876.99997461490386
 31
0.0
  0
LINE
  5
35F
100
AcDbEntity
  8
IMPORTED
  6
CONTINUOUS
 62
              30
100
AcDbLine
 10
26.499916606649112
 20
791.99997461490386
 30
0.0
 11
205.99991660664909
 21
791.99997461490386
 31
0.0
  0
LINE
  5
360
100
AcDbEntity
  8
IMPORTED
  6
CONTINUOUS
 62
              30
100
AcDbLine
 10
26.499916606649112
 20
876.99997461490386
 30
0.0
 11
205.99991660664909
 21
876.99997461490386
 31
0.0
  0
POLYLINE
  5
361
100
AcDbEntity
  8
IMPORTED
  6
CONTINUOUS
 62
              30
100
AcDb2dPolyline
 66
               1
 10
0.0
 20
0.0
 30
0.0
 70
             128
  0
VERTEX
  5
362
100
AcDbEntity
  8
IMPORTED
  6
CONTINUOUS
 62
              30
100
AcDbVertex
100
AcDb2dVertex
 10
205.99991660664909
 20
881.99997461490386
 30
0.0
  0
VERTEX
  5
363
100
AcDbEntity
  8
IMPORTED
  6
CONTINUOUS
 62
              30
100
AcDbVertex
100
AcDb2dVertex
 10
26.499916606649112
 20
881.99997461490386
 30
0.0
  0
VERTEX
  5
364
100
AcDbEntity
  8
IMPORTED
  6
CONTINUOUS
 62
              30
100
AcDbVertex
100
AcDb2dVertex
 10
26.499916606649112
 20
786.99997461490386
 30
0.0
  0
VERTEX
  5
365
100
AcDbEntity
  8
IMPORTED
  6
CONTINUOUS
 62
              30
100
AcDbVertex
100
AcDb2dVertex
 10
205.99991660664909
 20
786.99997461490386
 30
0.0
  0
SEQEND
  5
366
100
AcDbEntity
  8
IMPORTED
  6
CONTINUOUS
 62
              30
  0
LINE
  5
367
100
AcDbEntity
  8
IMPORTED
  6
CONTINUOUS
 62
              30
100
AcDbLine
 10
205.99991660664909
 20
-1440.7499253850958
 30
0.0
 11
26.499916606649112
 21
-1440.7499253850958
 31
0.0
  0
LINE
  5
368
100
AcDbEntity
  8
IMPORTED
  6
CONTINUOUS
 62
              30
100
AcDbLine
 10
26.499916606649112
 20
-1480.7499253850958
 30
0.0
 11
205.99991660664909
 21
-1480.7499253850958
 31
0.0
  0
POLYLINE
  5
369
100
AcDbEntity
  8
IMPORTED
  6
CONTINUOUS
 62
              30
100
AcDb2dPolyline
 66
               1
 10
0.0
 20
0.0
 30
0.0
 70
             128
  0
VERTEX
  5
36A
100
AcDbEntity
  8
IMPORTED
  6
CONTINUOUS
 62
              30
100
AcDbVertex
100
AcDb2dVertex
 10
205.99991660664909
 20
-1485.7499253850958
 30
0.0
  0
VERTEX
  5
36B
100
AcDbEntity
  8
IMPORTED
  6
CONTINUOUS
 62
              30
100
AcDbVertex
100
AcDb2dVertex
 10
26.499916606649112
 20
-1485.7499253850958
 30
0.0
  0
VERTEX
  5
36C
100
AcDbEntity
  8
IMPORTED
  6
CONTINUOUS
 62
              30
100
AcDbVertex
100
AcDb2dVertex
 10
26.499916606649112
 20
-1435.7499253850958
 30
0.0
  0
VERTEX
  5
36D
100
AcDbEntity
  8
IMPORTED
  6
CONTINUOUS
 62
              30
100
AcDbVertex
100
AcDb2dVertex
 10
205.99991660664909
 20
-1435.7499253850958
 30
0.0
  0
SEQEND
  5
36E
100
AcDbEntity
  8
IMPORTED
  6
CONTINUOUS
 62
              30
  0
POLYLINE
  5
36F
100
AcDbEntity
  8
IMPORTED
  6
STYLE_05
 62
              30
100
AcDb2dPolyline
 66
               1
 10
0.0
 20
0.0
 30
0.0
 70
             129
  0
VERTEX
  5
370
100
AcDbEntity
  8
IMPORTED
  6
STYLE_05
 62
              30
100
AcDbVertex
100
AcDb2dVertex
 10
-264.99998339335087
 20
-1234.999925385096
 30
0.0
  0
VERTEX
  5
371
100
AcDbEntity
  8
IMPORTED
  6
STYLE_05
 62
              30
100
AcDbVertex
100
AcDb2dVertex
 10
185.0000166066491
 20
-1234.999925385096
 30
0.0
  0
VERTEX
  5
372
100
AcDbEntity
  8
IMPORTED
  6
STYLE_05
 62
              30
100
AcDbVertex
100
AcDb2dVertex
 10
185.0000166066491
 20
-1684.9999253850958
 30
0.0
  0
VERTEX
  5
373
100
AcDbEntity
  8
IMPORTED
  6
STYLE_05
 62
              30
100
AcDbVertex
100
AcDb2dVertex
 10
-264.99998339335087
 20
-1684.9999253850958
 30
0.0
  0
VERTEX
  5
374
100
AcDbEntity
  8
IMPORTED
  6
STYLE_05
 62
              30
100
AcDbVertex
100
AcDb2dVertex
 10
-264.99998339335087
 20
-1234.999925385096
 30
0.0
  0
SEQEND
  5
375
100
AcDbEntity
  8
IMPORTED
  6
STYLE_05
 62
              30
  0
POLYLINE
  5
376
100
AcDbEntity
  8
IMPORTED
  6
STYLE_05
 62
              30
100
AcDb2dPolyline
 66
               1
 10
0.0
 20
0.0
 30
0.0
 70
             129
  0
VERTEX
  5
377
100
AcDbEntity
  8
IMPORTED
  6
STYLE_05
 62
              30
100
AcDbVertex
100
AcDb2dVertex
 10
-214.99998339335087
 20
-1284.999925385096
 30
0.0
  0
VERTEX
  5
378
100
AcDbEntity
  8
IMPORTED
  6
STYLE_05
 62
              30
100
AcDbVertex
100
AcDb2dVertex
 10
135.0000166066491
 20
-1284.999925385096
 30
0.0
  0
VERTEX
  5
379
100
AcDbEntity
  8
IMPORTED
  6
STYLE_05
 62
              30
100
AcDbVertex
100
AcDb2dVertex
 10
135.0000166066491
 20
-1634.9999253850958
 30
0.0
  0
VERTEX
  5
37A
100
AcDbEntity
  8
IMPORTED
  6
STYLE_05
 62
              30
100
AcDbVertex
100
AcDb2dVertex
 10
-214.99998339335087
 20
-1634.9999253850958
 30
0.0
  0
VERTEX
  5
37B
100
AcDbEntity
  8
IMPORTED
  6
STYLE_05
 62
              30
100
AcDbVertex
100
AcDb2dVertex
 10
-214.99998339335087
 20
-1284.999925385096
 30
0.0
  0
SEQEND
  5
37C
100
AcDbEntity
  8
IMPORTED
  6
STYLE_05
 62
              30
  0
POLYLINE
  5
37D
100
AcDbEntity
  8
IMPORTED
  6
STYLE_05
 62
              30
100
AcDb2dPolyline
 66
               1
 10
0.0
 20
0.0
 30
0.0
 70
             129
  0
VERTEX
  5
37E
100
AcDbEntity
  8
IMPORTED
  6
STYLE_05
 62
              30
100
AcDbVertex
100
AcDb2dVertex
 10
-2264.9999833933507
 20
-1234.999925385096
 30
0.0
  0
VERTEX
  5
37F
100
AcDbEntity
  8
IMPORTED
  6
STYLE_05
 62
              30
100
AcDbVertex
100
AcDb2dVertex
 10
-1814.9999833933507
 20
-1234.999925385096
 30
0.0
  0
VERTEX
  5
380
100
AcDbEntity
  8
IMPORTED
  6
STYLE_05
 62
              30
100
AcDbVertex
100
AcDb2dVertex
 10
-1814.9999833933507
 20
-1684.9999253850958
 30
0.0
  0
VERTEX
  5
381
100
AcDbEntity
  8
IMPORTED
  6
STYLE_05
 62
              30
100
AcDbVertex
100
AcDb2dVertex
 10
-2264.9999833933507
 20
-1684.9999253850958
 30
0.0
  0
VERTEX
  5
382
100
AcDbEntity
  8
IMPORTED
  6
STYLE_05
 62
              30
100
AcDbVertex
100
AcDb2dVertex
 10
-2264.9999833933507
 20
-1234.999925385096
 30
0.0
  0
SEQEND
  5
383
100
AcDbEntity
  8
IMPORTED
  6
STYLE_05
 62
              30
  0
POLYLINE
  5
384
100
AcDbEntity
  8
IMPORTED
  6
STYLE_05
 62
              30
100
AcDb2dPolyline
 66
               1
 10
0.0
 20
0.0
 30
0.0
 70
             129
  0
VERTEX
  5
385
100
AcDbEntity
  8
IMPORTED
  6
STYLE_05
 62
              30
100
AcDbVertex
100
AcDb2dVertex
 10
-2214.9999833933507
 20
-1284.999925385096
 30
0.0
  0
VERTEX
  5
386
100
AcDbEntity
  8
IMPORTED
  6
STYLE_05
 62
              30
100
AcDbVertex
100
AcDb2dVertex
 10
-1864.9999833933507
 20
-1284.999925385096
 30
0.0
  0
VERTEX
  5
387
100
AcDbEntity
  8
IMPORTED
  6
STYLE_05
 62
              30
100
AcDbVertex
100
AcDb2dVertex
 10
-1864.9999833933507
 20
-1634.9999253850958
 30
0.0
  0
VERTEX
  5
388
100
AcDbEntity
  8
IMPORTED
  6
STYLE_05
 62
              30
100
AcDbVertex
100
AcDb2dVertex
 10
-2214.9999833933507
 20
-1634.9999253850958
 30
0.0
  0
VERTEX
  5
389
100
AcDbEntity
  8
IMPORTED
  6
STYLE_05
 62
              30
100
AcDbVertex
100
AcDb2dVertex
 10
-2214.9999833933507
 20
-1284.999925385096
 30
0.0
  0
SEQEND
  5
38A
100
AcDbEntity
  8
IMPORTED
  6
STYLE_05
 62
              30
  0
MTEXT
  5
38B
100
AcDbEntity
  8
IMPORTED
 62
              30
100
AcDbMText
 10
-1185.9133833933508
 20
-1951.1244863276049
 30
0.0
 40
74.014592968750009
 41
0.0
 71
               1
 72
               1
  1
平面図
  7
_______
  0
POLYLINE
  5
38C
100
AcDbEntity
  8
IMPORTED
  6
CONTINUOUS
 62
              30
100
AcDb2dPolyline
 66
               1
 10
0.0
 20
0.0
 30
0.0
 70
             129
  0
VERTEX
  5
38D
100
AcDbEntity
  8
IMPORTED
  6
CONTINUOUS
 62
              30
100
AcDbVertex
100
AcDb2dVertex
 10
-1230.9957833933508
 20
-1925.7740253850959
 30
0.0
  0
VERTEX
  5
38E
100
AcDbEntity
  8
IMPORTED
  6
CONTINUOUS
 62
              30
100
AcDbVertex
100
AcDb2dVertex
 10
-833.99998339335082
 20
-1925.7740253850959
 30
0.0
  0
VERTEX
  5
38F
100
AcDbEntity
  8
IMPORTED
  6
CONTINUOUS
 62
              30
100
AcDbVertex
100
AcDb2dVertex
 10
-833.99998339335082
 20
-2055.0000253850958
 30
0.0
  0
VERTEX
  5
390
100
AcDbEntity
  8
IMPORTED
  6
CONTINUOUS
 62
              30
100
AcDbVertex
100
AcDb2dVertex
 10
-1230.9957833933508
 20
-2055.0000253850958
 30
0.0
  0
VERTEX
  5
391
100
AcDbEntity
  8
IMPORTED
  6
CONTINUOUS
 62
              30
100
AcDbVertex
100
AcDb2dVertex
 10
-1230.9957833933508
 20
-1925.7740253850959
 30
0.0
  0
SEQEND
  5
392
100
AcDbEntity
  8
IMPORTED
  6
CONTINUOUS
 62
              30
  0
LINE
  5
393
100
AcDbEntity
  8
IMPORTED
  6
CONTINUOUS
 62
              30
100
AcDbLine
 10
-1973.4999833933507
 20
-1480.7499253850958
 30
0.0
 11
-106.49998339335087
 21
-1480.7499253850958
 31
0.0
  0
LINE
  5
394
100
AcDbEntity
  8
IMPORTED
  6
CONTINUOUS
 62
              30
100
AcDbLine
 10
-106.49998339335087
 20
-1440.7499253850958
 30
0.0
 11
-1973.4999833933507
 21
-1440.7499253850958
 31
0.0
  0
POLYLINE
  5
395
100
AcDbEntity
  8
IMPORTED
  6
CONTINUOUS
 62
              30
100
AcDb2dPolyline
 66
               1
 10
0.0
 20
0.0
 30
0.0
 70
             129
  0
VERTEX
  5
396
100
AcDbEntity
  8
IMPORTED
  6
CONTINUOUS
 62
              30
100
AcDbVertex
100
AcDb2dVertex
 10
-1973.4999833933507
 20
-1435.7499253850958
 30
0.0
  0
VERTEX
  5
397
100
AcDbEntity
  8
IMPORTED
  6
CONTINUOUS
 62
              30
100
AcDbVertex
100
AcDb2dVertex
 10
-106.49998339335087
 20
-1435.7499253850958
 30
0.0
  0
VERTEX
  5
398
100
AcDbEntity
  8
IMPORTED
  6
CONTINUOUS
 62
              30
100
AcDbVertex
100
AcDb2dVertex
 10
-106.49998339335087
 20
-1485.7499253850958
 30
0.0
  0
VERTEX
  5
399
100
AcDbEntity
  8
IMPORTED
  6
CONTINUOUS
 62
              30
100
AcDbVertex
100
AcDb2dVertex
 10
-1973.4999833933507
 20
-1485.7499253850958
 30
0.0
  0
VERTEX
  5
39A
100
AcDbEntity
  8
IMPORTED
  6
CONTINUOUS
 62
              30
100
AcDbVertex
100
AcDb2dVertex
 10
-1973.4999833933507
 20
-1435.7499253850958
 30
0.0
  0
SEQEND
  5
39B
100
AcDbEntity
  8
IMPORTED
  6
CONTINUOUS
 62
              30
  0
LINE
  5
39C
100
AcDbEntity
  8
IMPORTED
  6
CONTINUOUS
 62
              30
100
AcDbLine
 10
-2106.4999833933507
 20
-1440.7499253850958
 30
0.0
 11
-2489.9999833933507
 21
-1440.7499253850958
 31
0.0
  0
LINE
  5
39D
100
AcDbEntity
  8
IMPORTED
  6
CONTINUOUS
 62
              30
100
AcDbLine
 10
-2489.9999833933507
 20
-1480.7499253850958
 30
0.0
 11
-2106.4999833933507
 21
-1480.7499253850958
 31
0.0
  0
POLYLINE
  5
39E
100
AcDbEntity
  8
IMPORTED
  6
CONTINUOUS
 62
              30
100
AcDb2dPolyline
 66
               1
 10
0.0
 20
0.0
 30
0.0
 70
             128
  0
VERTEX
  5
39F
100
AcDbEntity
  8
IMPORTED
  6
CONTINUOUS
 62
              30
100
AcDbVertex
100
AcDb2dVertex
 10
-2489.9999833933507
 20
-1435.7499253850958
 30
0.0
  0
VERTEX
  5
3A0
100
AcDbEntity
  8
IMPORTED
  6
CONTINUOUS
 62
              30
100
AcDbVertex
100
AcDb2dVertex
 10
-2106.4999833933507
 20
-1435.7499253850958
 30
0.0
  0
VERTEX
  5
3A1
100
AcDbEntity
  8
IMPORTED
  6
CONTINUOUS
 62
              30
100
AcDbVertex
100
AcDb2dVertex
 10
-2106.4999833933507
 20
-1485.7499253850958
 30
0.0
  0
VERTEX
  5
3A2
100
AcDbEntity
  8
IMPORTED
  6
CONTINUOUS
 62
              30
100
AcDbVertex
100
AcDb2dVertex
 10
-2489.9999833933507
 20
-1485.7499253850958
 30
0.0
  0
SEQEND
  5
3A3
100
AcDbEntity
  8
IMPORTED
  6
CONTINUOUS
 62
              30
  0
POLYLINE
  5
3A4
100
AcDbEntity
  8
IMPORTED
  6
CONTINUOUS
 62
              30
100
AcDb2dPolyline
 66
               1
 10
0.0
 20
0.0
 30
0.0
 70
             129
  0
VERTEX
  5
3A5
100
AcDbEntity
  8
IMPORTED
  6
CONTINUOUS
 62
              30
100
AcDbVertex
100
AcDb2dVertex
 10
1414.9999166066489
 20
436.99997461490392
 30
0.0
  0
VERTEX
  5
3A6
100
AcDbEntity
  8
IMPORTED
  6
CONTINUOUS
 62
              30
100
AcDbVertex
100
AcDb2dVertex
 10
1764.9999166066489
 20
436.99997461490392
 30
0.0
  0
VERTEX
  5
3A7
100
AcDbEntity
  8
IMPORTED
  6
CONTINUOUS
 62
              30
100
AcDbVertex
100
AcDb2dVertex
 10
1764.9999166066489
 20
-12.82432538509606
 30
0.0
  0
VERTEX
  5
3A8
100
AcDbEntity
  8
IMPORTED
  6
CONTINUOUS
 62
              30
100
AcDbVertex
100
AcDb2dVertex
 10
1414.9999166066489
 20
-12.82432538509606
 30
0.0
  0
VERTEX
  5
3A9
100
AcDbEntity
  8
IMPORTED
  6
CONTINUOUS
 62
              30
100
AcDbVertex
100
AcDb2dVertex
 10
1414.9999166066489
 20
436.99997461490392
 30
0.0
  0
SEQEND
  5
3AA
100
AcDbEntity
  8
IMPORTED
  6
CONTINUOUS
 62
              30
  0
LINE
  5
3AB
100
AcDbEntity
  8
IMPORTED
  6
CONTINUOUS
 62
              30
100
AcDbLine
 10
1414.9999166066489
 20
400.80397461490389
 30
0.0
 11
1447.186716606649
 21
436.99997461490392
 31
0.0
  0
LINE
  5
3AC
100
AcDbEntity
  8
IMPORTED
  6
CONTINUOUS
 62
              30
100
AcDbLine
 10
1414.9999166066489
 20
209.95967461490392
 30
0.0
 11
1616.8923166066488
 21
436.99997461490392
 31
0.0
  0
LINE
  5
3AD
100
AcDbEntity
  8
IMPORTED
  6
CONTINUOUS
 62
              30
100
AcDbLine
 10
1414.9999166066489
 20
19.115474614903938
 30
0.0
 11
1764.9999166066489
 21
412.71167461490393
 31
0.0
  0
LINE
  5
3AE
100
AcDbEntity
  8
IMPORTED
  6
CONTINUOUS
 62
              30
100
AcDbLine
 10
1556.3035166066488
 20
-12.82432538509606
 30
0.0
 11
1764.9999166066489
 21
221.86747461490393
 31
0.0
  0
LINE
  5
3AF
100
AcDbEntity
  8
IMPORTED
  6
CONTINUOUS
 62
              30
100
AcDbLine
 10
1726.0091166066488
 20
-12.82432538509606
 30
0.0
 11
1764.9999166066489
 21
31.023174614903933
 31
0.0
  0
LINE
  5
3B0
100
AcDbEntity
  8
IMPORTED
  6
CONTINUOUS
 62
              30
100
AcDbLine
 10
1414.9999166066489
 20
423.06917461490389
 30
0.0
 11
1427.3877166066488
 21
436.99997461490392
 31
0.0
  0
LINE
  5
3B1
100
AcDbEntity
  8
IMPORTED
  6
CONTINUOUS
 62
              30
100
AcDbLine
 10
1414.9999166066489
 20
232.22487461490391
 30
0.0
 11
1597.0933166066488
 21
436.99997461490392
 31
0.0
  0
LINE
  5
3B2
100
AcDbEntity
  8
IMPORTED
  6
CONTINUOUS
 62
              30
100
AcDbLine
 10
1414.9999166066489
 20
41.380674614903938
 30
0.0
 11
1764.9999166066489
 21
434.97687461490392
 31
0.0
  0
LINE
  5
3B3
100
AcDbEntity
  8
IMPORTED
  6
CONTINUOUS
 62
              30
100
AcDbLine
 10
1536.5045166066488
 20
-12.82432538509606
 30
0.0
 11
1764.9999166066489
 21
244.13267461490392
 31
0.0
  0
LINE
  5
3B4
100
AcDbEntity
  8
IMPORTED
  6
CONTINUOUS
 62
              30
100
AcDbLine
 10
1706.2101166066489
 20
-12.82432538509606
 30
0.0
 11
1764.9999166066489
 21
53.28837461490393
 31
0.0
  0
LINE
  5
3B5
100
AcDbEntity
  8
IMPORTED
  6
CONTINUOUS
 62
              30
100
AcDbLine
 10
1414.9999166066489
 20
254.4900746149039
 30
0.0
 11
1577.2943166066489
 21
436.99997461490392
 31
0.0
  0
LINE
  5
3B6
100
AcDbEntity
  8
IMPORTED
  6
CONTINUOUS
 62
              30
100
AcDbLine
 10
1414.9999166066489
 20
63.645774614903942
 30
0.0
 11
1746.9999166066489
 21
436.99997461490392
 31
0.0
  0
LINE
  5
3B7
100
AcDbEntity
  8
IMPORTED
  6
CONTINUOUS
 62
              30
100
AcDbLine
 10
1516.7055166066489
 20
-12.82432538509606
 30
0.0
 11
1764.9999166066489
 21
266.39777461490394
 31
0.0
  0
LINE
  5
3B8
100
AcDbEntity
  8
IMPORTED
  6
CONTINUOUS
 62
              30
100
AcDbLine
 10
1686.4111166066489
 20
-12.82432538509606
 30
0.0
 11
1764.9999166066489
 21
75.553574614903937
 31
0.0
  0
POLYLINE
  5
3B9
100
AcDbEntity
  8
IMPORTED
  6
CONTINUOUS
 62
              30
100
AcDb2dPolyline
 66
               1
 10
0.0
 20
0.0
 30
0.0
 70
             129
  0
VERTEX
  5
3BA
100
AcDbEntity
  8
IMPORTED
  6
CONTINUOUS
 62
              30
100
AcDbVertex
100
AcDb2dVertex
 10
-264.99998339335087
 20
-112.99992538509605
 30
0.0
  0
VERTEX
  5
3BB
100
AcDbEntity
  8
IMPORTED
  6
CONTINUOUS
 62
              30
100
AcDbVertex
100
AcDb2dVertex
 10
185.0000166066491
 20
-112.99992538509605
 30
0.0
  0
VERTEX
  5
3BC
100
AcDbEntity
  8
IMPORTED
  6
CONTINUOUS
 62
              30
100
AcDbVertex
100
AcDb2dVertex
 10
185.0000166066491
 20
-212.99992538509605
 30
0.0
  0
VERTEX
  5
3BD
100
AcDbEntity
  8
IMPORTED
  6
CONTINUOUS
 62
              30
100
AcDbVertex
100
AcDb2dVertex
 10
-264.99998339335087
 20
-212.99992538509605
 30
0.0
  0
VERTEX
  5
3BE
100
AcDbEntity
  8
IMPORTED
  6
CONTINUOUS
 62
              30
100
AcDbVertex
100
AcDb2dVertex
 10
-264.99998339335087
 20
-112.99992538509605
 30
0.0
  0
SEQEND
  5
3BF
100
AcDbEntity
  8
IMPORTED
  6
CONTINUOUS
 62
              30
  0
POLYLINE
  5
3C0
100
AcDbEntity
  8
IMPORTED
  6
CONTINUOUS
 62
              30
100
AcDb2dPolyline
 66
               1
 10
0.0
 20
0.0
 30
0.0
 70
             129
  0
VERTEX
  5
3C1
100
AcDbEntity
  8
IMPORTED
  6
CONTINUOUS
 62
              30
100
AcDbVertex
100
AcDb2dVertex
 10
-264.99998339335087
 20
-63.000025385096052
 30
0.0
  0
VERTEX
  5
3C2
100
AcDbEntity
  8
IMPORTED
  6
CONTINUOUS
 62
              30
100
AcDbVertex
100
AcDb2dVertex
 10
185.0000166066491
 20
-63.000025385096052
 30
0.0
  0
VERTEX
  5
3C3
100
AcDbEntity
  8
IMPORTED
  6
CONTINUOUS
 62
              30
100
AcDbVertex
100
AcDb2dVertex
 10
185.0000166066491
 20
-113.00002538509605
 30
0.0
  0
VERTEX
  5
3C4
100
AcDbEntity
  8
IMPORTED
  6
CONTINUOUS
 62
              30
100
AcDbVertex
100
AcDb2dVertex
 10
-264.99998339335087
 20
-113.00002538509605
 30
0.0
  0
VERTEX
  5
3C5
100
AcDbEntity
  8
IMPORTED
  6
CONTINUOUS
 62
              30
100
AcDbVertex
100
AcDb2dVertex
 10
-264.99998339335087
 20
-63.000025385096052
 30
0.0
  0
SEQEND
  5
3C6
100
AcDbEntity
  8
IMPORTED
  6
CONTINUOUS
 62
              30
  0
LINE
  5
3C7
100
AcDbEntity
  8
IMPORTED
  6
CONTINUOUS
 62
              30
100
AcDbLine
 10
91.857716606649106
 20
-62.824425385096063
 30
0.0
 11
141.85771660664912
 21
-112.82442538509605
 31
0.0
  0
LINE
  5
3C8
100
AcDbEntity
  8
IMPORTED
  6
CONTINUOUS
 62
              30
100
AcDbLine
 10
105.99991660664911
 20
-62.824425385096063
 30
0.0
 11
155.99991660664909
 21
-112.82442538509605
 31
0.0
  0
LINE
  5
3C9
100
AcDbEntity
  8
IMPORTED
  6
CONTINUOUS
 62
              30
100
AcDbLine
 10
-58.142183393350884
 20
-62.824425385096063
 30
0.0
 11
-8.1421833933508854
 21
-112.82442538509605
 31
0.0
  0
LINE
  5
3CA
100
AcDbEntity
  8
IMPORTED
  6
CONTINUOUS
 62
              30
100
AcDbLine
 10
-43.999983393350881
 20
-62.824425385096063
 30
0.0
 11
6.0000166066491136
 21
-112.82442538509605
 31
0.0
  0
LINE
  5
3CB
100
AcDbEntity
  8
IMPORTED
  6
CONTINUOUS
 62
              30
100
AcDbLine
 10
-208.14218339335088
 20
-62.824425385096063
 30
0.0
 11
-158.14218339335088
 21
-112.82442538509605
 31
0.0
  0
LINE
  5
3CC
100
AcDbEntity
  8
IMPORTED
  6
CONTINUOUS
 62
              30
100
AcDbLine
 10
-193.99998339335087
 20
-62.824425385096063
 30
0.0
 11
-143.99998339335087
 21
-112.82442538509605
 31
0.0
  0
LINE
  5
3CD
100
AcDbEntity
  8
IMPORTED
  6
CONTINUOUS
 62
              30
100
AcDbLine
 10
155.1286166066491
 20
-212.87872538509603
 30
0.0
 11
97.393616606649104
 21
-112.87872538509605
 31
0.0
  0
LINE
  5
3CE
100
AcDbEntity
  8
IMPORTED
  6
CONTINUOUS
 62
              30
100
AcDbLine
 10
111.82731660664911
 20
-137.87872538509606
 30
0.0
 11
126.26111660664911
 21
-112.87872538509605
 31
0.0
  0
LINE
  5
3CF
100
AcDbEntity
  8
IMPORTED
  6
CONTINUOUS
 62
              30
100
AcDbLine
 10
140.69481660664911
 20
-187.87872538509603
 30
0.0
 11
126.26101660664911
 21
-212.87872538509603
 31
0.0
  0
LINE
  5
3D0
100
AcDbEntity
  8
IMPORTED
  6
CONTINUOUS
 62
              30
100
AcDbLine
 10
71.128616606649103
 20
-212.87872538509603
 30
0.0
 11
13.393616606649113
 21
-112.87872538509605
 31
0.0
  0
LINE
  5
3D1
100
AcDbEntity
  8
IMPORTED
  6
CONTINUOUS
 62
              30
100
AcDbLine
 10
27.827316606649113
 20
-137.87872538509606
 30
0.0
 11
42.261116606649111
 21
-112.87872538509605
 31
0.0
  0
LINE
  5
3D2
100
AcDbEntity
  8
IMPORTED
  6
CONTINUOUS
 62
              30
100
AcDbLine
 10
56.694816606649105
 20
-187.87872538509603
 30
0.0
 11
42.261016606649108
 21
-212.87872538509603
 31
0.0
  0
LINE
  5
3D3
100
AcDbEntity
  8
IMPORTED
  6
CONTINUOUS
 62
              30
100
AcDbLine
 10
-12.871283393350884
 20
-212.87872538509603
 30
0.0
 11
-70.606283393350878
 21
-112.87872538509605
 31
0.0
  0
LINE
  5
3D4
100
AcDbEntity
  8
IMPORTED
  6
CONTINUOUS
 62
              30
100
AcDbLine
 10
-56.172583393350884
 20
-137.87872538509606
 30
0.0
 11
-41.738783393350886
 21
-112.87872538509605
 31
0.0
  0
LINE
  5
3D5
100
AcDbEntity
  8
IMPORTED
  6
CONTINUOUS
 62
              30
100
AcDbLine
 10
-27.305083393350884
 20
-187.87872538509603
 30
0.0
 11
-41.738883393350882
 21
-212.87872538509603
 31
0.0
  0
LINE
  5
3D6
100
AcDbEntity
  8
IMPORTED
  6
CONTINUOUS
 62
              30
100
AcDbLine
 10
-96.871283393350879
 20
-212.87872538509603
 30
0.0
 11
-154.60628339335088
 21
-112.87872538509605
 31
0.0
  0
LINE
  5
3D7
100
AcDbEntity
  8
IMPORTED
  6
CONTINUOUS
 62
              30
100
AcDbLine
 10
-140.17258339335086
 20
-137.87872538509606
 30
0.0
 11
-125.73878339335087
 21
-112.87872538509605
 31
0.0
  0
LINE
  5
3D8
100
AcDbEntity
  8
IMPORTED
  6
CONTINUOUS
 62
              30
100
AcDbLine
 10
-111.30508339335087
 20
-187.87872538509603
 30
0.0
 11
-125.73888339335087
 21
-212.87872538509603
 31
0.0
  0
LINE
  5
3D9
100
AcDbEntity
  8
IMPORTED
  6
CONTINUOUS
 62
              30
100
AcDbLine
 10
-180.87128339335086
 20
-212.87872538509603
 30
0.0
 11
-238.60628339335085
 21
-112.87872538509605
 31
0.0
  0
LINE
  5
3DA
100
AcDbEntity
  8
IMPORTED
  6
CONTINUOUS
 62
              30
100
AcDbLine
 10
-224.17258339335086
 20
-137.87872538509606
 30
0.0
 11
-209.73878339335087
 21
-112.87872538509605
 31
0.0
  0
LINE
  5
3DB
100
AcDbEntity
  8
IMPORTED
  6
CONTINUOUS
 62
              30
100
AcDbLine
 10
-195.30508339335086
 20
-187.87872538509603
 30
0.0
 11
-209.73888339335087
 21
-212.87872538509603
 31
0.0
  0
POLYLINE
  5
3DC
100
AcDbEntity
  8
IMPORTED
  6
CONTINUOUS
 62
              30
100
AcDb2dPolyline
 66
               1
 10
0.0
 20
0.0
 30
0.0
 70
             129
  0
VERTEX
  5
3DD
100
AcDbEntity
  8
IMPORTED
  6
CONTINUOUS
 62
              30
100
AcDbVertex
100
AcDb2dVertex
 10
-2264.9999833933507
 20
-112.99992538509605
 30
0.0
  0
VERTEX
  5
3DE
100
AcDbEntity
  8
IMPORTED
  6
CONTINUOUS
 62
              30
100
AcDbVertex
100
AcDb2dVertex
 10
-1814.9999833933507
 20
-112.99992538509605
 30
0.0
  0
VERTEX
  5
3DF
100
AcDbEntity
  8
IMPORTED
  6
CONTINUOUS
 62
              30
100
AcDbVertex
100
AcDb2dVertex
 10
-1814.9999833933507
 20
-212.99992538509605
 30
0.0
  0
VERTEX
  5
3E0
100
AcDbEntity
  8
IMPORTED
  6
CONTINUOUS
 62
              30
100
AcDbVertex
100
AcDb2dVertex
 10
-2264.9999833933507
 20
-212.99992538509605
 30
0.0
  0
VERTEX
  5
3E1
100
AcDbEntity
  8
IMPORTED
  6
CONTINUOUS
 62
              30
100
AcDbVertex
100
AcDb2dVertex
 10
-2264.9999833933507
 20
-112.99992538509605
 30
0.0
  0
SEQEND
  5
3E2
100
AcDbEntity
  8
IMPORTED
  6
CONTINUOUS
 62
              30
  0
POLYLINE
  5
3E3
100
AcDbEntity
  8
IMPORTED
  6
CONTINUOUS
 62
              30
100
AcDb2dPolyline
 66
               1
 10
0.0
 20
0.0
 30
0.0
 70
             129
  0
VERTEX
  5
3E4
100
AcDbEntity
  8
IMPORTED
  6
CONTINUOUS
 62
              30
100
AcDbVertex
100
AcDb2dVertex
 10
-2264.9999833933507
 20
-63.000025385096052
 30
0.0
  0
VERTEX
  5
3E5
100
AcDbEntity
  8
IMPORTED
  6
CONTINUOUS
 62
              30
100
AcDbVertex
100
AcDb2dVertex
 10
-1814.9999833933507
 20
-63.000025385096052
 30
0.0
  0
VERTEX
  5
3E6
100
AcDbEntity
  8
IMPORTED
  6
CONTINUOUS
 62
              30
100
AcDbVertex
100
AcDb2dVertex
 10
-1814.9999833933507
 20
-113.00002538509605
 30
0.0
  0
VERTEX
  5
3E7
100
AcDbEntity
  8
IMPORTED
  6
CONTINUOUS
 62
              30
100
AcDbVertex
100
AcDb2dVertex
 10
-2264.9999833933507
 20
-113.00002538509605
 30
0.0
  0
VERTEX
  5
3E8
100
AcDbEntity
  8
IMPORTED
  6
CONTINUOUS
 62
              30
100
AcDbVertex
100
AcDb2dVertex
 10
-2264.9999833933507
 20
-63.000025385096052
 30
0.0
  0
SEQEND
  5
3E9
100
AcDbEntity
  8
IMPORTED
  6
CONTINUOUS
 62
              30
  0
LINE
  5
3EA
100
AcDbEntity
  8
IMPORTED
  6
CONTINUOUS
 62
              30
100
AcDbLine
 10
-1908.1422833933507
 20
-62.824425385096063
 30
0.0
 11
-1858.1422833933507
 21
-112.82442538509605
 31
0.0
  0
LINE
  5
3EB
100
AcDbEntity
  8
IMPORTED
  6
CONTINUOUS
 62
              30
100
AcDbLine
 10
-1894.0000833933507
 20
-62.824425385096063
 30
0.0
 11
-1844.0000833933507
 21
-112.82442538509605
 31
0.0
  0
LINE
  5
3EC
100
AcDbEntity
  8
IMPORTED
  6
CONTINUOUS
 62
              30
100
AcDbLine
 10
-2058.1421833933509
 20
-62.824425385096063
 30
0.0
 11
-2008.1421833933507
 21
-112.82442538509605
 31
0.0
  0
LINE
  5
3ED
100
AcDbEntity
  8
IMPORTED
  6
CONTINUOUS
 62
              30
100
AcDbLine
 10
-2043.9999833933507
 20
-62.824425385096063
 30
0.0
 11
-1993.9999833933507
 21
-112.82442538509605
 31
0.0
  0
LINE
  5
3EE
100
AcDbEntity
  8
IMPORTED
  6
CONTINUOUS
 62
              30
100
AcDbLine
 10
-2208.1421833933509
 20
-62.824425385096063
 30
0.0
 11
-2158.1421833933509
 21
-112.82442538509605
 31
0.0
  0
LINE
  5
3EF
100
AcDbEntity
  8
IMPORTED
  6
CONTINUOUS
 62
              30
100
AcDbLine
 10
-2193.9999833933507
 20
-62.824425385096063
 30
0.0
 11
-2143.9999833933507
 21
-112.82442538509605
 31
0.0
  0
LINE
  5
3F0
100
AcDbEntity
  8
IMPORTED
  6
CONTINUOUS
 62
              30
100
AcDbLine
 10
-1844.8713833933507
 20
-212.87872538509603
 30
0.0
 11
-1902.6063833933508
 21
-112.87872538509605
 31
0.0
  0
LINE
  5
3F1
100
AcDbEntity
  8
IMPORTED
  6
CONTINUOUS
 62
              30
100
AcDbLine
 10
-1888.1726833933508
 20
-137.87872538509606
 30
0.0
 11
-1873.7388833933508
 21
-112.87872538509605
 31
0.0
  0
LINE
  5
3F2
100
AcDbEntity
  8
IMPORTED
  6
CONTINUOUS
 62
              30
100
AcDbLine
 10
-1859.3051833933507
 20
-187.87872538509603
 30
0.0
 11
-1873.7389833933507
 21
-212.87872538509603
 31
0.0
  0
LINE
  5
3F3
100
AcDbEntity
  8
IMPORTED
  6
CONTINUOUS
 62
              30
100
AcDbLine
 10
-1928.8713833933507
 20
-212.87872538509603
 30
0.0
 11
-1986.6063833933508
 21
-112.87872538509605
 31
0.0
  0
LINE
  5
3F4
100
AcDbEntity
  8
IMPORTED
  6
CONTINUOUS
 62
              30
100
AcDbLine
 10
-1972.1726833933508
 20
-137.87872538509606
 30
0.0
 11
-1957.7388833933508
 21
-112.87872538509605
 31
0.0
  0
LINE
  5
3F5
100
AcDbEntity
  8
IMPORTED
  6
CONTINUOUS
 62
              30
100
AcDbLine
 10
-1943.3051833933507
 20
-187.87872538509603
 30
0.0
 11
-1957.7389833933507
 21
-212.87872538509603
 31
0.0
  0
LINE
  5
3F6
100
AcDbEntity
  8
IMPORTED
  6
CONTINUOUS
 62
              30
100
AcDbLine
 10
-2012.8712833933507
 20
-212.87872538509603
 30
0.0
 11
-2070.6062833933506
 21
-112.87872538509605
 31
0.0
  0
LINE
  5
3F7
100
AcDbEntity
  8
IMPORTED
  6
CONTINUOUS
 62
              30
100
AcDbLine
 10
-2056.1725833933506
 20
-137.87872538509606
 30
0.0
 11
-2041.7387833933508
 21
-112.87872538509605
 31
0.0
  0
LINE
  5
3F8
100
AcDbEntity
  8
IMPORTED
  6
CONTINUOUS
 62
              30
100
AcDbLine
 10
-2027.3050833933507
 20
-187.87872538509603
 30
0.0
 11
-2041.7388833933505
 21
-212.87872538509603
 31
0.0
  0
LINE
  5
3F9
100
AcDbEntity
  8
IMPORTED
  6
CONTINUOUS
 62
              30
100
AcDbLine
 10
-2096.871283393351
 20
-212.87872538509603
 30
0.0
 11
-2154.6062833933506
 21
-112.87872538509605
 31
0.0
  0
LINE
  5
3FA
100
AcDbEntity
  8
IMPORTED
  6
CONTINUOUS
 62
              30
100
AcDbLine
 10
-2140.1725833933506
 20
-137.87872538509606
 30
0.0
 11
-2125.7387833933508
 21
-112.87872538509605
 31
0.0
  0
LINE
  5
3FB
100
AcDbEntity
  8
IMPORTED
  6
CONTINUOUS
 62
              30
100
AcDbLine
 10
-2111.3050833933507
 20
-187.87872538509603
 30
0.0
 11
-2125.7388833933505
 21
-212.87872538509603
 31
0.0
  0
LINE
  5
3FC
100
AcDbEntity
  8
IMPORTED
  6
CONTINUOUS
 62
              30
100
AcDbLine
 10
-2180.871283393351
 20
-212.87872538509603
 30
0.0
 11
-2238.6062833933506
 21
-112.87872538509605
 31
0.0
  0
LINE
  5
3FD
100
AcDbEntity
  8
IMPORTED
  6
CONTINUOUS
 62
              30
100
AcDbLine
 10
-2224.1725833933506
 20
-137.87872538509606
 30
0.0
 11
-2209.7387833933508
 21
-112.87872538509605
 31
0.0
  0
LINE
  5
3FE
100
AcDbEntity
  8
IMPORTED
  6
CONTINUOUS
 62
              30
100
AcDbLine
 10
-2195.3050833933507
 20
-187.87872538509603
 30
0.0
 11
-2209.7388833933505
 21
-212.87872538509603
 31
0.0
  0
LINE
  5
3FF
100
AcDbEntity
  8
IMPORTED
  6
STYLE_11
 62
              30
100
AcDbLine
 10
-1978.4999833933507
 20
786.99997461490386
 30
0.0
 11
-1978.4999833933507
 21
881.99997461490386
 31
0.0
  0
POLYLINE
  5
400
100
AcDbEntity
  8
IMPORTED
  6
CONTINUOUS
 62
              30
100
AcDb2dPolyline
 66
               1
 10
0.0
 20
0.0
 30
0.0
 70
               1
 75
               5
  0
VERTEX
  5
401
100
AcDbEntity
  8
IMPORTED
  6
CONTINUOUS
 62
              30
100
AcDbVertex
100
AcDb2dVertex
 10
-1978.4999833933507
 20
785.49997461490386
 30
0.0
  0
VERTEX
  5
402
100
AcDbEntity
  8
IMPORTED
  6
CONTINUOUS
 62
              30
100
AcDbVertex
100
AcDb2dVertex
 10
-1943.4999833933507
 20
785.49997461490386
 30
0.0
  0
VERTEX
  5
403
100
AcDbEntity
  8
IMPORTED
  6
CONTINUOUS
 62
              30
100
AcDbVertex
100
AcDb2dVertex
 10
-1943.4999833933507
 20
786.99997461490386
 30
0.0
  0
VERTEX
  5
404
100
AcDbEntity
  8
IMPORTED
  6
CONTINUOUS
 62
              30
100
AcDbVertex
100
AcDb2dVertex
 10
-1978.4999833933507
 20
786.99997461490386
 30
0.0
  0
VERTEX
  5
405
100
AcDbEntity
  8
IMPORTED
  6
CONTINUOUS
 62
              30
100
AcDbVertex
100
AcDb2dVertex
 10
-1916.4999833933507
 20
812.68121461490398
 30
0.0
  0
VERTEX
  5
406
100
AcDbEntity
  8
IMPORTED
  6
CONTINUOUS
 62
              30
100
AcDbVertex
100
AcDb2dVertex
 10
-1916.4999833933507
 20
856.31873461490397
 30
0.0
  0
VERTEX
  5
407
100
AcDbEntity
  8
IMPORTED
  6
CONTINUOUS
 62
              30
100
AcDbVertex
100
AcDb2dVertex
 10
-1978.4999833933507
 20
881.99997461490386
 30
0.0
  0
VERTEX
  5
408
100
AcDbEntity
  8
IMPORTED
  6
CONTINUOUS
 62
              30
100
AcDbVertex
100
AcDb2dVertex
 10
-1979.9999833933507
 20
881.99997461490386
 30
0.0
  0
VERTEX
  5
409
100
AcDbEntity
  8
IMPORTED
  6
CONTINUOUS
 62
              30
100
AcDbVertex
100
AcDb2dVertex
 10
-1979.9999833933507
 20
786.99997461490386
 30
0.0
  0
VERTEX
  5
40A
100
AcDbEntity
  8
IMPORTED
  6
CONTINUOUS
 62
              30
100
AcDbVertex
100
AcDb2dVertex
 10
-1979.9999833933507
 20
785.49997461490386
 30
0.0
  0
SEQEND
  5
40B
100
AcDbEntity
  8
IMPORTED
  6
CONTINUOUS
 62
              30
  0
LINE
  5
40D
100
AcDbEntity
  8
IMPORTED
  6
STYLE_12
 62
              30
100
AcDbLine
 10
-1978.4999833933507
 20
787.49997461490386
 30
0.0
 11
-1978.4999833933507
 21
881.99997461490386
 31
0.0
  0
POLYLINE
  5
40E
100
AcDbEntity
  8
IMPORTED
  6
STYLE_05
 62
              30
100
AcDb2dPolyline
 66
               1
 10
0.0
 20
0.0
 30
0.0
 70
             129
  0
VERTEX
  5
40F
100
AcDbEntity
  8
IMPORTED
  6
STYLE_05
 62
              30
100
AcDbVertex
100
AcDb2dVertex
 10
-1936.5010733933507
 20
840.99997461490386
 30
0.0
 42
-0.414213562373095
 70
               2
 50
1.8714839861558573E+17
  0
VERTEX
  5
410
100
AcDbEntity
  8
IMPORTED
  6
STYLE_05
 62
              30
100
AcDbVertex
100
AcDb2dVertex
 10
-1930.0010733933507
 20
834.49997461490386
 30
0.0
 42
-0.414213562373095
 70
               2
  0
VERTEX
  5
411
100
AcDbEntity
  8
IMPORTED
  6
STYLE_05
 62
              30
100
AcDbVertex
100
AcDb2dVertex
 10
-1936.5010733933507
 20
827.99997461490386
 30
0.0
  0
VERTEX
  5
412
100
AcDbEntity
  8
IMPORTED
  6
STYLE_05
 62
              30
100
AcDbVertex
100
AcDb2dVertex
 10
-1949.5010733933507
 20
827.99997461490386
 30
0.0
 42
-0.414213562373095
 70
               2
 50
3.1191399769264294E+17
  0
VERTEX
  5
413
100
AcDbEntity
  8
IMPORTED
  6
STYLE_05
 62
              30
100
AcDbVertex
100
AcDb2dVertex
 10
-1956.0010733933507
 20
834.49997461490386
 30
0.0
 42
-0.414213562373095
 70
               2
  0
VERTEX
  5
414
100
AcDbEntity
  8
IMPORTED
  6
STYLE_05
 62
              30
100
AcDbVertex
100
AcDb2dVertex
 10
-1949.5010733933507
 20
840.99997461490386
 30
0.0
  0
SEQEND
  5
415
100
AcDbEntity
  8
IMPORTED
  6
STYLE_05
 62
              30
  0
LINE
  5
416
100
AcDbEntity
  8
IMPORTED
  6
CONTINUOUS
 62
              30
100
AcDbLine
 10
-1940.5141833933508
 20
840.50597461490395
 30
0.0
 11
-1942.9981833933507
 21
840.99997461490386
 31
0.0
  0
CIRCLE
  5
417
100
AcDbEntity
  8
IMPORTED
  6
CONTINUOUS
 62
              30
100
AcDbCircle
 10
-1943.0001833933507
 20
834.49997461490386
 30
0.0
 40
13.0
  0
LINE
  5
418
100
AcDbEntity
  8
IMPORTED
  6
CONTINUOUS
 62
              30
100
AcDbLine
 10
-1942.9981833933507
 20
840.99997461490386
 30
0.0
 11
-1945.4861833933508
 21
840.50597461490395
 31
0.0
  0
POLYLINE
  5
419
100
AcDbEntity
  8
IMPORTED
  6
CONTINUOUS
 62
              30
100
AcDb2dPolyline
 66
               1
 10
0.0
 20
0.0
 30
0.0
 70
             129
  0
VERTEX
  5
41A
100
AcDbEntity
  8
IMPORTED
  6
CONTINUOUS
 62
              30
100
AcDbVertex
100
AcDb2dVertex
 10
-1934.0341833933508
 20
829.32397461490393
 30
0.0
  0
VERTEX
  5
41B
100
AcDbEntity
  8
IMPORTED
  6
CONTINUOUS
 62
              30
100
AcDbVertex
100
AcDb2dVertex
 10
-1934.0341833933508
 20
839.67597461490402
 30
0.0
  0
VERTEX
  5
41C
100
AcDbEntity
  8
IMPORTED
  6
CONTINUOUS
 62
              30
100
AcDbVertex
100
AcDb2dVertex
 10
-1943.0001833933507
 20
844.85297461490393
 30
0.0
  0
VERTEX
  5
41D
100
AcDbEntity
  8
IMPORTED
  6
CONTINUOUS
 62
              30
100
AcDbVertex
100
AcDb2dVertex
 10
-1951.9661833933508
 20
839.676974614904
 30
0.0
  0
VERTEX
  5
41E
100
AcDbEntity
  8
IMPORTED
  6
CONTINUOUS
 62
              30
100
AcDbVertex
100
AcDb2dVertex
 10
-1951.9661833933508
 20
829.32397461490393
 30
0.0
  0
VERTEX
  5
41F
100
AcDbEntity
  8
IMPORTED
  6
CONTINUOUS
 62
              30
100
AcDbVertex
100
AcDb2dVertex
 10
-1943.0001833933507
 20
824.14697461490402
 30
0.0
  0
SEQEND
  5
420
100
AcDbEntity
  8
IMPORTED
  6
CONTINUOUS
 62
              30
  0
POLYLINE
  5
421
100
AcDbEntity
  8
IMPORTED
  6
CONTINUOUS
 62
              30
100
AcDb2dPolyline
 66
               1
 10
0.0
 20
0.0
 30
0.0
 70
             129
  0
VERTEX
  5
422
100
AcDbEntity
  8
IMPORTED
  6
CONTINUOUS
 62
              30
100
AcDbVertex
100
AcDb2dVertex
 10
-1973.4999833933507
 20
881.99997461490386
 30
0.0
  0
VERTEX
  5
423
100
AcDbEntity
  8
IMPORTED
  6
CONTINUOUS
 62
              30
100
AcDbVertex
100
AcDb2dVertex
 10
-1978.4999833933507
 20
881.99997461490386
 30
0.0
  0
VERTEX
  5
424
100
AcDbEntity
  8
IMPORTED
  6
CONTINUOUS
 62
              30
100
AcDbVertex
100
AcDb2dVertex
 10
-1978.4999833933507
 20
786.99997461490386
 30
0.0
  0
VERTEX
  5
425
100
AcDbEntity
  8
IMPORTED
  6
CONTINUOUS
 62
              30
100
AcDbVertex
100
AcDb2dVertex
 10
-1973.4999833933507
 20
786.99997461490386
 30
0.0
  0
SEQEND
  5
426
100
AcDbEntity
  8
IMPORTED
  6
CONTINUOUS
 62
              30
  0
LINE
  5
427
100
AcDbEntity
  8
IMPORTED
  6
CONTINUOUS
 62
              30
100
AcDbLine
 10
-1938.4041833933506
 20
839.09697461490384
 30
0.0
 11
-1940.5141833933508
 21
840.50597461490395
 31
0.0
  0
LINE
  5
428
100
AcDbEntity
  8
IMPORTED
  6
CONTINUOUS
 62
              30
100
AcDbLine
 10
-1940.5141833933508
 20
828.493974614904
 30
0.0
 11
-1938.4041833933506
 21
829.90297461490388
 31
0.0
  0
LINE
  5
429
100
AcDbEntity
  8
IMPORTED
  6
CONTINUOUS
 62
              30
100
AcDbLine
 10
-1942.9981833933507
 20
827.99997461490386
 30
0.0
 11
-1940.5141833933508
 21
828.493974614904
 31
0.0
  0
LINE
  5
42A
100
AcDbEntity
  8
IMPORTED
  6
CONTINUOUS
 62
              30
100
AcDbLine
 10
-1945.4861833933508
 20
840.50597461490395
 30
0.0
 11
-1947.5961833933507
 21
839.09697461490384
 31
0.0
  0
LINE
  5
42B
100
AcDbEntity
  8
IMPORTED
  6
CONTINUOUS
 62
              30
100
AcDbLine
 10
-1947.5961833933507
 20
839.09697461490384
 30
0.0
 11
-1949.0051833933508
 21
836.98797461490392
 31
0.0
  0
LINE
  5
42C
100
AcDbEntity
  8
IMPORTED
  6
CONTINUOUS
 62
              30
100
AcDbLine
 10
-1949.0051833933508
 20
836.98797461490392
 30
0.0
 11
-1949.5001833933507
 21
834.49997461490386
 31
0.0
  0
LINE
  5
42D
100
AcDbEntity
  8
IMPORTED
  6
CONTINUOUS
 62
              30
100
AcDbLine
 10
-1949.5001833933507
 20
834.49997461490386
 30
0.0
 11
-1949.0051833933508
 21
832.01197461490403
 31
0.0
  0
LINE
  5
42E
100
AcDbEntity
  8
IMPORTED
  6
CONTINUOUS
 62
              30
100
AcDbLine
 10
-1949.0051833933508
 20
832.01197461490403
 30
0.0
 11
-1947.5961833933507
 21
829.90297461490388
 31
0.0
  0
LINE
  5
42F
100
AcDbEntity
  8
IMPORTED
  6
CONTINUOUS
 62
              30
100
AcDbLine
 10
-1947.5961833933507
 20
829.90297461490388
 30
0.0
 11
-1945.4861833933508
 21
828.493974614904
 31
0.0
  0
LINE
  5
430
100
AcDbEntity
  8
IMPORTED
  6
CONTINUOUS
 62
              30
100
AcDbLine
 10
-1945.4861833933508
 20
828.493974614904
 30
0.0
 11
-1942.9981833933507
 21
827.99997461490386
 31
0.0
  0
LINE
  5
431
100
AcDbEntity
  8
IMPORTED
  6
CONTINUOUS
 62
              30
100
AcDbLine
 10
-1936.5001833933507
 20
834.49997461490386
 30
0.0
 11
-1936.9951833933508
 21
836.98797461490392
 31
0.0
  0
LINE
  5
432
100
AcDbEntity
  8
IMPORTED
  6
CONTINUOUS
 62
              30
100
AcDbLine
 10
-1936.9951833933508
 20
836.98797461490392
 30
0.0
 11
-1938.4041833933506
 21
839.09697461490384
 31
0.0
  0
LINE
  5
433
100
AcDbEntity
  8
IMPORTED
  6
CONTINUOUS
 62
              30
100
AcDbLine
 10
-1938.4041833933506
 20
829.90297461490388
 30
0.0
 11
-1936.9951833933508
 21
832.01197461490403
 31
0.0
  0
LINE
  5
434
100
AcDbEntity
  8
IMPORTED
  6
CONTINUOUS
 62
              30
100
AcDbLine
 10
-1936.9951833933508
 20
832.01197461490403
 30
0.0
 11
-1936.5001833933507
 21
834.49997461490386
 31
0.0
  0
LINE
  5
435
100
AcDbEntity
  8
IMPORTED
  6
STYLE_11
 62
              30
100
AcDbLine
 10
-1978.4999833933507
 20
1191.8239746149038
 30
0.0
 11
-1978.4999833933507
 21
1286.8239746149038
 31
0.0
  0
POLYLINE
  5
436
100
AcDbEntity
  8
IMPORTED
  6
CONTINUOUS
 62
              30
100
AcDb2dPolyline
 66
               1
 10
0.0
 20
0.0
 30
0.0
 70
               1
 75
               5
  0
VERTEX
  5
437
100
AcDbEntity
  8
IMPORTED
  6
CONTINUOUS
 62
              30
100
AcDbVertex
100
AcDb2dVertex
 10
-1978.4999833933507
 20
1190.3239746149038
 30
0.0
  0
VERTEX
  5
438
100
AcDbEntity
  8
IMPORTED
  6
CONTINUOUS
 62
              30
100
AcDbVertex
100
AcDb2dVertex
 10
-1943.4999833933507
 20
1190.3239746149038
 30
0.0
  0
VERTEX
  5
439
100
AcDbEntity
  8
IMPORTED
  6
CONTINUOUS
 62
              30
100
AcDbVertex
100
AcDb2dVertex
 10
-1943.4999833933507
 20
1191.8239746149038
 30
0.0
  0
VERTEX
  5
43A
100
AcDbEntity
  8
IMPORTED
  6
CONTINUOUS
 62
              30
100
AcDbVertex
100
AcDb2dVertex
 10
-1978.4999833933507
 20
1191.8239746149038
 30
0.0
  0
VERTEX
  5
43B
100
AcDbEntity
  8
IMPORTED
  6
CONTINUOUS
 62
              30
100
AcDbVertex
100
AcDb2dVertex
 10
-1916.4999833933507
 20
1217.5052146149039
 30
0.0
  0
VERTEX
  5
43C
100
AcDbEntity
  8
IMPORTED
  6
CONTINUOUS
 62
              30
100
AcDbVertex
100
AcDb2dVertex
 10
-1916.4999833933507
 20
1261.1427346149039
 30
0.0
  0
VERTEX
  5
43D
100
AcDbEntity
  8
IMPORTED
  6
CONTINUOUS
 62
              30
100
AcDbVertex
100
AcDb2dVertex
 10
-1978.4999833933507
 20
1286.8239746149038
 30
0.0
  0
VERTEX
  5
43E
100
AcDbEntity
  8
IMPORTED
  6
CONTINUOUS
 62
              30
100
AcDbVertex
100
AcDb2dVertex
 10
-1979.9999833933507
 20
1286.8239746149038
 30
0.0
  0
VERTEX
  5
43F
100
AcDbEntity
  8
IMPORTED
  6
CONTINUOUS
 62
              30
100
AcDbVertex
100
AcDb2dVertex
 10
-1979.9999833933507
 20
1191.8239746149038
 30
0.0
  0
VERTEX
  5
440
100
AcDbEntity
  8
IMPORTED
  6
CONTINUOUS
 62
              30
100
AcDbVertex
100
AcDb2dVertex
 10
-1979.9999833933507
 20
1190.3239746149038
 30
0.0
  0
SEQEND
  5
441
100
AcDbEntity
  8
IMPORTED
  6
CONTINUOUS
 62
              30
  0
LINE
  5
443
100
AcDbEntity
  8
IMPORTED
  6
STYLE_12
 62
              30
100
AcDbLine
 10
-1978.4999833933507
 20
1192.3239746149038
 30
0.0
 11
-1978.4999833933507
 21
1286.8239746149038
 31
0.0
  0
POLYLINE
  5
444
100
AcDbEntity
  8
IMPORTED
  6
STYLE_05
 62
              30
100
AcDb2dPolyline
 66
               1
 10
0.0
 20
0.0
 30
0.0
 70
             129
  0
VERTEX
  5
445
100
AcDbEntity
  8
IMPORTED
  6
STYLE_05
 62
              30
100
AcDbVertex
100
AcDb2dVertex
 10
-1936.5010733933507
 20
1245.8239746149038
 30
0.0
 42
-0.414213562373095
 70
               2
 50
1.8714839861558573E+17
  0
VERTEX
  5
446
100
AcDbEntity
  8
IMPORTED
  6
STYLE_05
 62
              30
100
AcDbVertex
100
AcDb2dVertex
 10
-1930.0010733933507
 20
1239.3239746149038
 30
0.0
 42
-0.414213562373095
 70
               2
  0
VERTEX
  5
447
100
AcDbEntity
  8
IMPORTED
  6
STYLE_05
 62
              30
100
AcDbVertex
100
AcDb2dVertex
 10
-1936.5010733933507
 20
1232.8239746149038
 30
0.0
  0
VERTEX
  5
448
100
AcDbEntity
  8
IMPORTED
  6
STYLE_05
 62
              30
100
AcDbVertex
100
AcDb2dVertex
 10
-1949.5010733933507
 20
1232.8239746149038
 30
0.0
 42
-0.414213562373095
 70
               2
 50
3.1191399769264294E+17
  0
VERTEX
  5
449
100
AcDbEntity
  8
IMPORTED
  6
STYLE_05
 62
              30
100
AcDbVertex
100
AcDb2dVertex
 10
-1956.0010733933507
 20
1239.3239746149038
 30
0.0
 42
-0.414213562373095
 70
               2
  0
VERTEX
  5
44A
100
AcDbEntity
  8
IMPORTED
  6
STYLE_05
 62
              30
100
AcDbVertex
100
AcDb2dVertex
 10
-1949.5010733933507
 20
1245.8239746149038
 30
0.0
  0
SEQEND
  5
44B
100
AcDbEntity
  8
IMPORTED
  6
STYLE_05
 62
              30
  0
LINE
  5
44C
100
AcDbEntity
  8
IMPORTED
  6
CONTINUOUS
 62
              30
100
AcDbLine
 10
-1940.5141833933508
 20
1245.3299746149039
 30
0.0
 11
-1942.9981833933507
 21
1245.8239746149038
 31
0.0
  0
CIRCLE
  5
44D
100
AcDbEntity
  8
IMPORTED
  6
CONTINUOUS
 62
              30
100
AcDbCircle
 10
-1943.0001833933507
 20
1239.3239746149038
 30
0.0
 40
13.0
  0
LINE
  5
44E
100
AcDbEntity
  8
IMPORTED
  6
CONTINUOUS
 62
              30
100
AcDbLine
 10
-1942.9981833933507
 20
1245.8239746149038
 30
0.0
 11
-1945.4861833933508
 21
1245.3299746149039
 31
0.0
  0
POLYLINE
  5
44F
100
AcDbEntity
  8
IMPORTED
  6
CONTINUOUS
 62
              30
100
AcDb2dPolyline
 66
               1
 10
0.0
 20
0.0
 30
0.0
 70
             129
  0
VERTEX
  5
450
100
AcDbEntity
  8
IMPORTED
  6
CONTINUOUS
 62
              30
100
AcDbVertex
100
AcDb2dVertex
 10
-1934.0341833933508
 20
1234.1479746149039
 30
0.0
  0
VERTEX
  5
451
100
AcDbEntity
  8
IMPORTED
  6
CONTINUOUS
 62
              30
100
AcDbVertex
100
AcDb2dVertex
 10
-1934.0341833933508
 20
1244.499974614904
 30
0.0
  0
VERTEX
  5
452
100
AcDbEntity
  8
IMPORTED
  6
CONTINUOUS
 62
              30
100
AcDbVertex
100
AcDb2dVertex
 10
-1943.0001833933507
 20
1249.6769746149039
 30
0.0
  0
VERTEX
  5
453
100
AcDbEntity
  8
IMPORTED
  6
CONTINUOUS
 62
              30
100
AcDbVertex
100
AcDb2dVertex
 10
-1951.9661833933508
 20
1244.500974614904
 30
0.0
  0
VERTEX
  5
454
100
AcDbEntity
  8
IMPORTED
  6
CONTINUOUS
 62
              30
100
AcDbVertex
100
AcDb2dVertex
 10
-1951.9661833933508
 20
1234.1479746149039
 30
0.0
  0
VERTEX
  5
455
100
AcDbEntity
  8
IMPORTED
  6
CONTINUOUS
 62
              30
100
AcDbVertex
100
AcDb2dVertex
 10
-1943.0001833933507
 20
1228.970974614904
 30
0.0
  0
SEQEND
  5
456
100
AcDbEntity
  8
IMPORTED
  6
CONTINUOUS
 62
              30
  0
POLYLINE
  5
457
100
AcDbEntity
  8
IMPORTED
  6
CONTINUOUS
 62
              30
100
AcDb2dPolyline
 66
               1
 10
0.0
 20
0.0
 30
0.0
 70
             129
  0
VERTEX
  5
458
100
AcDbEntity
  8
IMPORTED
  6
CONTINUOUS
 62
              30
100
AcDbVertex
100
AcDb2dVertex
 10
-1973.4999833933507
 20
1286.8239746149038
 30
0.0
  0
VERTEX
  5
459
100
AcDbEntity
  8
IMPORTED
  6
CONTINUOUS
 62
              30
100
AcDbVertex
100
AcDb2dVertex
 10
-1978.4999833933507
 20
1286.8239746149038
 30
0.0
  0
VERTEX
  5
45A
100
AcDbEntity
  8
IMPORTED
  6
CONTINUOUS
 62
              30
100
AcDbVertex
100
AcDb2dVertex
 10
-1978.4999833933507
 20
1191.8239746149038
 30
0.0
  0
VERTEX
  5
45B
100
AcDbEntity
  8
IMPORTED
  6
CONTINUOUS
 62
              30
100
AcDbVertex
100
AcDb2dVertex
 10
-1973.4999833933507
 20
1191.8239746149038
 30
0.0
  0
SEQEND
  5
45C
100
AcDbEntity
  8
IMPORTED
  6
CONTINUOUS
 62
              30
  0
LINE
  5
45D
100
AcDbEntity
  8
IMPORTED
  6
CONTINUOUS
 62
              30
100
AcDbLine
 10
-1938.4041833933506
 20
1243.9209746149038
 30
0.0
 11
-1940.5141833933508
 21
1245.3299746149039
 31
0.0
  0
LINE
  5
45E
100
AcDbEntity
  8
IMPORTED
  6
CONTINUOUS
 62
              30
100
AcDbLine
 10
-1940.5141833933508
 20
1233.317974614904
 30
0.0
 11
-1938.4041833933506
 21
1234.7269746149038
 31
0.0
  0
LINE
  5
45F
100
AcDbEntity
  8
IMPORTED
  6
CONTINUOUS
 62
              30
100
AcDbLine
 10
-1942.9981833933507
 20
1232.8239746149038
 30
0.0
 11
-1940.5141833933508
 21
1233.317974614904
 31
0.0
  0
LINE
  5
460
100
AcDbEntity
  8
IMPORTED
  6
CONTINUOUS
 62
              30
100
AcDbLine
 10
-1945.4861833933508
 20
1245.3299746149039
 30
0.0
 11
-1947.5961833933507
 21
1243.9209746149038
 31
0.0
  0
LINE
  5
461
100
AcDbEntity
  8
IMPORTED
  6
CONTINUOUS
 62
              30
100
AcDbLine
 10
-1947.5961833933507
 20
1243.9209746149038
 30
0.0
 11
-1949.0051833933508
 21
1241.8119746149039
 31
0.0
  0
LINE
  5
462
100
AcDbEntity
  8
IMPORTED
  6
CONTINUOUS
 62
              30
100
AcDbLine
 10
-1949.0051833933508
 20
1241.8119746149039
 30
0.0
 11
-1949.5001833933507
 21
1239.3239746149038
 31
0.0
  0
LINE
  5
463
100
AcDbEntity
  8
IMPORTED
  6
CONTINUOUS
 62
              30
100
AcDbLine
 10
-1949.5001833933507
 20
1239.3239746149038
 30
0.0
 11
-1949.0051833933508
 21
1236.835974614904
 31
0.0
  0
LINE
  5
464
100
AcDbEntity
  8
IMPORTED
  6
CONTINUOUS
 62
              30
100
AcDbLine
 10
-1949.0051833933508
 20
1236.835974614904
 30
0.0
 11
-1947.5961833933507
 21
1234.7269746149038
 31
0.0
  0
LINE
  5
465
100
AcDbEntity
  8
IMPORTED
  6
CONTINUOUS
 62
              30
100
AcDbLine
 10
-1947.5961833933507
 20
1234.7269746149038
 30
0.0
 11
-1945.4861833933508
 21
1233.317974614904
 31
0.0
  0
LINE
  5
466
100
AcDbEntity
  8
IMPORTED
  6
CONTINUOUS
 62
              30
100
AcDbLine
 10
-1945.4861833933508
 20
1233.317974614904
 30
0.0
 11
-1942.9981833933507
 21
1232.8239746149038
 31
0.0
  0
LINE
  5
467
100
AcDbEntity
  8
IMPORTED
  6
CONTINUOUS
 62
              30
100
AcDbLine
 10
-1936.5001833933507
 20
1239.3239746149038
 30
0.0
 11
-1936.9951833933508
 21
1241.8119746149039
 31
0.0
  0
LINE
  5
468
100
AcDbEntity
  8
IMPORTED
  6
CONTINUOUS
 62
              30
100
AcDbLine
 10
-1936.9951833933508
 20
1241.8119746149039
 30
0.0
 11
-1938.4041833933506
 21
1243.9209746149038
 31
0.0
  0
LINE
  5
469
100
AcDbEntity
  8
IMPORTED
  6
CONTINUOUS
 62
              30
100
AcDbLine
 10
-1938.4041833933506
 20
1234.7269746149038
 30
0.0
 11
-1936.9951833933508
 21
1236.835974614904
 31
0.0
  0
LINE
  5
46A
100
AcDbEntity
  8
IMPORTED
  6
CONTINUOUS
 62
              30
100
AcDbLine
 10
-1936.9951833933508
 20
1236.835974614904
 30
0.0
 11
-1936.5001833933507
 21
1239.3239746149038
 31
0.0
  0
LINE
  5
46B
100
AcDbEntity
  8
IMPORTED
  6
STYLE_11
 62
              30
100
AcDbLine
 10
-2101.4999833933507
 20
1191.8239746149038
 30
0.0
 11
-2101.4999833933507
 21
1286.8239746149038
 31
0.0
  0
POLYLINE
  5
46C
100
AcDbEntity
  8
IMPORTED
  6
CONTINUOUS
 62
              30
100
AcDb2dPolyline
 66
               1
 10
0.0
 20
0.0
 30
0.0
 70
               1
 75
               5
  0
VERTEX
  5
46D
100
AcDbEntity
  8
IMPORTED
  6
CONTINUOUS
 62
              30
100
AcDbVertex
100
AcDb2dVertex
 10
-2101.4999833933507
 20
1190.3239746149038
 30
0.0
  0
VERTEX
  5
46E
100
AcDbEntity
  8
IMPORTED
  6
CONTINUOUS
 62
              30
100
AcDbVertex
100
AcDb2dVertex
 10
-2136.4999833933507
 20
1190.3239746149038
 30
0.0
  0
VERTEX
  5
46F
100
AcDbEntity
  8
IMPORTED
  6
CONTINUOUS
 62
              30
100
AcDbVertex
100
AcDb2dVertex
 10
-2136.4999833933507
 20
1191.8239746149038
 30
0.0
  0
VERTEX
  5
470
100
AcDbEntity
  8
IMPORTED
  6
CONTINUOUS
 62
              30
100
AcDbVertex
100
AcDb2dVertex
 10
-2101.4999833933507
 20
1191.8239746149038
 30
0.0
  0
VERTEX
  5
471
100
AcDbEntity
  8
IMPORTED
  6
CONTINUOUS
 62
              30
100
AcDbVertex
100
AcDb2dVertex
 10
-2163.4999833933507
 20
1217.5052146149039
 30
0.0
  0
VERTEX
  5
472
100
AcDbEntity
  8
IMPORTED
  6
CONTINUOUS
 62
              30
100
AcDbVertex
100
AcDb2dVertex
 10
-2163.4999833933507
 20
1261.1427346149039
 30
0.0
  0
VERTEX
  5
473
100
AcDbEntity
  8
IMPORTED
  6
CONTINUOUS
 62
              30
100
AcDbVertex
100
AcDb2dVertex
 10
-2101.4999833933507
 20
1286.8239746149038
 30
0.0
  0
VERTEX
  5
474
100
AcDbEntity
  8
IMPORTED
  6
CONTINUOUS
 62
              30
100
AcDbVertex
100
AcDb2dVertex
 10
-2099.9999833933507
 20
1286.8239746149038
 30
0.0
  0
VERTEX
  5
475
100
AcDbEntity
  8
IMPORTED
  6
CONTINUOUS
 62
              30
100
AcDbVertex
100
AcDb2dVertex
 10
-2099.9999833933507
 20
1191.8239746149038
 30
0.0
  0
VERTEX
  5
476
100
AcDbEntity
  8
IMPORTED
  6
CONTINUOUS
 62
              30
100
AcDbVertex
100
AcDb2dVertex
 10
-2099.9999833933507
 20
1190.3239746149038
 30
0.0
  0
SEQEND
  5
477
100
AcDbEntity
  8
IMPORTED
  6
CONTINUOUS
 62
              30
  0
LINE
  5
479
100
AcDbEntity
  8
IMPORTED
  6
STYLE_12
 62
              30
100
AcDbLine
 10
-2101.4999833933507
 20
1192.3239746149038
 30
0.0
 11
-2101.4999833933507
 21
1286.8239746149038
 31
0.0
  0
POLYLINE
  5
47A
100
AcDbEntity
  8
IMPORTED
  6
STYLE_05
 62
              30
100
AcDb2dPolyline
 66
               1
 10
0.0
 20
0.0
 30
0.0
 70
             129
  0
VERTEX
  5
47B
100
AcDbEntity
  8
IMPORTED
  6
STYLE_05
 62
              30
100
AcDbVertex
100
AcDb2dVertex
 10
-2143.4988933933505
 20
1245.8239746149038
 30
0.0
 42
0.414213562373095
 70
               2
 50
9.3574199307792870E+17
  0
VERTEX
  5
47C
100
AcDbEntity
  8
IMPORTED
  6
STYLE_05
 62
              30
100
AcDbVertex
100
AcDb2dVertex
 10
-2149.9988933933505
 20
1239.3239746149038
 30
0.0
 42
0.414213562373095
 70
               2
  0
VERTEX
  5
47D
100
AcDbEntity
  8
IMPORTED
  6
STYLE_05
 62
              30
100
AcDbVertex
100
AcDb2dVertex
 10
-2143.4988933933505
 20
1232.8239746149038
 30
0.0
  0
VERTEX
  5
47E
100
AcDbEntity
  8
IMPORTED
  6
STYLE_05
 62
              30
100
AcDbVertex
100
AcDb2dVertex
 10
-2130.4988933933505
 20
1232.8239746149038
 30
0.0
 42
0.414213562373095
 70
               2
 50
3.1191399769264294E+17
  0
VERTEX
  5
47F
100
AcDbEntity
  8
IMPORTED
  6
STYLE_05
 62
              30
100
AcDbVertex
100
AcDb2dVertex
 10
-2123.9988933933505
 20
1239.3239746149038
 30
0.0
 42
0.414213562373095
 70
               2
  0
VERTEX
  5
480
100
AcDbEntity
  8
IMPORTED
  6
STYLE_05
 62
              30
100
AcDbVertex
100
AcDb2dVertex
 10
-2130.4988933933505
 20
1245.8239746149038
 30
0.0
  0
SEQEND
  5
481
100
AcDbEntity
  8
IMPORTED
  6
STYLE_05
 62
              30
  0
LINE
  5
482
100
AcDbEntity
  8
IMPORTED
  6
CONTINUOUS
 62
              30
100
AcDbLine
 10
-2139.4857833933506
 20
1245.3299746149039
 30
0.0
 11
-2137.0017833933507
 21
1245.8239746149038
 31
0.0
  0
CIRCLE
  5
483
100
AcDbEntity
  8
IMPORTED
  6
CONTINUOUS
 62
              30
100
AcDbCircle
 10
-2136.9997833933508
 20
1239.3239746149038
 30
0.0
 40
13.0
  0
LINE
  5
484
100
AcDbEntity
  8
IMPORTED
  6
CONTINUOUS
 62
              30
100
AcDbLine
 10
-2137.0017833933507
 20
1245.8239746149038
 30
0.0
 11
-2134.5137833933509
 21
1245.3299746149039
 31
0.0
  0
POLYLINE
  5
485
100
AcDbEntity
  8
IMPORTED
  6
CONTINUOUS
 62
              30
100
AcDb2dPolyline
 66
               1
 10
0.0
 20
0.0
 30
0.0
 70
             129
  0
VERTEX
  5
486
100
AcDbEntity
  8
IMPORTED
  6
CONTINUOUS
 62
              30
100
AcDbVertex
100
AcDb2dVertex
 10
-2145.9657833933506
 20
1234.1479746149039
 30
0.0
  0
VERTEX
  5
487
100
AcDbEntity
  8
IMPORTED
  6
CONTINUOUS
 62
              30
100
AcDbVertex
100
AcDb2dVertex
 10
-2145.9657833933506
 20
1244.499974614904
 30
0.0
  0
VERTEX
  5
488
100
AcDbEntity
  8
IMPORTED
  6
CONTINUOUS
 62
              30
100
AcDbVertex
100
AcDb2dVertex
 10
-2136.9997833933508
 20
1249.6769746149039
 30
0.0
  0
VERTEX
  5
489
100
AcDbEntity
  8
IMPORTED
  6
CONTINUOUS
 62
              30
100
AcDbVertex
100
AcDb2dVertex
 10
-2128.0337833933504
 20
1244.500974614904
 30
0.0
  0
VERTEX
  5
48A
100
AcDbEntity
  8
IMPORTED
  6
CONTINUOUS
 62
              30
100
AcDbVertex
100
AcDb2dVertex
 10
-2128.0337833933504
 20
1234.1479746149039
 30
0.0
  0
VERTEX
  5
48B
100
AcDbEntity
  8
IMPORTED
  6
CONTINUOUS
 62
              30
100
AcDbVertex
100
AcDb2dVertex
 10
-2136.9997833933508
 20
1228.970974614904
 30
0.0
  0
SEQEND
  5
48C
100
AcDbEntity
  8
IMPORTED
  6
CONTINUOUS
 62
              30
  0
POLYLINE
  5
48D
100
AcDbEntity
  8
IMPORTED
  6
CONTINUOUS
 62
              30
100
AcDb2dPolyline
 66
               1
 10
0.0
 20
0.0
 30
0.0
 70
             129
  0
VERTEX
  5
48E
100
AcDbEntity
  8
IMPORTED
  6
CONTINUOUS
 62
              30
100
AcDbVertex
100
AcDb2dVertex
 10
-2106.4999833933507
 20
1286.8239746149038
 30
0.0
  0
VERTEX
  5
48F
100
AcDbEntity
  8
IMPORTED
  6
CONTINUOUS
 62
              30
100
AcDbVertex
100
AcDb2dVertex
 10
-2101.4999833933507
 20
1286.8239746149038
 30
0.0
  0
VERTEX
  5
490
100
AcDbEntity
  8
IMPORTED
  6
CONTINUOUS
 62
              30
100
AcDbVertex
100
AcDb2dVertex
 10
-2101.4999833933507
 20
1191.8239746149038
 30
0.0
  0
VERTEX
  5
491
100
AcDbEntity
  8
IMPORTED
  6
CONTINUOUS
 62
              30
100
AcDbVertex
100
AcDb2dVertex
 10
-2106.4999833933507
 20
1191.8239746149038
 30
0.0
  0
SEQEND
  5
492
100
AcDbEntity
  8
IMPORTED
  6
CONTINUOUS
 62
              30
  0
LINE
  5
493
100
AcDbEntity
  8
IMPORTED
  6
CONTINUOUS
 62
              30
100
AcDbLine
 10
-2141.5957833933508
 20
1243.9209746149038
 30
0.0
 11
-2139.4857833933506
 21
1245.3299746149039
 31
0.0
  0
LINE
  5
494
100
AcDbEntity
  8
IMPORTED
  6
CONTINUOUS
 62
              30
100
AcDbLine
 10
-2139.4857833933506
 20
1233.317974614904
 30
0.0
 11
-2141.5957833933508
 21
1234.7269746149038
 31
0.0
  0
LINE
  5
495
100
AcDbEntity
  8
IMPORTED
  6
CONTINUOUS
 62
              30
100
AcDbLine
 10
-2137.0017833933507
 20
1232.8239746149038
 30
0.0
 11
-2139.4857833933506
 21
1233.317974614904
 31
0.0
  0
LINE
  5
496
100
AcDbEntity
  8
IMPORTED
  6
CONTINUOUS
 62
              30
100
AcDbLine
 10
-2134.5137833933509
 20
1245.3299746149039
 30
0.0
 11
-2132.4037833933507
 21
1243.9209746149038
 31
0.0
  0
LINE
  5
497
100
AcDbEntity
  8
IMPORTED
  6
CONTINUOUS
 62
              30
100
AcDbLine
 10
-2132.4037833933507
 20
1243.9209746149038
 30
0.0
 11
-2130.9947833933506
 21
1241.8119746149039
 31
0.0
  0
LINE
  5
498
100
AcDbEntity
  8
IMPORTED
  6
CONTINUOUS
 62
              30
100
AcDbLine
 10
-2130.9947833933506
 20
1241.8119746149039
 30
0.0
 11
-2130.4997833933508
 21
1239.3239746149038
 31
0.0
  0
LINE
  5
499
100
AcDbEntity
  8
IMPORTED
  6
CONTINUOUS
 62
              30
100
AcDbLine
 10
-2130.4997833933508
 20
1239.3239746149038
 30
0.0
 11
-2130.9947833933506
 21
1236.835974614904
 31
0.0
  0
LINE
  5
49A
100
AcDbEntity
  8
IMPORTED
  6
CONTINUOUS
 62
              30
100
AcDbLine
 10
-2130.9947833933506
 20
1236.835974614904
 30
0.0
 11
-2132.4037833933507
 21
1234.7269746149038
 31
0.0
  0
LINE
  5
49B
100
AcDbEntity
  8
IMPORTED
  6
CONTINUOUS
 62
              30
100
AcDbLine
 10
-2132.4037833933507
 20
1234.7269746149038
 30
0.0
 11
-2134.5137833933509
 21
1233.317974614904
 31
0.0
  0
LINE
  5
49C
100
AcDbEntity
  8
IMPORTED
  6
CONTINUOUS
 62
              30
100
AcDbLine
 10
-2134.5137833933509
 20
1233.317974614904
 30
0.0
 11
-2137.0017833933507
 21
1232.8239746149038
 31
0.0
  0
LINE
  5
49D
100
AcDbEntity
  8
IMPORTED
  6
CONTINUOUS
 62
              30
100
AcDbLine
 10
-2143.4997833933508
 20
1239.3239746149038
 30
0.0
 11
-2143.0047833933509
 21
1241.8119746149039
 31
0.0
  0
LINE
  5
49E
100
AcDbEntity
  8
IMPORTED
  6
CONTINUOUS
 62
              30
100
AcDbLine
 10
-2143.0047833933509
 20
1241.8119746149039
 30
0.0
 11
-2141.5957833933508
 21
1243.9209746149038
 31
0.0
  0
LINE
  5
49F
100
AcDbEntity
  8
IMPORTED
  6
CONTINUOUS
 62
              30
100
AcDbLine
 10
-2141.5957833933508
 20
1234.7269746149038
 30
0.0
 11
-2143.0047833933509
 21
1236.835974614904
 31
0.0
  0
LINE
  5
4A0
100
AcDbEntity
  8
IMPORTED
  6
CONTINUOUS
 62
              30
100
AcDbLine
 10
-2143.0047833933509
 20
1236.835974614904
 30
0.0
 11
-2143.4997833933508
 21
1239.3239746149038
 31
0.0
  0
LINE
  5
4A1
100
AcDbEntity
  8
IMPORTED
  6
STYLE_11
 62
              30
100
AcDbLine
 10
-2101.4999833933507
 20
786.99997461490386
 30
0.0
 11
-2101.4999833933507
 21
881.99997461490386
 31
0.0
  0
POLYLINE
  5
4A2
100
AcDbEntity
  8
IMPORTED
  6
CONTINUOUS
 62
              30
100
AcDb2dPolyline
 66
               1
 10
0.0
 20
0.0
 30
0.0
 70
               1
 75
               5
  0
VERTEX
  5
4A3
100
AcDbEntity
  8
IMPORTED
  6
CONTINUOUS
 62
              30
100
AcDbVertex
100
AcDb2dVertex
 10
-2101.4999833933507
 20
785.49997461490386
 30
0.0
  0
VERTEX
  5
4A4
100
AcDbEntity
  8
IMPORTED
  6
CONTINUOUS
 62
              30
100
AcDbVertex
100
AcDb2dVertex
 10
-2136.4999833933507
 20
785.49997461490386
 30
0.0
  0
VERTEX
  5
4A5
100
AcDbEntity
  8
IMPORTED
  6
CONTINUOUS
 62
              30
100
AcDbVertex
100
AcDb2dVertex
 10
-2136.4999833933507
 20
786.99997461490386
 30
0.0
  0
VERTEX
  5
4A6
100
AcDbEntity
  8
IMPORTED
  6
CONTINUOUS
 62
              30
100
AcDbVertex
100
AcDb2dVertex
 10
-2101.4999833933507
 20
786.99997461490386
 30
0.0
  0
VERTEX
  5
4A7
100
AcDbEntity
  8
IMPORTED
  6
CONTINUOUS
 62
              30
100
AcDbVertex
100
AcDb2dVertex
 10
-2163.4999833933507
 20
812.68121461490398
 30
0.0
  0
VERTEX
  5
4A8
100
AcDbEntity
  8
IMPORTED
  6
CONTINUOUS
 62
              30
100
AcDbVertex
100
AcDb2dVertex
 10
-2163.4999833933507
 20
856.31873461490397
 30
0.0
  0
VERTEX
  5
4A9
100
AcDbEntity
  8
IMPORTED
  6
CONTINUOUS
 62
              30
100
AcDbVertex
100
AcDb2dVertex
 10
-2101.4999833933507
 20
881.99997461490386
 30
0.0
  0
VERTEX
  5
4AA
100
AcDbEntity
  8
IMPORTED
  6
CONTINUOUS
 62
              30
100
AcDbVertex
100
AcDb2dVertex
 10
-2099.9999833933507
 20
881.99997461490386
 30
0.0
  0
VERTEX
  5
4AB
100
AcDbEntity
  8
IMPORTED
  6
CONTINUOUS
 62
              30
100
AcDbVertex
100
AcDb2dVertex
 10
-2099.9999833933507
 20
786.99997461490386
 30
0.0
  0
VERTEX
  5
4AC
100
AcDbEntity
  8
IMPORTED
  6
CONTINUOUS
 62
              30
100
AcDbVertex
100
AcDb2dVertex
 10
-2099.9999833933507
 20
785.49997461490386
 30
0.0
  0
SEQEND
  5
4AD
100
AcDbEntity
  8
IMPORTED
  6
CONTINUOUS
 62
              30
  0
LINE
  5
4AF
100
AcDbEntity
  8
IMPORTED
  6
STYLE_12
 62
              30
100
AcDbLine
 10
-2101.4999833933507
 20
787.49997461490386
 30
0.0
 11
-2101.4999833933507
 21
881.99997461490386
 31
0.0
  0
POLYLINE
  5
4B0
100
AcDbEntity
  8
IMPORTED
  6
STYLE_05
 62
              30
100
AcDb2dPolyline
 66
               1
 10
0.0
 20
0.0
 30
0.0
 70
             129
  0
VERTEX
  5
4B1
100
AcDbEntity
  8
IMPORTED
  6
STYLE_05
 62
              30
100
AcDbVertex
100
AcDb2dVertex
 10
-2143.498893393351
 20
840.99997461490386
 30
0.0
 42
0.414213562373095
 70
               2
 50
9.3574199307792870E+17
  0
VERTEX
  5
4B2
100
AcDbEntity
  8
IMPORTED
  6
STYLE_05
 62
              30
100
AcDbVertex
100
AcDb2dVertex
 10
-2149.998893393351
 20
834.49997461490386
 30
0.0
 42
0.414213562373095
 70
               2
  0
VERTEX
  5
4B3
100
AcDbEntity
  8
IMPORTED
  6
STYLE_05
 62
              30
100
AcDbVertex
100
AcDb2dVertex
 10
-2143.498893393351
 20
827.99997461490386
 30
0.0
  0
VERTEX
  5
4B4
100
AcDbEntity
  8
IMPORTED
  6
STYLE_05
 62
              30
100
AcDbVertex
100
AcDb2dVertex
 10
-2130.498893393351
 20
827.99997461490386
 30
0.0
 42
0.414213562373095
 70
               2
 50
3.1191399769264294E+17
  0
VERTEX
  5
4B5
100
AcDbEntity
  8
IMPORTED
  6
STYLE_05
 62
              30
100
AcDbVertex
100
AcDb2dVertex
 10
-2123.998893393351
 20
834.49997461490386
 30
0.0
 42
0.414213562373095
 70
               2
  0
VERTEX
  5
4B6
100
AcDbEntity
  8
IMPORTED
  6
STYLE_05
 62
              30
100
AcDbVertex
100
AcDb2dVertex
 10
-2130.498893393351
 20
840.99997461490386
 30
0.0
  0
SEQEND
  5
4B7
100
AcDbEntity
  8
IMPORTED
  6
STYLE_05
 62
              30
  0
LINE
  5
4B8
100
AcDbEntity
  8
IMPORTED
  6
CONTINUOUS
 62
              30
100
AcDbLine
 10
-2139.4857833933506
 20
840.50597461490395
 30
0.0
 11
-2137.0017833933507
 21
840.99997461490386
 31
0.0
  0
CIRCLE
  5
4B9
100
AcDbEntity
  8
IMPORTED
  6
CONTINUOUS
 62
              30
100
AcDbCircle
 10
-2136.9997833933508
 20
834.49997461490386
 30
0.0
 40
13.0
  0
LINE
  5
4BA
100
AcDbEntity
  8
IMPORTED
  6
CONTINUOUS
 62
              30
100
AcDbLine
 10
-2137.0017833933507
 20
840.99997461490386
 30
0.0
 11
-2134.5137833933504
 21
840.50597461490395
 31
0.0
  0
POLYLINE
  5
4BB
100
AcDbEntity
  8
IMPORTED
  6
CONTINUOUS
 62
              30
100
AcDb2dPolyline
 66
               1
 10
0.0
 20
0.0
 30
0.0
 70
             129
  0
VERTEX
  5
4BC
100
AcDbEntity
  8
IMPORTED
  6
CONTINUOUS
 62
              30
100
AcDbVertex
100
AcDb2dVertex
 10
-2145.9657833933506
 20
829.32397461490393
 30
0.0
  0
VERTEX
  5
4BD
100
AcDbEntity
  8
IMPORTED
  6
CONTINUOUS
 62
              30
100
AcDbVertex
100
AcDb2dVertex
 10
-2145.9657833933506
 20
839.67597461490402
 30
0.0
  0
VERTEX
  5
4BE
100
AcDbEntity
  8
IMPORTED
  6
CONTINUOUS
 62
              30
100
AcDbVertex
100
AcDb2dVertex
 10
-2136.9997833933508
 20
844.85297461490393
 30
0.0
  0
VERTEX
  5
4BF
100
AcDbEntity
  8
IMPORTED
  6
CONTINUOUS
 62
              30
100
AcDbVertex
100
AcDb2dVertex
 10
-2128.0337833933509
 20
839.676974614904
 30
0.0
  0
VERTEX
  5
4C0
100
AcDbEntity
  8
IMPORTED
  6
CONTINUOUS
 62
              30
100
AcDbVertex
100
AcDb2dVertex
 10
-2128.0337833933509
 20
829.32397461490393
 30
0.0
  0
VERTEX
  5
4C1
100
AcDbEntity
  8
IMPORTED
  6
CONTINUOUS
 62
              30
100
AcDbVertex
100
AcDb2dVertex
 10
-2136.9997833933508
 20
824.14697461490402
 30
0.0
  0
SEQEND
  5
4C2
100
AcDbEntity
  8
IMPORTED
  6
CONTINUOUS
 62
              30
  0
POLYLINE
  5
4C3
100
AcDbEntity
  8
IMPORTED
  6
CONTINUOUS
 62
              30
100
AcDb2dPolyline
 66
               1
 10
0.0
 20
0.0
 30
0.0
 70
             129
  0
VERTEX
  5
4C4
100
AcDbEntity
  8
IMPORTED
  6
CONTINUOUS
 62
              30
100
AcDbVertex
100
AcDb2dVertex
 10
-2106.4999833933507
 20
881.99997461490386
 30
0.0
  0
VERTEX
  5
4C5
100
AcDbEntity
  8
IMPORTED
  6
CONTINUOUS
 62
              30
100
AcDbVertex
100
AcDb2dVertex
 10
-2101.4999833933507
 20
881.99997461490386
 30
0.0
  0
VERTEX
  5
4C6
100
AcDbEntity
  8
IMPORTED
  6
CONTINUOUS
 62
              30
100
AcDbVertex
100
AcDb2dVertex
 10
-2101.4999833933507
 20
786.99997461490386
 30
0.0
  0
VERTEX
  5
4C7
100
AcDbEntity
  8
IMPORTED
  6
CONTINUOUS
 62
              30
100
AcDbVertex
100
AcDb2dVertex
 10
-2106.4999833933507
 20
786.99997461490386
 30
0.0
  0
SEQEND
  5
4C8
100
AcDbEntity
  8
IMPORTED
  6
CONTINUOUS
 62
              30
  0
LINE
  5
4C9
100
AcDbEntity
  8
IMPORTED
  6
CONTINUOUS
 62
              30
100
AcDbLine
 10
-2141.5957833933508
 20
839.09697461490384
 30
0.0
 11
-2139.4857833933506
 21
840.50597461490395
 31
0.0
  0
LINE
  5
4CA
100
AcDbEntity
  8
IMPORTED
  6
CONTINUOUS
 62
              30
100
AcDbLine
 10
-2139.4857833933506
 20
828.493974614904
 30
0.0
 11
-2141.5957833933508
 21
829.90297461490388
 31
0.0
  0
LINE
  5
4CB
100
AcDbEntity
  8
IMPORTED
  6
CONTINUOUS
 62
              30
100
AcDbLine
 10
-2137.0017833933507
 20
827.99997461490386
 30
0.0
 11
-2139.4857833933506
 21
828.493974614904
 31
0.0
  0
LINE
  5
4CC
100
AcDbEntity
  8
IMPORTED
  6
CONTINUOUS
 62
              30
100
AcDbLine
 10
-2134.5137833933504
 20
840.50597461490395
 30
0.0
 11
-2132.4037833933507
 21
839.09697461490384
 31
0.0
  0
LINE
  5
4CD
100
AcDbEntity
  8
IMPORTED
  6
CONTINUOUS
 62
              30
100
AcDbLine
 10
-2132.4037833933507
 20
839.09697461490384
 30
0.0
 11
-2130.9947833933506
 21
836.98797461490392
 31
0.0
  0
LINE
  5
4CE
100
AcDbEntity
  8
IMPORTED
  6
CONTINUOUS
 62
              30
100
AcDbLine
 10
-2130.9947833933506
 20
836.98797461490392
 30
0.0
 11
-2130.4997833933508
 21
834.49997461490386
 31
0.0
  0
LINE
  5
4CF
100
AcDbEntity
  8
IMPORTED
  6
CONTINUOUS
 62
              30
100
AcDbLine
 10
-2130.4997833933508
 20
834.49997461490386
 30
0.0
 11
-2130.9947833933506
 21
832.01197461490403
 31
0.0
  0
LINE
  5
4D0
100
AcDbEntity
  8
IMPORTED
  6
CONTINUOUS
 62
              30
100
AcDbLine
 10
-2130.9947833933506
 20
832.01197461490403
 30
0.0
 11
-2132.4037833933507
 21
829.90297461490388
 31
0.0
  0
LINE
  5
4D1
100
AcDbEntity
  8
IMPORTED
  6
CONTINUOUS
 62
              30
100
AcDbLine
 10
-2132.4037833933507
 20
829.90297461490388
 30
0.0
 11
-2134.5137833933504
 21
828.493974614904
 31
0.0
  0
LINE
  5
4D2
100
AcDbEntity
  8
IMPORTED
  6
CONTINUOUS
 62
              30
100
AcDbLine
 10
-2134.5137833933504
 20
828.493974614904
 30
0.0
 11
-2137.0017833933507
 21
827.99997461490386
 31
0.0
  0
LINE
  5
4D3
100
AcDbEntity
  8
IMPORTED
  6
CONTINUOUS
 62
              30
100
AcDbLine
 10
-2143.4997833933508
 20
834.49997461490386
 30
0.0
 11
-2143.0047833933504
 21
836.98797461490392
 31
0.0
  0
LINE
  5
4D4
100
AcDbEntity
  8
IMPORTED
  6
CONTINUOUS
 62
              30
100
AcDbLine
 10
-2143.0047833933504
 20
836.98797461490392
 30
0.0
 11
-2141.5957833933508
 21
839.09697461490384
 31
0.0
  0
LINE
  5
4D5
100
AcDbEntity
  8
IMPORTED
  6
CONTINUOUS
 62
              30
100
AcDbLine
 10
-2141.5957833933508
 20
829.90297461490388
 30
0.0
 11
-2143.0047833933504
 21
832.01197461490403
 31
0.0
  0
LINE
  5
4D6
100
AcDbEntity
  8
IMPORTED
  6
CONTINUOUS
 62
              30
100
AcDbLine
 10
-2143.0047833933504
 20
832.01197461490403
 30
0.0
 11
-2143.4997833933508
 21
834.49997461490386
 31
0.0
  0
CIRCLE
  5
4D7
100
AcDbEntity
  8
IMPORTED
  6
CONTINUOUS
 62
              30
100
AcDbCircle
 10
56.999816606649169
 20
1239.4999746149037
 30
0.0
 40
6.0
  0
POLYLINE
  5
4D8
100
AcDbEntity
  8
IMPORTED
  6
CONTINUOUS
 62
              30
100
AcDb2dPolyline
 66
               1
 10
0.0
 20
0.0
 30
0.0
 70
               1
 75
               5
  0
VERTEX
  5
4D9
100
AcDbEntity
  8
IMPORTED
  6
CONTINUOUS
 62
              30
100
AcDbVertex
100
AcDb2dVertex
 10
56.999816606649169
 20
1231.500074614904
 30
0.0
  0
VERTEX
  5
4DA
100
AcDbEntity
  8
IMPORTED
  6
CONTINUOUS
 62
              30
100
AcDbVertex
100
AcDb2dVertex
 10
64.999731273315774
 20
1235.4999892815706
 30
0.0
  0
VERTEX
  5
4DB
100
AcDbEntity
  8
IMPORTED
  6
CONTINUOUS
 62
              30
100
AcDbVertex
100
AcDb2dVertex
 10
64.999816606649176
 20
1243.4999892815706
 30
0.0
  0
VERTEX
  5
4DC
100
AcDbEntity
  8
IMPORTED
  6
CONTINUOUS
 62
              30
100
AcDbVertex
100
AcDb2dVertex
 10
57.000072606649091
 20
1247.500074614904
 30
0.0
  0
VERTEX
  5
4DD
100
AcDbEntity
  8
IMPORTED
  6
CONTINUOUS
 62
              30
100
AcDbVertex
100
AcDb2dVertex
 10
48.999901939982458
 20
1243.5001599482368
 30
0.0
  0
VERTEX
  5
4DE
100
AcDbEntity
  8
IMPORTED
  6
CONTINUOUS
 62
              30
100
AcDbVertex
100
AcDb2dVertex
 10
48.999816606649169
 20
1235.5001599482368
 30
0.0
  0
SEQEND
  5
4DF
100
AcDbEntity
  8
IMPORTED
  6
CONTINUOUS
 62
              30
  0
CIRCLE
  5
4E1
100
AcDbEntity
  8
IMPORTED
  6
CONTINUOUS
 62
              30
100
AcDbCircle
 10
56.999816606649169
 20
1239.4999746149037
 30
0.0
 40
15.999999999999927
  0
LINE
  5
4E2
100
AcDbEntity
  8
IMPORTED
  6
CONTINUOUS
 62
              30
100
AcDbLine
 10
20.000016606649119
 20
1286.9999746149037
 30
0.0
 11
20.000016606649119
 21
1191.9999746149037
 31
0.0
  0
POLYLINE
  5
4E3
100
AcDbEntity
  8
IMPORTED
  6
CONTINUOUS
 62
              30
100
AcDb2dPolyline
 66
               1
 10
0.0
 20
0.0
 30
0.0
 70
             129
  0
VERTEX
  5
4E4
100
AcDbEntity
  8
IMPORTED
  6
CONTINUOUS
 62
              30
100
AcDbVertex
100
AcDb2dVertex
 10
26.500016606649119
 20
1286.9999746149037
 30
0.0
  0
VERTEX
  5
4E5
100
AcDbEntity
  8
IMPORTED
  6
CONTINUOUS
 62
              30
100
AcDbVertex
100
AcDb2dVertex
 10
21.500016606649119
 20
1286.9999746149037
 30
0.0
  0
VERTEX
  5
4E6
100
AcDbEntity
  8
IMPORTED
  6
CONTINUOUS
 62
              30
100
AcDbVertex
100
AcDb2dVertex
 10
21.500016606649119
 20
1191.9999746149037
 30
0.0
  0
VERTEX
  5
4E7
100
AcDbEntity
  8
IMPORTED
  6
CONTINUOUS
 62
              30
100
AcDbVertex
100
AcDb2dVertex
 10
26.500016606649119
 20
1191.9999746149037
 30
0.0
  0
SEQEND
  5
4E8
100
AcDbEntity
  8
IMPORTED
  6
CONTINUOUS
 62
              30
  0
POLYLINE
  5
4E9
100
AcDbEntity
  8
IMPORTED
  6
CONTINUOUS
 62
              30
100
AcDb2dPolyline
 66
               1
 10
0.0
 20
0.0
 30
0.0
 70
               1
 75
               5
  0
VERTEX
  5
4EA
100
AcDbEntity
  8
IMPORTED
  6
CONTINUOUS
 62
              30
100
AcDbVertex
100
AcDb2dVertex
 10
20.000016606649119
 20
1286.9999746149037
 30
0.0
  0
VERTEX
  5
4EB
100
AcDbEntity
  8
IMPORTED
  6
CONTINUOUS
 62
              30
100
AcDbVertex
100
AcDb2dVertex
 10
21.500016606649119
 20
1286.9999746149037
 30
0.0
  0
VERTEX
  5
4EC
100
AcDbEntity
  8
IMPORTED
  6
CONTINUOUS
 62
              30
100
AcDbVertex
100
AcDb2dVertex
 10
21.500016606649119
 20
1191.9999746149037
 30
0.0
  0
VERTEX
  5
4ED
100
AcDbEntity
  8
IMPORTED
  6
CONTINUOUS
 62
              30
100
AcDbVertex
100
AcDb2dVertex
 10
56.500016606649119
 20
1191.9999746149037
 30
0.0
  0
VERTEX
  5
4EE
100
AcDbEntity
  8
IMPORTED
  6
CONTINUOUS
 62
              30
100
AcDbVertex
100
AcDb2dVertex
 10
56.500016606649119
 20
1190.4999746149037
 30
0.0
  0
VERTEX
  5
4EF
100
AcDbEntity
  8
IMPORTED
  6
CONTINUOUS
 62
              30
100
AcDbVertex
100
AcDb2dVertex
 10
20.000016606649119
 20
1190.4999746149037
 30
0.0
  0
SEQEND
  5
4F0
100
AcDbEntity
  8
IMPORTED
  6
CONTINUOUS
 62
              30
  0
CIRCLE
  5
4F2
100
AcDbEntity
  8
IMPORTED
  6
CONTINUOUS
 62
              30
100
AcDbCircle
 10
-136.99978339335092
 20
1239.4999746149037
 30
0.0
 40
6.0
  0
POLYLINE
  5
4F3
100
AcDbEntity
  8
IMPORTED
  6
CONTINUOUS
 62
              30
100
AcDb2dPolyline
 66
               1
 10
0.0
 20
0.0
 30
0.0
 70
               1
 75
               5
  0
VERTEX
  5
4F4
100
AcDbEntity
  8
IMPORTED
  6
CONTINUOUS
 62
              30
100
AcDbVertex
100
AcDb2dVertex
 10
-136.99978339335092
 20
1231.500074614904
 30
0.0
  0
VERTEX
  5
4F5
100
AcDbEntity
  8
IMPORTED
  6
CONTINUOUS
 62
              30
100
AcDbVertex
100
AcDb2dVertex
 10
-128.99986872668433
 20
1235.4999892815706
 30
0.0
  0
VERTEX
  5
4F6
100
AcDbEntity
  8
IMPORTED
  6
CONTINUOUS
 62
              30
100
AcDbVertex
100
AcDb2dVertex
 10
-128.99978339335092
 20
1243.4999892815706
 30
0.0
  0
VERTEX
  5
4F7
100
AcDbEntity
  8
IMPORTED
  6
CONTINUOUS
 62
              30
100
AcDbVertex
100
AcDb2dVertex
 10
-136.999527393351
 20
1247.500074614904
 30
0.0
  0
VERTEX
  5
4F8
100
AcDbEntity
  8
IMPORTED
  6
CONTINUOUS
 62
              30
100
AcDbVertex
100
AcDb2dVertex
 10
-144.99969806001764
 20
1243.5001599482368
 30
0.0
  0
VERTEX
  5
4F9
100
AcDbEntity
  8
IMPORTED
  6
CONTINUOUS
 62
              30
100
AcDbVertex
100
AcDb2dVertex
 10
-144.99978339335092
 20
1235.5001599482368
 30
0.0
  0
SEQEND
  5
4FA
100
AcDbEntity
  8
IMPORTED
  6
CONTINUOUS
 62
              30
  0
CIRCLE
  5
4FC
100
AcDbEntity
  8
IMPORTED
  6
CONTINUOUS
 62
              30
100
AcDbCircle
 10
-136.99978339335092
 20
1239.4999746149037
 30
0.0
 40
15.999999999999927
  0
LINE
  5
4FD
100
AcDbEntity
  8
IMPORTED
  6
CONTINUOUS
 62
              30
100
AcDbLine
 10
-99.999983393350874
 20
1286.9999746149037
 30
0.0
 11
-99.999983393350874
 21
1191.9999746149037
 31
0.0
  0
POLYLINE
  5
4FE
100
AcDbEntity
  8
IMPORTED
  6
CONTINUOUS
 62
              30
100
AcDb2dPolyline
 66
               1
 10
0.0
 20
0.0
 30
0.0
 70
             129
  0
VERTEX
  5
4FF
100
AcDbEntity
  8
IMPORTED
  6
CONTINUOUS
 62
              30
100
AcDbVertex
100
AcDb2dVertex
 10
-106.49998339335087
 20
1286.9999746149037
 30
0.0
  0
VERTEX
  5
500
100
AcDbEntity
  8
IMPORTED
  6
CONTINUOUS
 62
              30
100
AcDbVertex
100
AcDb2dVertex
 10
-101.49998339335087
 20
1286.9999746149037
 30
0.0
  0
VERTEX
  5
501
100
AcDbEntity
  8
IMPORTED
  6
CONTINUOUS
 62
              30
100
AcDbVertex
100
AcDb2dVertex
 10
-101.49998339335087
 20
1191.9999746149037
 30
0.0
  0
VERTEX
  5
502
100
AcDbEntity
  8
IMPORTED
  6
CONTINUOUS
 62
              30
100
AcDbVertex
100
AcDb2dVertex
 10
-106.49998339335087
 20
1191.9999746149037
 30
0.0
  0
SEQEND
  5
503
100
AcDbEntity
  8
IMPORTED
  6
CONTINUOUS
 62
              30
  0
POLYLINE
  5
504
100
AcDbEntity
  8
IMPORTED
  6
CONTINUOUS
 62
              30
100
AcDb2dPolyline
 66
               1
 10
0.0
 20
0.0
 30
0.0
 70
               1
 75
               5
  0
VERTEX
  5
505
100
AcDbEntity
  8
IMPORTED
  6
CONTINUOUS
 62
              30
100
AcDbVertex
100
AcDb2dVertex
 10
-99.999983393350874
 20
1286.9999746149037
 30
0.0
  0
VERTEX
  5
506
100
AcDbEntity
  8
IMPORTED
  6
CONTINUOUS
 62
              30
100
AcDbVertex
100
AcDb2dVertex
 10
-101.49998339335087
 20
1286.9999746149037
 30
0.0
  0
VERTEX
  5
507
100
AcDbEntity
  8
IMPORTED
  6
CONTINUOUS
 62
              30
100
AcDbVertex
100
AcDb2dVertex
 10
-101.49998339335087
 20
1191.9999746149037
 30
0.0
  0
VERTEX
  5
508
100
AcDbEntity
  8
IMPORTED
  6
CONTINUOUS
 62
              30
100
AcDbVertex
100
AcDb2dVertex
 10
-136.49998339335087
 20
1191.9999746149037
 30
0.0
  0
VERTEX
  5
509
100
AcDbEntity
  8
IMPORTED
  6
CONTINUOUS
 62
              30
100
AcDbVertex
100
AcDb2dVertex
 10
-136.49998339335087
 20
1190.4999746149037
 30
0.0
  0
VERTEX
  5
50A
100
AcDbEntity
  8
IMPORTED
  6
CONTINUOUS
 62
              30
100
AcDbVertex
100
AcDb2dVertex
 10
-99.999983393350874
 20
1190.4999746149037
 30
0.0
  0
SEQEND
  5
50B
100
AcDbEntity
  8
IMPORTED
  6
CONTINUOUS
 62
              30
  0
CIRCLE
  5
50D
100
AcDbEntity
  8
IMPORTED
  6
CONTINUOUS
 62
              30
100
AcDbCircle
 10
56.999816606649169
 20
834.49997461490375
 30
0.0
 40
6.0
  0
POLYLINE
  5
50E
100
AcDbEntity
  8
IMPORTED
  6
CONTINUOUS
 62
              30
100
AcDb2dPolyline
 66
               1
 10
0.0
 20
0.0
 30
0.0
 70
               1
 75
               5
  0
VERTEX
  5
50F
100
AcDbEntity
  8
IMPORTED
  6
CONTINUOUS
 62
              30
100
AcDbVertex
100
AcDb2dVertex
 10
56.999816606649169
 20
826.50007461490395
 30
0.0
  0
VERTEX
  5
510
100
AcDbEntity
  8
IMPORTED
  6
CONTINUOUS
 62
              30
100
AcDbVertex
100
AcDb2dVertex
 10
64.999731273315774
 20
830.49998928157061
 30
0.0
  0
VERTEX
  5
511
100
AcDbEntity
  8
IMPORTED
  6
CONTINUOUS
 62
              30
100
AcDbVertex
100
AcDb2dVertex
 10
64.999816606649176
 20
838.49998928157061
 30
0.0
  0
VERTEX
  5
512
100
AcDbEntity
  8
IMPORTED
  6
CONTINUOUS
 62
              30
100
AcDbVertex
100
AcDb2dVertex
 10
57.000072606649091
 20
842.50007461490395
 30
0.0
  0
VERTEX
  5
513
100
AcDbEntity
  8
IMPORTED
  6
CONTINUOUS
 62
              30
100
AcDbVertex
100
AcDb2dVertex
 10
48.999901939982458
 20
838.50015994823684
 30
0.0
  0
VERTEX
  5
514
100
AcDbEntity
  8
IMPORTED
  6
CONTINUOUS
 62
              30
100
AcDbVertex
100
AcDb2dVertex
 10
48.999816606649169
 20
830.50015994823684
 30
0.0
  0
SEQEND
  5
515
100
AcDbEntity
  8
IMPORTED
  6
CONTINUOUS
 62
              30
  0
CIRCLE
  5
517
100
AcDbEntity
  8
IMPORTED
  6
CONTINUOUS
 62
              30
100
AcDbCircle
 10
56.999816606649169
 20
834.49997461490375
 30
0.0
 40
16.000000000000007
  0
LINE
  5
518
100
AcDbEntity
  8
IMPORTED
  6
CONTINUOUS
 62
              30
100
AcDbLine
 10
20.000016606649119
 20
881.99997461490375
 30
0.0
 11
20.000016606649119
 21
786.99997461490375
 31
0.0
  0
POLYLINE
  5
519
100
AcDbEntity
  8
IMPORTED
  6
CONTINUOUS
 62
              30
100
AcDb2dPolyline
 66
               1
 10
0.0
 20
0.0
 30
0.0
 70
             129
  0
VERTEX
  5
51A
100
AcDbEntity
  8
IMPORTED
  6
CONTINUOUS
 62
              30
100
AcDbVertex
100
AcDb2dVertex
 10
26.500016606649119
 20
881.99997461490375
 30
0.0
  0
VERTEX
  5
51B
100
AcDbEntity
  8
IMPORTED
  6
CONTINUOUS
 62
              30
100
AcDbVertex
100
AcDb2dVertex
 10
21.500016606649119
 20
881.99997461490375
 30
0.0
  0
VERTEX
  5
51C
100
AcDbEntity
  8
IMPORTED
  6
CONTINUOUS
 62
              30
100
AcDbVertex
100
AcDb2dVertex
 10
21.500016606649119
 20
786.99997461490375
 30
0.0
  0
VERTEX
  5
51D
100
AcDbEntity
  8
IMPORTED
  6
CONTINUOUS
 62
              30
100
AcDbVertex
100
AcDb2dVertex
 10
26.500016606649119
 20
786.99997461490375
 30
0.0
  0
SEQEND
  5
51E
100
AcDbEntity
  8
IMPORTED
  6
CONTINUOUS
 62
              30
  0
POLYLINE
  5
51F
100
AcDbEntity
  8
IMPORTED
  6
CONTINUOUS
 62
              30
100
AcDb2dPolyline
 66
               1
 10
0.0
 20
0.0
 30
0.0
 70
               1
 75
               5
  0
VERTEX
  5
520
100
AcDbEntity
  8
IMPORTED
  6
CONTINUOUS
 62
              30
100
AcDbVertex
100
AcDb2dVertex
 10
20.000016606649119
 20
881.99997461490375
 30
0.0
  0
VERTEX
  5
521
100
AcDbEntity
  8
IMPORTED
  6
CONTINUOUS
 62
              30
100
AcDbVertex
100
AcDb2dVertex
 10
21.500016606649119
 20
881.99997461490375
 30
0.0
  0
VERTEX
  5
522
100
AcDbEntity
  8
IMPORTED
  6
CONTINUOUS
 62
              30
100
AcDbVertex
100
AcDb2dVertex
 10
21.500016606649119
 20
786.99997461490375
 30
0.0
  0
VERTEX
  5
523
100
AcDbEntity
  8
IMPORTED
  6
CONTINUOUS
 62
              30
100
AcDbVertex
100
AcDb2dVertex
 10
56.500016606649119
 20
786.99997461490375
 30
0.0
  0
VERTEX
  5
524
100
AcDbEntity
  8
IMPORTED
  6
CONTINUOUS
 62
              30
100
AcDbVertex
100
AcDb2dVertex
 10
56.500016606649119
 20
785.49997461490375
 30
0.0
  0
VERTEX
  5
525
100
AcDbEntity
  8
IMPORTED
  6
CONTINUOUS
 62
              30
100
AcDbVertex
100
AcDb2dVertex
 10
20.000016606649119
 20
785.49997461490375
 30
0.0
  0
SEQEND
  5
526
100
AcDbEntity
  8
IMPORTED
  6
CONTINUOUS
 62
              30
  0
CIRCLE
  5
528
100
AcDbEntity
  8
IMPORTED
  6
CONTINUOUS
 62
              30
100
AcDbCircle
 10
-136.99978339335092
 20
834.49997461490375
 30
0.0
 40
6.0
  0
POLYLINE
  5
529
100
AcDbEntity
  8
IMPORTED
  6
CONTINUOUS
 62
              30
100
AcDb2dPolyline
 66
               1
 10
0.0
 20
0.0
 30
0.0
 70
               1
 75
               5
  0
VERTEX
  5
52A
100
AcDbEntity
  8
IMPORTED
  6
CONTINUOUS
 62
              30
100
AcDbVertex
100
AcDb2dVertex
 10
-136.99978339335092
 20
826.50007461490395
 30
0.0
  0
VERTEX
  5
52B
100
AcDbEntity
  8
IMPORTED
  6
CONTINUOUS
 62
              30
100
AcDbVertex
100
AcDb2dVertex
 10
-128.99986872668433
 20
830.49998928157061
 30
0.0
  0
VERTEX
  5
52C
100
AcDbEntity
  8
IMPORTED
  6
CONTINUOUS
 62
              30
100
AcDbVertex
100
AcDb2dVertex
 10
-128.99978339335092
 20
838.49998928157061
 30
0.0
  0
VERTEX
  5
52D
100
AcDbEntity
  8
IMPORTED
  6
CONTINUOUS
 62
              30
100
AcDbVertex
100
AcDb2dVertex
 10
-136.999527393351
 20
842.50007461490395
 30
0.0
  0
VERTEX
  5
52E
100
AcDbEntity
  8
IMPORTED
  6
CONTINUOUS
 62
              30
100
AcDbVertex
100
AcDb2dVertex
 10
-144.99969806001764
 20
838.50015994823684
 30
0.0
  0
VERTEX
  5
52F
100
AcDbEntity
  8
IMPORTED
  6
CONTINUOUS
 62
              30
100
AcDbVertex
100
AcDb2dVertex
 10
-144.99978339335092
 20
830.50015994823684
 30
0.0
  0
SEQEND
  5
530
100
AcDbEntity
  8
IMPORTED
  6
CONTINUOUS
 62
              30
  0
CIRCLE
  5
532
100
AcDbEntity
  8
IMPORTED
  6
CONTINUOUS
 62
              30
100
AcDbCircle
 10
-136.99978339335092
 20
834.49997461490375
 30
0.0
 40
16.000000000000007
  0
LINE
  5
533
100
AcDbEntity
  8
IMPORTED
  6
CONTINUOUS
 62
              30
100
AcDbLine
 10
-99.999983393350874
 20
881.99997461490375
 30
0.0
 11
-99.999983393350874
 21
786.99997461490375
 31
0.0
  0
POLYLINE
  5
534
100
AcDbEntity
  8
IMPORTED
  6
CONTINUOUS
 62
              30
100
AcDb2dPolyline
 66
               1
 10
0.0
 20
0.0
 30
0.0
 70
             129
  0
VERTEX
  5
535
100
AcDbEntity
  8
IMPORTED
  6
CONTINUOUS
 62
              30
100
AcDbVertex
100
AcDb2dVertex
 10
-106.49998339335087
 20
881.99997461490375
 30
0.0
  0
VERTEX
  5
536
100
AcDbEntity
  8
IMPORTED
  6
CONTINUOUS
 62
              30
100
AcDbVertex
100
AcDb2dVertex
 10
-101.49998339335087
 20
881.99997461490375
 30
0.0
  0
VERTEX
  5
537
100
AcDbEntity
  8
IMPORTED
  6
CONTINUOUS
 62
              30
100
AcDbVertex
100
AcDb2dVertex
 10
-101.49998339335087
 20
786.99997461490375
 30
0.0
  0
VERTEX
  5
538
100
AcDbEntity
  8
IMPORTED
  6
CONTINUOUS
 62
              30
100
AcDbVertex
100
AcDb2dVertex
 10
-106.49998339335087
 20
786.99997461490375
 30
0.0
  0
SEQEND
  5
539
100
AcDbEntity
  8
IMPORTED
  6
CONTINUOUS
 62
              30
  0
POLYLINE
  5
53A
100
AcDbEntity
  8
IMPORTED
  6
CONTINUOUS
 62
              30
100
AcDb2dPolyline
 66
               1
 10
0.0
 20
0.0
 30
0.0
 70
               1
 75
               5
  0
VERTEX
  5
53B
100
AcDbEntity
  8
IMPORTED
  6
CONTINUOUS
 62
              30
100
AcDbVertex
100
AcDb2dVertex
 10
-99.999983393350874
 20
881.99997461490375
 30
0.0
  0
VERTEX
  5
53C
100
AcDbEntity
  8
IMPORTED
  6
CONTINUOUS
 62
              30
100
AcDbVertex
100
AcDb2dVertex
 10
-101.49998339335087
 20
881.99997461490375
 30
0.0
  0
VERTEX
  5
53D
100
AcDbEntity
  8
IMPORTED
  6
CONTINUOUS
 62
              30
100
AcDbVertex
100
AcDb2dVertex
 10
-101.49998339335087
 20
786.99997461490375
 30
0.0
  0
VERTEX
  5
53E
100
AcDbEntity
  8
IMPORTED
  6
CONTINUOUS
 62
              30
100
AcDbVertex
100
AcDb2dVertex
 10
-136.49998339335087
 20
786.99997461490375
 30
0.0
  0
VERTEX
  5
53F
100
AcDbEntity
  8
IMPORTED
  6
CONTINUOUS
 62
              30
100
AcDbVertex
100
AcDb2dVertex
 10
-136.49998339335087
 20
785.49997461490375
 30
0.0
  0
VERTEX
  5
540
100
AcDbEntity
  8
IMPORTED
  6
CONTINUOUS
 62
              30
100
AcDbVertex
100
AcDb2dVertex
 10
-99.999983393350874
 20
785.49997461490375
 30
0.0
  0
SEQEND
  5
541
100
AcDbEntity
  8
IMPORTED
  6
CONTINUOUS
 62
              30
  0
POLYLINE
  5
543
100
AcDbEntity
  8
IMPORTED
  6
STYLE_05
 62
              30
100
AcDb2dPolyline
 66
               1
 10
0.0
 20
0.0
 30
0.0
 70
             129
  0
VERTEX
  5
544
100
AcDbEntity
  8
IMPORTED
  6
STYLE_05
 62
              30
100
AcDbVertex
100
AcDb2dVertex
 10
1569.9999166066489
 20
1286.9999746149037
 30
0.0
  0
VERTEX
  5
545
100
AcDbEntity
  8
IMPORTED
  6
STYLE_05
 62
              30
100
AcDbVertex
100
AcDb2dVertex
 10
1609.9999166066489
 20
1286.9999746149037
 30
0.0
  0
VERTEX
  5
546
100
AcDbEntity
  8
IMPORTED
  6
STYLE_05
 62
              30
100
AcDbVertex
100
AcDb2dVertex
 10
1614.9999166066489
 20
1281.9999746149037
 30
0.0
  0
VERTEX
  5
547
100
AcDbEntity
  8
IMPORTED
  6
STYLE_05
 62
              30
100
AcDbVertex
100
AcDb2dVertex
 10
1614.9999166066489
 20
1196.9999746149037
 30
0.0
  0
VERTEX
  5
548
100
AcDbEntity
  8
IMPORTED
  6
STYLE_05
 62
              30
100
AcDbVertex
100
AcDb2dVertex
 10
1609.9999166066489
 20
1191.9999746149037
 30
0.0
  0
VERTEX
  5
549
100
AcDbEntity
  8
IMPORTED
  6
STYLE_05
 62
              30
100
AcDbVertex
100
AcDb2dVertex
 10
1569.9999166066489
 20
1191.9999746149037
 30
0.0
  0
VERTEX
  5
54A
100
AcDbEntity
  8
IMPORTED
  6
STYLE_05
 62
              30
100
AcDbVertex
100
AcDb2dVertex
 10
1564.9999166066489
 20
1196.9999746149037
 30
0.0
  0
VERTEX
  5
54B
100
AcDbEntity
  8
IMPORTED
  6
STYLE_05
 62
              30
100
AcDbVertex
100
AcDb2dVertex
 10
1564.9999166066489
 20
1281.9999746149037
 30
0.0
  0
SEQEND
  5
54C
100
AcDbEntity
  8
IMPORTED
  6
STYLE_05
 62
              30
  0
POLYLINE
  5
54D
100
AcDbEntity
  8
IMPORTED
  6
STYLE_05
 62
              30
100
AcDb2dPolyline
 66
               1
 10
0.0
 20
0.0
 30
0.0
 70
             129
  0
VERTEX
  5
54E
100
AcDbEntity
  8
IMPORTED
  6
STYLE_05
 62
              30
100
AcDbVertex
100
AcDb2dVertex
 10
1609.9999166066489
 20
1251.9999746149037
 30
0.0
  0
VERTEX
  5
54F
100
AcDbEntity
  8
IMPORTED
  6
STYLE_05
 62
              30
100
AcDbVertex
100
AcDb2dVertex
 10
1609.9999166066489
 20
1226.9999746149037
 30
0.0
  0
VERTEX
  5
550
100
AcDbEntity
  8
IMPORTED
  6
STYLE_05
 62
              30
100
AcDbVertex
100
AcDb2dVertex
 10
1569.9999166066489
 20
1226.9999746149037
 30
0.0
  0
VERTEX
  5
551
100
AcDbEntity
  8
IMPORTED
  6
STYLE_05
 62
              30
100
AcDbVertex
100
AcDb2dVertex
 10
1569.9999166066489
 20
1251.9999746149037
 30
0.0
  0
SEQEND
  5
552
100
AcDbEntity
  8
IMPORTED
  6
STYLE_05
 62
              30
  0
POLYLINE
  5
553
100
AcDbEntity
  8
IMPORTED
  6
STYLE_05
 62
              30
100
AcDb2dPolyline
 66
               1
 10
0.0
 20
0.0
 30
0.0
 70
             129
  0
VERTEX
  5
554
100
AcDbEntity
  8
IMPORTED
  6
STYLE_05
 62
              30
100
AcDbVertex
100
AcDb2dVertex
 10
1561.4999166066489
 20
1249.4999746149037
 30
0.0
  0
VERTEX
  5
555
100
AcDbEntity
  8
IMPORTED
  6
STYLE_05
 62
              30
100
AcDbVertex
100
AcDb2dVertex
 10
1563.4999166066489
 20
1249.4999746149037
 30
0.0
  0
VERTEX
  5
556
100
AcDbEntity
  8
IMPORTED
  6
STYLE_05
 62
              30
100
AcDbVertex
100
AcDb2dVertex
 10
1563.4999166066489
 20
1229.4999746149037
 30
0.0
  0
VERTEX
  5
557
100
AcDbEntity
  8
IMPORTED
  6
STYLE_05
 62
              30
100
AcDbVertex
100
AcDb2dVertex
 10
1561.4999166066489
 20
1229.4999746149037
 30
0.0
  0
SEQEND
  5
558
100
AcDbEntity
  8
IMPORTED
  6
STYLE_05
 62
              30
  0
POLYLINE
  5
559
100
AcDbEntity
  8
IMPORTED
  6
STYLE_05
 62
              30
100
AcDb2dPolyline
 66
               1
 10
0.0
 20
0.0
 30
0.0
 70
             128
  0
VERTEX
  5
55A
100
AcDbEntity
  8
IMPORTED
  6
STYLE_05
 62
              30
100
AcDbVertex
100
AcDb2dVertex
 10
1555.9999166066489
 20
1245.6999746149038
 30
0.0
  0
VERTEX
  5
55B
100
AcDbEntity
  8
IMPORTED
  6
STYLE_05
 62
              30
100
AcDbVertex
100
AcDb2dVertex
 10
1556.7505166066489
 20
1246.9999746149037
 30
0.0
  0
VERTEX
  5
55C
100
AcDbEntity
  8
IMPORTED
  6
STYLE_05
 62
              30
100
AcDbVertex
100
AcDb2dVertex
 10
1561.4999166066489
 20
1246.9999746149037
 30
0.0
  0
VERTEX
  5
55D
100
AcDbEntity
  8
IMPORTED
  6
STYLE_05
 62
              30
100
AcDbVertex
100
AcDb2dVertex
 10
1561.4999166066489
 20
1231.9999746149037
 30
0.0
  0
VERTEX
  5
55E
100
AcDbEntity
  8
IMPORTED
  6
STYLE_05
 62
              30
100
AcDbVertex
100
AcDb2dVertex
 10
1556.7505166066489
 20
1231.9999746149037
 30
0.0
  0
VERTEX
  5
55F
100
AcDbEntity
  8
IMPORTED
  6
STYLE_05
 62
              30
100
AcDbVertex
100
AcDb2dVertex
 10
1555.9999166066489
 20
1233.2999746149039
 30
0.0
  0
VERTEX
  5
560
100
AcDbEntity
  8
IMPORTED
  6
STYLE_05
 62
              30
100
AcDbVertex
100
AcDb2dVertex
 10
1555.9999166066489
 20
1245.6999746149038
 30
0.0
  0
SEQEND
  5
561
100
AcDbEntity
  8
IMPORTED
  6
STYLE_05
 62
              30
  0
POLYLINE
  5
562
100
AcDbEntity
  8
IMPORTED
  6
STYLE_05
 62
              30
100
AcDb2dPolyline
 66
               1
 10
0.0
 20
0.0
 30
0.0
 70
             128
  0
VERTEX
  5
563
100
AcDbEntity
  8
IMPORTED
  6
STYLE_05
 62
              30
100
AcDbVertex
100
AcDb2dVertex
 10
1564.9999166066489
 20
1286.9999746149037
 30
0.0
  0
VERTEX
  5
564
100
AcDbEntity
  8
IMPORTED
  6
STYLE_05
 62
              30
100
AcDbVertex
100
AcDb2dVertex
 10
1563.4999166066489
 20
1286.9999746149037
 30
0.0
  0
VERTEX
  5
565
100
AcDbEntity
  8
IMPORTED
  6
STYLE_05
 62
              30
100
AcDbVertex
100
AcDb2dVertex
 10
1563.4999166066489
 20
1190.4999746149037
 30
0.0
  0
VERTEX
  5
566
100
AcDbEntity
  8
IMPORTED
  6
STYLE_05
 62
              30
100
AcDbVertex
100
AcDb2dVertex
 10
1614.9999166066489
 20
1190.4999746149037
 30
0.0
  0
VERTEX
  5
567
100
AcDbEntity
  8
IMPORTED
  6
STYLE_05
 62
              30
100
AcDbVertex
100
AcDb2dVertex
 10
1614.9999166066489
 20
1191.9999746149037
 30
0.0
  0
VERTEX
  5
568
100
AcDbEntity
  8
IMPORTED
  6
STYLE_05
 62
              30
100
AcDbVertex
100
AcDb2dVertex
 10
1564.9999166066489
 20
1191.9999746149037
 30
0.0
  0
VERTEX
  5
569
100
AcDbEntity
  8
IMPORTED
  6
STYLE_05
 62
              30
100
AcDbVertex
100
AcDb2dVertex
 10
1564.9999166066489
 20
1286.9999746149037
 30
0.0
  0
SEQEND
  5
56A
100
AcDbEntity
  8
IMPORTED
  6
STYLE_05
 62
              30
  0
POLYLINE
  5
56B
100
AcDbEntity
  8
IMPORTED
  6
STYLE_05
 62
              30
100
AcDb2dPolyline
 66
               1
 10
0.0
 20
0.0
 30
0.0
 70
             129
  0
VERTEX
  5
56C
100
AcDbEntity
  8
IMPORTED
  6
STYLE_05
 62
              30
100
AcDbVertex
100
AcDb2dVertex
 10
1609.9999166066489
 20
1201.9999746149037
 30
0.0
  0
VERTEX
  5
56D
100
AcDbEntity
  8
IMPORTED
  6
STYLE_05
 62
              30
100
AcDbVertex
100
AcDb2dVertex
 10
1609.9999166066489
 20
1222.9999746149037
 30
0.0
  0
VERTEX
  5
56E
100
AcDbEntity
  8
IMPORTED
  6
STYLE_05
 62
              30
100
AcDbVertex
100
AcDb2dVertex
 10
1569.9999166066489
 20
1222.9999746149037
 30
0.0
  0
VERTEX
  5
56F
100
AcDbEntity
  8
IMPORTED
  6
STYLE_05
 62
              30
100
AcDbVertex
100
AcDb2dVertex
 10
1569.9999166066489
 20
1201.9999746149037
 30
0.0
  0
VERTEX
  5
570
100
AcDbEntity
  8
IMPORTED
  6
STYLE_05
 62
              30
100
AcDbVertex
100
AcDb2dVertex
 10
1574.9999166066489
 20
1196.9999746149037
 30
0.0
  0
VERTEX
  5
571
100
AcDbEntity
  8
IMPORTED
  6
STYLE_05
 62
              30
100
AcDbVertex
100
AcDb2dVertex
 10
1604.9999166066489
 20
1196.9999746149037
 30
0.0
  0
SEQEND
  5
572
100
AcDbEntity
  8
IMPORTED
  6
STYLE_05
 62
              30
  0
POLYLINE
  5
573
100
AcDbEntity
  8
IMPORTED
  6
STYLE_05
 62
              30
100
AcDb2dPolyline
 66
               1
 10
0.0
 20
0.0
 30
0.0
 70
             129
  0
VERTEX
  5
574
100
AcDbEntity
  8
IMPORTED
  6
STYLE_05
 62
              30
100
AcDbVertex
100
AcDb2dVertex
 10
1561.4999166066489
 20
1243.4999746149037
 30
0.0
  0
VERTEX
  5
575
100
AcDbEntity
  8
IMPORTED
  6
STYLE_05
 62
              30
100
AcDbVertex
100
AcDb2dVertex
 10
1614.9999166066489
 20
1243.4999746149037
 30
0.0
  0
VERTEX
  5
576
100
AcDbEntity
  8
IMPORTED
  6
STYLE_05
 62
              30
100
AcDbVertex
100
AcDb2dVertex
 10
1614.9999166066489
 20
1235.4999746149037
 30
0.0
  0
VERTEX
  5
577
100
AcDbEntity
  8
IMPORTED
  6
STYLE_05
 62
              30
100
AcDbVertex
100
AcDb2dVertex
 10
1561.4999166066489
 20
1235.4999746149037
 30
0.0
  0
SEQEND
  5
578
100
AcDbEntity
  8
IMPORTED
  6
STYLE_05
 62
              30
  0
LINE
  5
579
100
AcDbEntity
  8
IMPORTED
  6
STYLE_05
 62
              30
100
AcDbLine
 10
1555.9999166066489
 20
1235.7582746149039
 30
0.0
 11
1561.4999166066489
 21
1235.7582746149039
 31
0.0
  0
LINE
  5
57A
100
AcDbEntity
  8
IMPORTED
  6
STYLE_05
 62
              30
100
AcDbLine
 10
1555.9999166066489
 20
1243.2415746149038
 30
0.0
 11
1561.4999166066489
 21
1243.2415746149038
 31
0.0
  0
POLYLINE
  5
57B
100
AcDbEntity
  8
IMPORTED
  6
STYLE_05
 62
              30
100
AcDb2dPolyline
 66
               1
 10
0.0
 20
0.0
 30
0.0
 70
             129
  0
VERTEX
  5
57C
100
AcDbEntity
  8
IMPORTED
  6
STYLE_05
 62
              30
100
AcDbVertex
100
AcDb2dVertex
 10
1609.9999166066489
 20
1276.9999746149037
 30
0.0
  0
VERTEX
  5
57D
100
AcDbEntity
  8
IMPORTED
  6
STYLE_05
 62
              30
100
AcDbVertex
100
AcDb2dVertex
 10
1609.9999166066489
 20
1255.9999746149037
 30
0.0
  0
VERTEX
  5
57E
100
AcDbEntity
  8
IMPORTED
  6
STYLE_05
 62
              30
100
AcDbVertex
100
AcDb2dVertex
 10
1569.9999166066489
 20
1255.9999746149037
 30
0.0
  0
VERTEX
  5
57F
100
AcDbEntity
  8
IMPORTED
  6
STYLE_05
 62
              30
100
AcDbVertex
100
AcDb2dVertex
 10
1569.9999166066489
 20
1276.9999746149037
 30
0.0
  0
VERTEX
  5
580
100
AcDbEntity
  8
IMPORTED
  6
STYLE_05
 62
              30
100
AcDbVertex
100
AcDb2dVertex
 10
1574.9999166066489
 20
1281.9999746149037
 30
0.0
  0
VERTEX
  5
581
100
AcDbEntity
  8
IMPORTED
  6
STYLE_05
 62
              30
100
AcDbVertex
100
AcDb2dVertex
 10
1604.9999166066489
 20
1281.9999746149037
 30
0.0
  0
SEQEND
  5
582
100
AcDbEntity
  8
IMPORTED
  6
STYLE_05
 62
              30
  0
POLYLINE
  5
583
100
AcDbEntity
  8
IMPORTED
  6
STYLE_05
 62
              30
100
AcDb2dPolyline
 66
               1
 10
0.0
 20
0.0
 30
0.0
 70
             129
  0
VERTEX
  5
584
100
AcDbEntity
  8
IMPORTED
  6
STYLE_05
 62
              30
100
AcDbVertex
100
AcDb2dVertex
 10
1608.9999166066489
 20
1202.4141746149039
 30
0.0
  0
VERTEX
  5
585
100
AcDbEntity
  8
IMPORTED
  6
STYLE_05
 62
              30
100
AcDbVertex
100
AcDb2dVertex
 10
1608.9999166066489
 20
1221.9999746149037
 30
0.0
  0
VERTEX
  5
586
100
AcDbEntity
  8
IMPORTED
  6
STYLE_05
 62
              30
100
AcDbVertex
100
AcDb2dVertex
 10
1570.9999166066489
 20
1221.9999746149037
 30
0.0
  0
VERTEX
  5
587
100
AcDbEntity
  8
IMPORTED
  6
STYLE_05
 62
              30
100
AcDbVertex
100
AcDb2dVertex
 10
1570.9999166066489
 20
1202.4141746149039
 30
0.0
  0
VERTEX
  5
588
100
AcDbEntity
  8
IMPORTED
  6
STYLE_05
 62
              30
100
AcDbVertex
100
AcDb2dVertex
 10
1575.414116606649
 20
1197.9999746149037
 30
0.0
  0
VERTEX
  5
589
100
AcDbEntity
  8
IMPORTED
  6
STYLE_05
 62
              30
100
AcDbVertex
100
AcDb2dVertex
 10
1604.5857166066489
 20
1197.9999746149037
 30
0.0
  0
SEQEND
  5
58A
100
AcDbEntity
  8
IMPORTED
  6
STYLE_05
 62
              30
  0
POLYLINE
  5
58B
100
AcDbEntity
  8
IMPORTED
  6
STYLE_05
 62
              30
100
AcDb2dPolyline
 66
               1
 10
0.0
 20
0.0
 30
0.0
 70
               1
 75
               5
  0
VERTEX
  5
58C
100
AcDbEntity
  8
IMPORTED
  6
STYLE_05
 62
              30
100
AcDbVertex
100
AcDb2dVertex
 10
1614.9999166066489
 20
1255.4999746149037
 30
0.0
  0
VERTEX
  5
58D
100
AcDbEntity
  8
IMPORTED
  6
STYLE_05
 62
              30
100
AcDbVertex
100
AcDb2dVertex
 10
1616.4999166066489
 20
1255.4999746149037
 30
0.0
  0
VERTEX
  5
58E
100
AcDbEntity
  8
IMPORTED
  6
STYLE_05
 62
              30
100
AcDbVertex
100
AcDb2dVertex
 10
1616.4999166066489
 20
1223.4999746149037
 30
0.0
  0
VERTEX
  5
58F
100
AcDbEntity
  8
IMPORTED
  6
STYLE_05
 62
              30
100
AcDbVertex
100
AcDb2dVertex
 10
1614.9999166066489
 20
1223.4999746149037
 30
0.0
  0
SEQEND
  5
590
100
AcDbEntity
  8
IMPORTED
  6
STYLE_05
 62
              30
  0
POLYLINE
  5
592
100
AcDbEntity
  8
IMPORTED
  6
STYLE_05
 62
              30
100
AcDb2dPolyline
 66
               1
 10
0.0
 20
0.0
 30
0.0
 70
               1
 75
               5
  0
VERTEX
  5
593
100
AcDbEntity
  8
IMPORTED
  6
STYLE_05
 62
              30
100
AcDbVertex
100
AcDb2dVertex
 10
1616.4999166066489
 20
1247.4999746149037
 30
0.0
  0
VERTEX
  5
594
100
AcDbEntity
  8
IMPORTED
  6
STYLE_05
 62
              30
100
AcDbVertex
100
AcDb2dVertex
 10
1621.4999166066489
 20
1247.4999746149037
 30
0.0
  0
VERTEX
  5
595
100
AcDbEntity
  8
IMPORTED
  6
STYLE_05
 62
              30
100
AcDbVertex
100
AcDb2dVertex
 10
1621.4999166066489
 20
1231.4999746149037
 30
0.0
  0
VERTEX
  5
596
100
AcDbEntity
  8
IMPORTED
  6
STYLE_05
 62
              30
100
AcDbVertex
100
AcDb2dVertex
 10
1616.4999166066489
 20
1231.4999746149037
 30
0.0
  0
SEQEND
  5
597
100
AcDbEntity
  8
IMPORTED
  6
STYLE_05
 62
              30
  0
SPLINE
  5
599
100
AcDbEntity
  8
IMPORTED
  6
STYLE_05
 62
              30
100
AcDbSpline
210
0.0
220
0.0
230
1.0
 70
               8
 71
               2
 72
               8
 73
               5
 74
               0
 42
0.000001
 43
0.000001
 40
0.0
 40
0.0
 40
0.0
 40
1.0
 40
1.0
 40
2.0
 40
2.0
 40
2.0
 10
1620.7854166066491
 20
1231.4999746149037
 30
0.0
 10
1622.2114762774306
 20
1235.4999746149037
 30
0.0
 10
1620.7854166066491
 20
1239.4999746149037
 30
0.0
 10
1622.2114762774306
 20
1243.4999746149037
 30
0.0
 10
1620.7854166066491
 20
1247.4999746149037
 30
0.0
  0
SPLINE
  5
59A
100
AcDbEntity
  8
IMPORTED
  6
STYLE_05
 62
              30
100
AcDbSpline
210
0.0
220
0.0
230
1.0
 70
               8
 71
               2
 72
               8
 73
               5
 74
               0
 42
0.000001
 43
0.000001
 40
0.0
 40
0.0
 40
0.0
 40
1.0
 40
1.0
 40
2.0
 40
2.0
 40
2.0
 10
1617.2145166066489
 20
1231.4999746149037
 30
0.0
 10
1615.7884569358673
 20
1235.4999746149037
 30
0.0
 10
1617.2145166066489
 20
1239.4999746149037
 30
0.0
 10
1615.7884569358673
 20
1243.4999746149037
 30
0.0
 10
1617.2145166066489
 20
1247.4999746149037
 30
0.0
  0
LINE
  5
59B
100
AcDbEntity
  8
IMPORTED
  6
STYLE_05
 62
              30
100
AcDbLine
 10
1620.7854166066491
 20
1239.4999746149037
 30
0.0
 11
1617.2145166066489
 21
1239.4999746149037
 31
0.0
  0
POLYLINE
  5
59C
100
AcDbEntity
  8
IMPORTED
  6
STYLE_05
 62
              30
100
AcDb2dPolyline
 66
               1
 10
0.0
 20
0.0
 30
0.0
 70
             129
  0
VERTEX
  5
59D
100
AcDbEntity
  8
IMPORTED
  6
STYLE_05
 62
              30
100
AcDbVertex
100
AcDb2dVertex
 10
1627.5105166066489
 20
1239.4999746149037
 30
0.0
 42
-0.414213562373095
 70
               2
  0
VERTEX
  5
59E
100
AcDbEntity
  8
IMPORTED
  6
STYLE_05
 62
              30
100
AcDbVertex
100
AcDb2dVertex
 10
1621.4999166066489
 20
1233.4893746149037
 30
0.0
  0
VERTEX
  5
59F
100
AcDbEntity
  8
IMPORTED
  6
STYLE_05
 62
              30
100
AcDbVertex
100
AcDb2dVertex
 10
1621.4999166066489
 20
1245.5105746149038
 30
0.0
  0
VERTEX
  5
5A0
100
AcDbEntity
  8
IMPORTED
  6
STYLE_05
 62
              30
100
AcDbVertex
100
AcDb2dVertex
 10
1621.4999166066489
 20
1245.5105746149038
 30
0.0
 42
-0.414213562373095
 70
               2
 50
1.8714839861558573E+17
  0
VERTEX
  5
5A1
100
AcDbEntity
  8
IMPORTED
  6
STYLE_05
 62
              30
100
AcDbVertex
100
AcDb2dVertex
 10
1627.5105166066489
 20
1239.4999746149037
 30
0.0
  0
SEQEND
  5
5A2
100
AcDbEntity
  8
IMPORTED
  6
STYLE_05
 62
              30
  0
POLYLINE
  5
5A3
100
AcDbEntity
  8
IMPORTED
  6
STYLE_05
 62
              30
100
AcDb2dPolyline
 66
               1
 10
0.0
 20
0.0
 30
0.0
 70
             129
  0
VERTEX
  5
5A4
100
AcDbEntity
  8
IMPORTED
  6
STYLE_05
 62
              30
100
AcDbVertex
100
AcDb2dVertex
 10
1569.9999166066489
 20
881.99997461490375
 30
0.0
  0
VERTEX
  5
5A5
100
AcDbEntity
  8
IMPORTED
  6
STYLE_05
 62
              30
100
AcDbVertex
100
AcDb2dVertex
 10
1609.9999166066489
 20
881.99997461490375
 30
0.0
  0
VERTEX
  5
5A6
100
AcDbEntity
  8
IMPORTED
  6
STYLE_05
 62
              30
100
AcDbVertex
100
AcDb2dVertex
 10
1614.9999166066489
 20
876.99997461490375
 30
0.0
  0
VERTEX
  5
5A7
100
AcDbEntity
  8
IMPORTED
  6
STYLE_05
 62
              30
100
AcDbVertex
100
AcDb2dVertex
 10
1614.9999166066489
 20
791.99997461490375
 30
0.0
  0
VERTEX
  5
5A8
100
AcDbEntity
  8
IMPORTED
  6
STYLE_05
 62
              30
100
AcDbVertex
100
AcDb2dVertex
 10
1609.9999166066489
 20
786.99997461490375
 30
0.0
  0
VERTEX
  5
5A9
100
AcDbEntity
  8
IMPORTED
  6
STYLE_05
 62
              30
100
AcDbVertex
100
AcDb2dVertex
 10
1569.9999166066489
 20
786.99997461490375
 30
0.0
  0
VERTEX
  5
5AA
100
AcDbEntity
  8
IMPORTED
  6
STYLE_05
 62
              30
100
AcDbVertex
100
AcDb2dVertex
 10
1564.9999166066489
 20
791.99997461490375
 30
0.0
  0
VERTEX
  5
5AB
100
AcDbEntity
  8
IMPORTED
  6
STYLE_05
 62
              30
100
AcDbVertex
100
AcDb2dVertex
 10
1564.9999166066489
 20
876.99997461490375
 30
0.0
  0
SEQEND
  5
5AC
100
AcDbEntity
  8
IMPORTED
  6
STYLE_05
 62
              30
  0
POLYLINE
  5
5AD
100
AcDbEntity
  8
IMPORTED
  6
STYLE_05
 62
              30
100
AcDb2dPolyline
 66
               1
 10
0.0
 20
0.0
 30
0.0
 70
             129
  0
VERTEX
  5
5AE
100
AcDbEntity
  8
IMPORTED
  6
STYLE_05
 62
              30
100
AcDbVertex
100
AcDb2dVertex
 10
1609.9999166066489
 20
846.99997461490375
 30
0.0
  0
VERTEX
  5
5AF
100
AcDbEntity
  8
IMPORTED
  6
STYLE_05
 62
              30
100
AcDbVertex
100
AcDb2dVertex
 10
1609.9999166066489
 20
821.99997461490375
 30
0.0
  0
VERTEX
  5
5B0
100
AcDbEntity
  8
IMPORTED
  6
STYLE_05
 62
              30
100
AcDbVertex
100
AcDb2dVertex
 10
1569.9999166066489
 20
821.99997461490375
 30
0.0
  0
VERTEX
  5
5B1
100
AcDbEntity
  8
IMPORTED
  6
STYLE_05
 62
              30
100
AcDbVertex
100
AcDb2dVertex
 10
1569.9999166066489
 20
846.99997461490375
 30
0.0
  0
SEQEND
  5
5B2
100
AcDbEntity
  8
IMPORTED
  6
STYLE_05
 62
              30
  0
POLYLINE
  5
5B3
100
AcDbEntity
  8
IMPORTED
  6
STYLE_05
 62
              30
100
AcDb2dPolyline
 66
               1
 10
0.0
 20
0.0
 30
0.0
 70
             129
  0
VERTEX
  5
5B4
100
AcDbEntity
  8
IMPORTED
  6
STYLE_05
 62
              30
100
AcDbVertex
100
AcDb2dVertex
 10
1561.4999166066489
 20
844.49997461490375
 30
0.0
  0
VERTEX
  5
5B5
100
AcDbEntity
  8
IMPORTED
  6
STYLE_05
 62
              30
100
AcDbVertex
100
AcDb2dVertex
 10
1563.4999166066489
 20
844.49997461490375
 30
0.0
  0
VERTEX
  5
5B6
100
AcDbEntity
  8
IMPORTED
  6
STYLE_05
 62
              30
100
AcDbVertex
100
AcDb2dVertex
 10
1563.4999166066489
 20
824.49997461490375
 30
0.0
  0
VERTEX
  5
5B7
100
AcDbEntity
  8
IMPORTED
  6
STYLE_05
 62
              30
100
AcDbVertex
100
AcDb2dVertex
 10
1561.4999166066489
 20
824.49997461490375
 30
0.0
  0
SEQEND
  5
5B8
100
AcDbEntity
  8
IMPORTED
  6
STYLE_05
 62
              30
  0
POLYLINE
  5
5B9
100
AcDbEntity
  8
IMPORTED
  6
STYLE_05
 62
              30
100
AcDb2dPolyline
 66
               1
 10
0.0
 20
0.0
 30
0.0
 70
             128
  0
VERTEX
  5
5BA
100
AcDbEntity
  8
IMPORTED
  6
STYLE_05
 62
              30
100
AcDbVertex
100
AcDb2dVertex
 10
1555.9999166066489
 20
840.69997461490379
 30
0.0
  0
VERTEX
  5
5BB
100
AcDbEntity
  8
IMPORTED
  6
STYLE_05
 62
              30
100
AcDbVertex
100
AcDb2dVertex
 10
1556.7505166066489
 20
841.99997461490375
 30
0.0
  0
VERTEX
  5
5BC
100
AcDbEntity
  8
IMPORTED
  6
STYLE_05
 62
              30
100
AcDbVertex
100
AcDb2dVertex
 10
1561.4999166066489
 20
841.99997461490375
 30
0.0
  0
VERTEX
  5
5BD
100
AcDbEntity
  8
IMPORTED
  6
STYLE_05
 62
              30
100
AcDbVertex
100
AcDb2dVertex
 10
1561.4999166066489
 20
826.99997461490375
 30
0.0
  0
VERTEX
  5
5BE
100
AcDbEntity
  8
IMPORTED
  6
STYLE_05
 62
              30
100
AcDbVertex
100
AcDb2dVertex
 10
1556.7505166066489
 20
826.99997461490375
 30
0.0
  0
VERTEX
  5
5BF
100
AcDbEntity
  8
IMPORTED
  6
STYLE_05
 62
              30
100
AcDbVertex
100
AcDb2dVertex
 10
1555.9999166066489
 20
828.29997461490393
 30
0.0
  0
VERTEX
  5
5C0
100
AcDbEntity
  8
IMPORTED
  6
STYLE_05
 62
              30
100
AcDbVertex
100
AcDb2dVertex
 10
1555.9999166066489
 20
840.69997461490379
 30
0.0
  0
SEQEND
  5
5C1
100
AcDbEntity
  8
IMPORTED
  6
STYLE_05
 62
              30
  0
POLYLINE
  5
5C2
100
AcDbEntity
  8
IMPORTED
  6
STYLE_05
 62
              30
100
AcDb2dPolyline
 66
               1
 10
0.0
 20
0.0
 30
0.0
 70
             128
  0
VERTEX
  5
5C3
100
AcDbEntity
  8
IMPORTED
  6
STYLE_05
 62
              30
100
AcDbVertex
100
AcDb2dVertex
 10
1564.9999166066489
 20
881.99997461490375
 30
0.0
  0
VERTEX
  5
5C4
100
AcDbEntity
  8
IMPORTED
  6
STYLE_05
 62
              30
100
AcDbVertex
100
AcDb2dVertex
 10
1563.4999166066489
 20
881.99997461490375
 30
0.0
  0
VERTEX
  5
5C5
100
AcDbEntity
  8
IMPORTED
  6
STYLE_05
 62
              30
100
AcDbVertex
100
AcDb2dVertex
 10
1563.4999166066489
 20
785.49997461490375
 30
0.0
  0
VERTEX
  5
5C6
100
AcDbEntity
  8
IMPORTED
  6
STYLE_05
 62
              30
100
AcDbVertex
100
AcDb2dVertex
 10
1614.9999166066489
 20
785.49997461490375
 30
0.0
  0
VERTEX
  5
5C7
100
AcDbEntity
  8
IMPORTED
  6
STYLE_05
 62
              30
100
AcDbVertex
100
AcDb2dVertex
 10
1614.9999166066489
 20
786.99997461490375
 30
0.0
  0
VERTEX
  5
5C8
100
AcDbEntity
  8
IMPORTED
  6
STYLE_05
 62
              30
100
AcDbVertex
100
AcDb2dVertex
 10
1564.9999166066489
 20
786.99997461490375
 30
0.0
  0
VERTEX
  5
5C9
100
AcDbEntity
  8
IMPORTED
  6
STYLE_05
 62
              30
100
AcDbVertex
100
AcDb2dVertex
 10
1564.9999166066489
 20
881.99997461490375
 30
0.0
  0
SEQEND
  5
5CA
100
AcDbEntity
  8
IMPORTED
  6
STYLE_05
 62
              30
  0
POLYLINE
  5
5CB
100
AcDbEntity
  8
IMPORTED
  6
STYLE_05
 62
              30
100
AcDb2dPolyline
 66
               1
 10
0.0
 20
0.0
 30
0.0
 70
             129
  0
VERTEX
  5
5CC
100
AcDbEntity
  8
IMPORTED
  6
STYLE_05
 62
              30
100
AcDbVertex
100
AcDb2dVertex
 10
1609.9999166066489
 20
796.99997461490375
 30
0.0
  0
VERTEX
  5
5CD
100
AcDbEntity
  8
IMPORTED
  6
STYLE_05
 62
              30
100
AcDbVertex
100
AcDb2dVertex
 10
1609.9999166066489
 20
817.99997461490375
 30
0.0
  0
VERTEX
  5
5CE
100
AcDbEntity
  8
IMPORTED
  6
STYLE_05
 62
              30
100
AcDbVertex
100
AcDb2dVertex
 10
1569.9999166066489
 20
817.99997461490375
 30
0.0
  0
VERTEX
  5
5CF
100
AcDbEntity
  8
IMPORTED
  6
STYLE_05
 62
              30
100
AcDbVertex
100
AcDb2dVertex
 10
1569.9999166066489
 20
796.99997461490375
 30
0.0
  0
VERTEX
  5
5D0
100
AcDbEntity
  8
IMPORTED
  6
STYLE_05
 62
              30
100
AcDbVertex
100
AcDb2dVertex
 10
1574.9999166066489
 20
791.99997461490375
 30
0.0
  0
VERTEX
  5
5D1
100
AcDbEntity
  8
IMPORTED
  6
STYLE_05
 62
              30
100
AcDbVertex
100
AcDb2dVertex
 10
1604.9999166066489
 20
791.99997461490375
 30
0.0
  0
SEQEND
  5
5D2
100
AcDbEntity
  8
IMPORTED
  6
STYLE_05
 62
              30
  0
POLYLINE
  5
5D3
100
AcDbEntity
  8
IMPORTED
  6
STYLE_05
 62
              30
100
AcDb2dPolyline
 66
               1
 10
0.0
 20
0.0
 30
0.0
 70
             129
  0
VERTEX
  5
5D4
100
AcDbEntity
  8
IMPORTED
  6
STYLE_05
 62
              30
100
AcDbVertex
100
AcDb2dVertex
 10
1561.4999166066489
 20
838.49997461490375
 30
0.0
  0
VERTEX
  5
5D5
100
AcDbEntity
  8
IMPORTED
  6
STYLE_05
 62
              30
100
AcDbVertex
100
AcDb2dVertex
 10
1614.9999166066489
 20
838.49997461490375
 30
0.0
  0
VERTEX
  5
5D6
100
AcDbEntity
  8
IMPORTED
  6
STYLE_05
 62
              30
100
AcDbVertex
100
AcDb2dVertex
 10
1614.9999166066489
 20
830.49997461490375
 30
0.0
  0
VERTEX
  5
5D7
100
AcDbEntity
  8
IMPORTED
  6
STYLE_05
 62
              30
100
AcDbVertex
100
AcDb2dVertex
 10
1561.4999166066489
 20
830.49997461490375
 30
0.0
  0
SEQEND
  5
5D8
100
AcDbEntity
  8
IMPORTED
  6
STYLE_05
 62
              30
  0
LINE
  5
5D9
100
AcDbEntity
  8
IMPORTED
  6
STYLE_05
 62
              30
100
AcDbLine
 10
1555.9999166066489
 20
830.75827461490394
 30
0.0
 11
1561.4999166066489
 21
830.75827461490394
 31
0.0
  0
LINE
  5
5DA
100
AcDbEntity
  8
IMPORTED
  6
STYLE_05
 62
              30
100
AcDbLine
 10
1555.9999166066489
 20
838.24157461490381
 30
0.0
 11
1561.4999166066489
 21
838.24157461490381
 31
0.0
  0
POLYLINE
  5
5DB
100
AcDbEntity
  8
IMPORTED
  6
STYLE_05
 62
              30
100
AcDb2dPolyline
 66
               1
 10
0.0
 20
0.0
 30
0.0
 70
             129
  0
VERTEX
  5
5DC
100
AcDbEntity
  8
IMPORTED
  6
STYLE_05
 62
              30
100
AcDbVertex
100
AcDb2dVertex
 10
1609.9999166066489
 20
871.99997461490375
 30
0.0
  0
VERTEX
  5
5DD
100
AcDbEntity
  8
IMPORTED
  6
STYLE_05
 62
              30
100
AcDbVertex
100
AcDb2dVertex
 10
1609.9999166066489
 20
850.99997461490375
 30
0.0
  0
VERTEX
  5
5DE
100
AcDbEntity
  8
IMPORTED
  6
STYLE_05
 62
              30
100
AcDbVertex
100
AcDb2dVertex
 10
1569.9999166066489
 20
850.99997461490375
 30
0.0
  0
VERTEX
  5
5DF
100
AcDbEntity
  8
IMPORTED
  6
STYLE_05
 62
              30
100
AcDbVertex
100
AcDb2dVertex
 10
1569.9999166066489
 20
871.99997461490375
 30
0.0
  0
VERTEX
  5
5E0
100
AcDbEntity
  8
IMPORTED
  6
STYLE_05
 62
              30
100
AcDbVertex
100
AcDb2dVertex
 10
1574.9999166066489
 20
876.99997461490375
 30
0.0
  0
VERTEX
  5
5E1
100
AcDbEntity
  8
IMPORTED
  6
STYLE_05
 62
              30
100
AcDbVertex
100
AcDb2dVertex
 10
1604.9999166066489
 20
876.99997461490375
 30
0.0
  0
SEQEND
  5
5E2
100
AcDbEntity
  8
IMPORTED
  6
STYLE_05
 62
              30
  0
POLYLINE
  5
5E3
100
AcDbEntity
  8
IMPORTED
  6
STYLE_05
 62
              30
100
AcDb2dPolyline
 66
               1
 10
0.0
 20
0.0
 30
0.0
 70
             129
  0
VERTEX
  5
5E4
100
AcDbEntity
  8
IMPORTED
  6
STYLE_05
 62
              30
100
AcDbVertex
100
AcDb2dVertex
 10
1608.9999166066489
 20
797.41417461490391
 30
0.0
  0
VERTEX
  5
5E5
100
AcDbEntity
  8
IMPORTED
  6
STYLE_05
 62
              30
100
AcDbVertex
100
AcDb2dVertex
 10
1608.9999166066489
 20
816.99997461490375
 30
0.0
  0
VERTEX
  5
5E6
100
AcDbEntity
  8
IMPORTED
  6
STYLE_05
 62
              30
100
AcDbVertex
100
AcDb2dVertex
 10
1570.9999166066489
 20
816.99997461490375
 30
0.0
  0
VERTEX
  5
5E7
100
AcDbEntity
  8
IMPORTED
  6
STYLE_05
 62
              30
100
AcDbVertex
100
AcDb2dVertex
 10
1570.9999166066489
 20
797.41417461490391
 30
0.0
  0
VERTEX
  5
5E8
100
AcDbEntity
  8
IMPORTED
  6
STYLE_05
 62
              30
100
AcDbVertex
100
AcDb2dVertex
 10
1575.414116606649
 20
792.99997461490375
 30
0.0
  0
VERTEX
  5
5E9
100
AcDbEntity
  8
IMPORTED
  6
STYLE_05
 62
              30
100
AcDbVertex
100
AcDb2dVertex
 10
1604.5857166066489
 20
792.99997461490375
 30
0.0
  0
SEQEND
  5
5EA
100
AcDbEntity
  8
IMPORTED
  6
STYLE_05
 62
              30
  0
POLYLINE
  5
5EB
100
AcDbEntity
  8
IMPORTED
  6
STYLE_05
 62
              30
100
AcDb2dPolyline
 66
               1
 10
0.0
 20
0.0
 30
0.0
 70
               1
 75
               5
  0
VERTEX
  5
5EC
100
AcDbEntity
  8
IMPORTED
  6
STYLE_05
 62
              30
100
AcDbVertex
100
AcDb2dVertex
 10
1614.9999166066489
 20
850.49997461490375
 30
0.0
  0
VERTEX
  5
5ED
100
AcDbEntity
  8
IMPORTED
  6
STYLE_05
 62
              30
100
AcDbVertex
100
AcDb2dVertex
 10
1616.4999166066489
 20
850.49997461490375
 30
0.0
  0
VERTEX
  5
5EE
100
AcDbEntity
  8
IMPORTED
  6
STYLE_05
 62
              30
100
AcDbVertex
100
AcDb2dVertex
 10
1616.4999166066489
 20
818.49997461490375
 30
0.0
  0
VERTEX
  5
5EF
100
AcDbEntity
  8
IMPORTED
  6
STYLE_05
 62
              30
100
AcDbVertex
100
AcDb2dVertex
 10
1614.9999166066489
 20
818.49997461490375
 30
0.0
  0
SEQEND
  5
5F0
100
AcDbEntity
  8
IMPORTED
  6
STYLE_05
 62
              30
  0
POLYLINE
  5
5F2
100
AcDbEntity
  8
IMPORTED
  6
STYLE_05
 62
              30
100
AcDb2dPolyline
 66
               1
 10
0.0
 20
0.0
 30
0.0
 70
               1
 75
               5
  0
VERTEX
  5
5F3
100
AcDbEntity
  8
IMPORTED
  6
STYLE_05
 62
              30
100
AcDbVertex
100
AcDb2dVertex
 10
1616.4999166066489
 20
842.49997461490375
 30
0.0
  0
VERTEX
  5
5F4
100
AcDbEntity
  8
IMPORTED
  6
STYLE_05
 62
              30
100
AcDbVertex
100
AcDb2dVertex
 10
1621.4999166066489
 20
842.49997461490375
 30
0.0
  0
VERTEX
  5
5F5
100
AcDbEntity
  8
IMPORTED
  6
STYLE_05
 62
              30
100
AcDbVertex
100
AcDb2dVertex
 10
1621.4999166066489
 20
826.49997461490375
 30
0.0
  0
VERTEX
  5
5F6
100
AcDbEntity
  8
IMPORTED
  6
STYLE_05
 62
              30
100
AcDbVertex
100
AcDb2dVertex
 10
1616.4999166066489
 20
826.49997461490375
 30
0.0
  0
SEQEND
  5
5F7
100
AcDbEntity
  8
IMPORTED
  6
STYLE_05
 62
              30
  0
SPLINE
  5
5F9
100
AcDbEntity
  8
IMPORTED
  6
STYLE_05
 62
              30
100
AcDbSpline
210
0.0
220
0.0
230
1.0
 70
               8
 71
               2
 72
               8
 73
               5
 74
               0
 42
0.000001
 43
0.000001
 40
0.0
 40
0.0
 40
0.0
 40
1.0
 40
1.0
 40
2.0
 40
2.0
 40
2.0
 10
1620.7854166066491
 20
826.49997461490375
 30
0.0
 10
1622.2114762774306
 20
830.49997461490375
 30
0.0
 10
1620.7854166066491
 20
834.49997461490375
 30
0.0
 10
1622.2114762774306
 20
838.49997461490375
 30
0.0
 10
1620.7854166066491
 20
842.49997461490375
 30
0.0
  0
SPLINE
  5
5FA
100
AcDbEntity
  8
IMPORTED
  6
STYLE_05
 62
              30
100
AcDbSpline
210
0.0
220
0.0
230
1.0
 70
               8
 71
               2
 72
               8
 73
               5
 74
               0
 42
0.000001
 43
0.000001
 40
0.0
 40
0.0
 40
0.0
 40
1.0
 40
1.0
 40
2.0
 40
2.0
 40
2.0
 10
1617.2145166066489
 20
826.49997461490375
 30
0.0
 10
1615.7884569358673
 20
830.49997461490375
 30
0.0
 10
1617.2145166066489
 20
834.49997461490375
 30
0.0
 10
1615.7884569358673
 20
838.49997461490375
 30
0.0
 10
1617.2145166066489
 20
842.49997461490375
 30
0.0
  0
LINE
  5
5FB
100
AcDbEntity
  8
IMPORTED
  6
STYLE_05
 62
              30
100
AcDbLine
 10
1620.7854166066491
 20
834.49997461490375
 30
0.0
 11
1617.2145166066489
 21
834.49997461490375
 31
0.0
  0
POLYLINE
  5
5FC
100
AcDbEntity
  8
IMPORTED
  6
STYLE_05
 62
              30
100
AcDb2dPolyline
 66
               1
 10
0.0
 20
0.0
 30
0.0
 70
             129
  0
VERTEX
  5
5FD
100
AcDbEntity
  8
IMPORTED
  6
STYLE_05
 62
              30
100
AcDbVertex
100
AcDb2dVertex
 10
1627.5105166066489
 20
834.49997461490375
 30
0.0
 42
-0.414213562373095
 70
               2
  0
VERTEX
  5
5FE
100
AcDbEntity
  8
IMPORTED
  6
STYLE_05
 62
              30
100
AcDbVertex
100
AcDb2dVertex
 10
1621.4999166066489
 20
828.48937461490368
 30
0.0
  0
VERTEX
  5
5FF
100
AcDbEntity
  8
IMPORTED
  6
STYLE_05
 62
              30
100
AcDbVertex
100
AcDb2dVertex
 10
1621.4999166066489
 20
840.51057461490382
 30
0.0
  0
VERTEX
  5
600
100
AcDbEntity
  8
IMPORTED
  6
STYLE_05
 62
              30
100
AcDbVertex
100
AcDb2dVertex
 10
1621.4999166066489
 20
840.51057461490382
 30
0.0
 42
-0.414213562373095
 70
               2
 50
1.8714839861558573E+17
  0
VERTEX
  5
601
100
AcDbEntity
  8
IMPORTED
  6
STYLE_05
 62
              30
100
AcDbVertex
100
AcDb2dVertex
 10
1627.5105166066489
 20
834.49997461490375
 30
0.0
  0
SEQEND
  5
602
100
AcDbEntity
  8
IMPORTED
  6
STYLE_05
 62
              30
  0
POLYLINE
  5
603
100
AcDbEntity
  8
IMPORTED
  6
STYLE_05
 62
              30
100
AcDb2dPolyline
 66
               1
 10
0.0
 20
0.0
 30
0.0
 70
             129
  0
VERTEX
  5
604
100
AcDbEntity
  8
IMPORTED
  6
STYLE_05
 62
              30
100
AcDbVertex
100
AcDb2dVertex
 10
15.000016606649348
 20
-1399.999925385096
 30
0.0
  0
VERTEX
  5
605
100
AcDbEntity
  8
IMPORTED
  6
STYLE_05
 62
              30
100
AcDbVertex
100
AcDb2dVertex
 10
20.000016606649346
 20
-1404.999925385096
 30
0.0
  0
VERTEX
  5
606
100
AcDbEntity
  8
IMPORTED
  6
STYLE_05
 62
              30
100
AcDbVertex
100
AcDb2dVertex
 10
20.000016606649346
 20
-1514.999925385096
 30
0.0
  0
VERTEX
  5
607
100
AcDbEntity
  8
IMPORTED
  6
STYLE_05
 62
              30
100
AcDbVertex
100
AcDb2dVertex
 10
15.000016606649348
 20
-1519.999925385096
 30
0.0
  0
VERTEX
  5
608
100
AcDbEntity
  8
IMPORTED
  6
STYLE_05
 62
              30
100
AcDbVertex
100
AcDb2dVertex
 10
-94.999983393350647
 20
-1519.999925385096
 30
0.0
  0
VERTEX
  5
609
100
AcDbEntity
  8
IMPORTED
  6
STYLE_05
 62
              30
100
AcDbVertex
100
AcDb2dVertex
 10
-99.999983393350647
 20
-1514.999925385096
 30
0.0
  0
VERTEX
  5
60A
100
AcDbEntity
  8
IMPORTED
  6
STYLE_05
 62
              30
100
AcDbVertex
100
AcDb2dVertex
 10
-99.999983393350647
 20
-1404.999925385096
 30
0.0
  0
VERTEX
  5
60B
100
AcDbEntity
  8
IMPORTED
  6
STYLE_05
 62
              30
100
AcDbVertex
100
AcDb2dVertex
 10
-94.999983393350647
 20
-1399.999925385096
 30
0.0
  0
SEQEND
  5
60C
100
AcDbEntity
  8
IMPORTED
  6
STYLE_05
 62
              30
  0
POLYLINE
  5
60D
100
AcDbEntity
  8
IMPORTED
  6
STYLE_05
 62
              30
100
AcDb2dPolyline
 66
               1
 10
0.0
 20
0.0
 30
0.0
 70
             129
  0
VERTEX
  5
60E
100
AcDbEntity
  8
IMPORTED
  6
STYLE_05
 62
              30
100
AcDbVertex
100
AcDb2dVertex
 10
14.000016606649348
 20
-1469.999925385096
 30
0.0
  0
VERTEX
  5
60F
100
AcDbEntity
  8
IMPORTED
  6
STYLE_05
 62
              30
100
AcDbVertex
100
AcDb2dVertex
 10
10.500016606649348
 20
-1464.999925385096
 30
0.0
  0
VERTEX
  5
610
100
AcDbEntity
  8
IMPORTED
  6
STYLE_05
 62
              30
100
AcDbVertex
100
AcDb2dVertex
 10
10.500016606649348
 20
-1454.999925385096
 30
0.0
  0
VERTEX
  5
611
100
AcDbEntity
  8
IMPORTED
  6
STYLE_05
 62
              30
100
AcDbVertex
100
AcDb2dVertex
 10
14.000016606649348
 20
-1449.999925385096
 30
0.0
  0
VERTEX
  5
612
100
AcDbEntity
  8
IMPORTED
  6
STYLE_05
 62
              30
100
AcDbVertex
100
AcDb2dVertex
 10
14.000016606649348
 20
-1444.999925385096
 30
0.0
  0
VERTEX
  5
613
100
AcDbEntity
  8
IMPORTED
  6
STYLE_05
 62
              30
100
AcDbVertex
100
AcDb2dVertex
 10
14.000016606649348
 20
-1438.999925385096
 30
0.0
  0
VERTEX
  5
614
100
AcDbEntity
  8
IMPORTED
  6
STYLE_05
 62
              30
100
AcDbVertex
100
AcDb2dVertex
 10
14.000016606649348
 20
-1420.9999253850963
 30
0.0
  0
VERTEX
  5
615
100
AcDbEntity
  8
IMPORTED
  6
STYLE_05
 62
              30
100
AcDbVertex
100
AcDb2dVertex
 10
11.000016606649348
 20
-1415.999925385096
 30
0.0
  0
VERTEX
  5
616
100
AcDbEntity
  8
IMPORTED
  6
STYLE_05
 62
              30
100
AcDbVertex
100
AcDb2dVertex
 10
11.000016606649348
 20
-1411.999925385096
 30
0.0
  0
VERTEX
  5
617
100
AcDbEntity
  8
IMPORTED
  6
STYLE_05
 62
              30
100
AcDbVertex
100
AcDb2dVertex
 10
11.000016606649348
 20
-1411.999925385096
 30
0.0
 42
0.414213562373095
 70
               2
  0
VERTEX
  5
618
100
AcDbEntity
  8
IMPORTED
  6
STYLE_05
 62
              30
100
AcDbVertex
100
AcDb2dVertex
 10
8.0000166066493481
 20
-1408.999925385096
 30
0.0
  0
VERTEX
  5
619
100
AcDbEntity
  8
IMPORTED
  6
STYLE_05
 62
              30
100
AcDbVertex
100
AcDb2dVertex
 10
4.0000166066493481
 20
-1408.999925385096
 30
0.0
  0
VERTEX
  5
61A
100
AcDbEntity
  8
IMPORTED
  6
STYLE_05
 62
              30
100
AcDbVertex
100
AcDb2dVertex
 10
-0.9999833933506519
 20
-1405.999925385096
 30
0.0
  0
VERTEX
  5
61B
100
AcDbEntity
  8
IMPORTED
  6
STYLE_05
 62
              30
100
AcDbVertex
100
AcDb2dVertex
 10
-18.999983393350654
 20
-1405.999925385096
 30
0.0
  0
VERTEX
  5
61C
100
AcDbEntity
  8
IMPORTED
  6
STYLE_05
 62
              30
100
AcDbVertex
100
AcDb2dVertex
 10
-24.999983393350654
 20
-1405.999925385096
 30
0.0
  0
VERTEX
  5
61D
100
AcDbEntity
  8
IMPORTED
  6
STYLE_05
 62
              30
100
AcDbVertex
100
AcDb2dVertex
 10
-29.999983393350654
 20
-1405.999925385096
 30
0.0
  0
VERTEX
  5
61E
100
AcDbEntity
  8
IMPORTED
  6
STYLE_05
 62
              30
100
AcDbVertex
100
AcDb2dVertex
 10
-34.999983393350654
 20
-1409.499925385096
 30
0.0
  0
VERTEX
  5
61F
100
AcDbEntity
  8
IMPORTED
  6
STYLE_05
 62
              30
100
AcDbVertex
100
AcDb2dVertex
 10
-44.999983393350654
 20
-1409.499925385096
 30
0.0
  0
VERTEX
  5
620
100
AcDbEntity
  8
IMPORTED
  6
STYLE_05
 62
              30
100
AcDbVertex
100
AcDb2dVertex
 10
-49.999983393350654
 20
-1405.999925385096
 30
0.0
  0
VERTEX
  5
621
100
AcDbEntity
  8
IMPORTED
  6
STYLE_05
 62
              30
100
AcDbVertex
100
AcDb2dVertex
 10
-54.999983393350654
 20
-1405.999925385096
 30
0.0
  0
VERTEX
  5
622
100
AcDbEntity
  8
IMPORTED
  6
STYLE_05
 62
              30
100
AcDbVertex
100
AcDb2dVertex
 10
-60.999983393350654
 20
-1405.999925385096
 30
0.0
  0
VERTEX
  5
623
100
AcDbEntity
  8
IMPORTED
  6
STYLE_05
 62
              30
100
AcDbVertex
100
AcDb2dVertex
 10
-78.999983393350647
 20
-1405.999925385096
 30
0.0
  0
VERTEX
  5
624
100
AcDbEntity
  8
IMPORTED
  6
STYLE_05
 62
              30
100
AcDbVertex
100
AcDb2dVertex
 10
-83.999983393350647
 20
-1408.999925385096
 30
0.0
  0
VERTEX
  5
625
100
AcDbEntity
  8
IMPORTED
  6
STYLE_05
 62
              30
100
AcDbVertex
100
AcDb2dVertex
 10
-87.999983393350647
 20
-1408.999925385096
 30
0.0
  0
VERTEX
  5
626
100
AcDbEntity
  8
IMPORTED
  6
STYLE_05
 62
              30
100
AcDbVertex
100
AcDb2dVertex
 10
-87.999983393350647
 20
-1408.999925385096
 30
0.0
 42
0.414213562373095
 70
               2
 50
9.3574199307792870E+17
  0
VERTEX
  5
627
100
AcDbEntity
  8
IMPORTED
  6
STYLE_05
 62
              30
100
AcDbVertex
100
AcDb2dVertex
 10
-90.999983393350647
 20
-1411.999925385096
 30
0.0
  0
VERTEX
  5
628
100
AcDbEntity
  8
IMPORTED
  6
STYLE_05
 62
              30
100
AcDbVertex
100
AcDb2dVertex
 10
-90.999983393350647
 20
-1415.999925385096
 30
0.0
  0
VERTEX
  5
629
100
AcDbEntity
  8
IMPORTED
  6
STYLE_05
 62
              30
100
AcDbVertex
100
AcDb2dVertex
 10
-93.999983393350647
 20
-1420.9999253850963
 30
0.0
  0
VERTEX
  5
62A
100
AcDbEntity
  8
IMPORTED
  6
STYLE_05
 62
              30
100
AcDbVertex
100
AcDb2dVertex
 10
-93.999983393350647
 20
-1438.999925385096
 30
0.0
  0
VERTEX
  5
62B
100
AcDbEntity
  8
IMPORTED
  6
STYLE_05
 62
              30
100
AcDbVertex
100
AcDb2dVertex
 10
-93.999983393350647
 20
-1444.999925385096
 30
0.0
  0
VERTEX
  5
62C
100
AcDbEntity
  8
IMPORTED
  6
STYLE_05
 62
              30
100
AcDbVertex
100
AcDb2dVertex
 10
-93.999983393350647
 20
-1449.999925385096
 30
0.0
  0
VERTEX
  5
62D
100
AcDbEntity
  8
IMPORTED
  6
STYLE_05
 62
              30
100
AcDbVertex
100
AcDb2dVertex
 10
-90.499983393350647
 20
-1454.999925385096
 30
0.0
  0
VERTEX
  5
62E
100
AcDbEntity
  8
IMPORTED
  6
STYLE_05
 62
              30
100
AcDbVertex
100
AcDb2dVertex
 10
-90.499983393350647
 20
-1464.999925385096
 30
0.0
  0
VERTEX
  5
62F
100
AcDbEntity
  8
IMPORTED
  6
STYLE_05
 62
              30
100
AcDbVertex
100
AcDb2dVertex
 10
-93.999983393350647
 20
-1469.999925385096
 30
0.0
  0
VERTEX
  5
630
100
AcDbEntity
  8
IMPORTED
  6
STYLE_05
 62
              30
100
AcDbVertex
100
AcDb2dVertex
 10
-93.999983393350647
 20
-1474.999925385096
 30
0.0
  0
VERTEX
  5
631
100
AcDbEntity
  8
IMPORTED
  6
STYLE_05
 62
              30
100
AcDbVertex
100
AcDb2dVertex
 10
-93.999983393350647
 20
-1480.999925385096
 30
0.0
  0
VERTEX
  5
632
100
AcDbEntity
  8
IMPORTED
  6
STYLE_05
 62
              30
100
AcDbVertex
100
AcDb2dVertex
 10
-93.999983393350647
 20
-1498.9999253850958
 30
0.0
  0
VERTEX
  5
633
100
AcDbEntity
  8
IMPORTED
  6
STYLE_05
 62
              30
100
AcDbVertex
100
AcDb2dVertex
 10
-90.999983393350647
 20
-1503.999925385096
 30
0.0
  0
VERTEX
  5
634
100
AcDbEntity
  8
IMPORTED
  6
STYLE_05
 62
              30
100
AcDbVertex
100
AcDb2dVertex
 10
-90.999983393350647
 20
-1507.999925385096
 30
0.0
  0
VERTEX
  5
635
100
AcDbEntity
  8
IMPORTED
  6
STYLE_05
 62
              30
100
AcDbVertex
100
AcDb2dVertex
 10
-90.999983393350647
 20
-1507.999925385096
 30
0.0
 42
0.414213562373095
 70
               2
  0
VERTEX
  5
636
100
AcDbEntity
  8
IMPORTED
  6
STYLE_05
 62
              30
100
AcDbVertex
100
AcDb2dVertex
 10
-87.999983393350647
 20
-1510.999925385096
 30
0.0
  0
VERTEX
  5
637
100
AcDbEntity
  8
IMPORTED
  6
STYLE_05
 62
              30
100
AcDbVertex
100
AcDb2dVertex
 10
-83.999983393350647
 20
-1510.999925385096
 30
0.0
  0
VERTEX
  5
638
100
AcDbEntity
  8
IMPORTED
  6
STYLE_05
 62
              30
100
AcDbVertex
100
AcDb2dVertex
 10
-78.999983393350647
 20
-1513.999925385096
 30
0.0
  0
VERTEX
  5
639
100
AcDbEntity
  8
IMPORTED
  6
STYLE_05
 62
              30
100
AcDbVertex
100
AcDb2dVertex
 10
-60.999983393350654
 20
-1513.999925385096
 30
0.0
  0
VERTEX
  5
63A
100
AcDbEntity
  8
IMPORTED
  6
STYLE_05
 62
              30
100
AcDbVertex
100
AcDb2dVertex
 10
-54.999983393350654
 20
-1513.999925385096
 30
0.0
  0
VERTEX
  5
63B
100
AcDbEntity
  8
IMPORTED
  6
STYLE_05
 62
              30
100
AcDbVertex
100
AcDb2dVertex
 10
-49.999983393350654
 20
-1513.999925385096
 30
0.0
  0
VERTEX
  5
63C
100
AcDbEntity
  8
IMPORTED
  6
STYLE_05
 62
              30
100
AcDbVertex
100
AcDb2dVertex
 10
-44.999983393350654
 20
-1510.499925385096
 30
0.0
  0
VERTEX
  5
63D
100
AcDbEntity
  8
IMPORTED
  6
STYLE_05
 62
              30
100
AcDbVertex
100
AcDb2dVertex
 10
-34.999983393350654
 20
-1510.499925385096
 30
0.0
  0
VERTEX
  5
63E
100
AcDbEntity
  8
IMPORTED
  6
STYLE_05
 62
              30
100
AcDbVertex
100
AcDb2dVertex
 10
-29.999983393350654
 20
-1513.999925385096
 30
0.0
  0
VERTEX
  5
63F
100
AcDbEntity
  8
IMPORTED
  6
STYLE_05
 62
              30
100
AcDbVertex
100
AcDb2dVertex
 10
-24.999983393350654
 20
-1513.999925385096
 30
0.0
  0
VERTEX
  5
640
100
AcDbEntity
  8
IMPORTED
  6
STYLE_05
 62
              30
100
AcDbVertex
100
AcDb2dVertex
 10
-18.999983393350654
 20
-1513.999925385096
 30
0.0
  0
VERTEX
  5
641
100
AcDbEntity
  8
IMPORTED
  6
STYLE_05
 62
              30
100
AcDbVertex
100
AcDb2dVertex
 10
-0.9999833933506519
 20
-1513.999925385096
 30
0.0
  0
VERTEX
  5
642
100
AcDbEntity
  8
IMPORTED
  6
STYLE_05
 62
              30
100
AcDbVertex
100
AcDb2dVertex
 10
4.0000166066493481
 20
-1510.999925385096
 30
0.0
  0
VERTEX
  5
643
100
AcDbEntity
  8
IMPORTED
  6
STYLE_05
 62
              30
100
AcDbVertex
100
AcDb2dVertex
 10
8.0000166066493481
 20
-1510.999925385096
 30
0.0
  0
VERTEX
  5
644
100
AcDbEntity
  8
IMPORTED
  6
STYLE_05
 62
              30
100
AcDbVertex
100
AcDb2dVertex
 10
8.0000166066493481
 20
-1510.999925385096
 30
0.0
 42
0.414213562373095
 70
               2
 50
3.1191399769264294E+17
  0
VERTEX
  5
645
100
AcDbEntity
  8
IMPORTED
  6
STYLE_05
 62
              30
100
AcDbVertex
100
AcDb2dVertex
 10
11.000016606649348
 20
-1507.999925385096
 30
0.0
  0
VERTEX
  5
646
100
AcDbEntity
  8
IMPORTED
  6
STYLE_05
 62
              30
100
AcDbVertex
100
AcDb2dVertex
 10
11.000016606649348
 20
-1503.999925385096
 30
0.0
  0
VERTEX
  5
647
100
AcDbEntity
  8
IMPORTED
  6
STYLE_05
 62
              30
100
AcDbVertex
100
AcDb2dVertex
 10
14.000016606649348
 20
-1498.9999253850958
 30
0.0
  0
VERTEX
  5
648
100
AcDbEntity
  8
IMPORTED
  6
STYLE_05
 62
              30
100
AcDbVertex
100
AcDb2dVertex
 10
14.000016606649348
 20
-1480.999925385096
 30
0.0
  0
VERTEX
  5
649
100
AcDbEntity
  8
IMPORTED
  6
STYLE_05
 62
              30
100
AcDbVertex
100
AcDb2dVertex
 10
14.000016606649348
 20
-1474.999925385096
 30
0.0
  0
SEQEND
  5
64A
100
AcDbEntity
  8
IMPORTED
  6
STYLE_05
 62
              30
  0
POLYLINE
  5
64B
100
AcDbEntity
  8
IMPORTED
  6
STYLE_05
 62
              30
100
AcDb2dPolyline
 66
               1
 10
0.0
 20
0.0
 30
0.0
 70
             129
  0
VERTEX
  5
64C
100
AcDbEntity
  8
IMPORTED
  6
STYLE_05
 62
              30
100
AcDbVertex
100
AcDb2dVertex
 10
-39.999983393350654
 20
-1409.999925385096
 30
0.0
  0
VERTEX
  5
64D
100
AcDbEntity
  8
IMPORTED
  6
STYLE_05
 62
              30
100
AcDbVertex
100
AcDb2dVertex
 10
-85.399983393351192
 20
-1409.999925385096
 30
0.0
  0
VERTEX
  5
64E
100
AcDbEntity
  8
IMPORTED
  6
STYLE_05
 62
              30
100
AcDbVertex
100
AcDb2dVertex
 10
-85.399983393351192
 20
-1409.999925385096
 30
0.0
 42
0.414213562373124
 70
               2
 50
9.3574199307792870E+17
  0
VERTEX
  5
64F
100
AcDbEntity
  8
IMPORTED
  6
STYLE_05
 62
              30
100
AcDbVertex
100
AcDb2dVertex
 10
-89.999983393350647
 20
-1414.599925385096
 30
0.0
  0
VERTEX
  5
650
100
AcDbEntity
  8
IMPORTED
  6
STYLE_05
 62
              30
100
AcDbVertex
100
AcDb2dVertex
 10
-89.999983393350647
 20
-1459.999925385096
 30
0.0
  0
VERTEX
  5
651
100
AcDbEntity
  8
IMPORTED
  6
STYLE_05
 62
              30
100
AcDbVertex
100
AcDb2dVertex
 10
-89.999983393350647
 20
-1505.3999253850961
 30
0.0
  0
VERTEX
  5
652
100
AcDbEntity
  8
IMPORTED
  6
STYLE_05
 62
              30
100
AcDbVertex
100
AcDb2dVertex
 10
-89.999983393350647
 20
-1505.3999253850961
 30
0.0
 42
0.4142135623730661
 70
               2
  0
VERTEX
  5
653
100
AcDbEntity
  8
IMPORTED
  6
STYLE_05
 62
              30
100
AcDbVertex
100
AcDb2dVertex
 10
-85.399983393351192
 20
-1509.999925385096
 30
0.0
  0
VERTEX
  5
654
100
AcDbEntity
  8
IMPORTED
  6
STYLE_05
 62
              30
100
AcDbVertex
100
AcDb2dVertex
 10
-39.999983393350654
 20
-1509.999925385096
 30
0.0
  0
VERTEX
  5
655
100
AcDbEntity
  8
IMPORTED
  6
STYLE_05
 62
              30
100
AcDbVertex
100
AcDb2dVertex
 10
5.4000166066489843
 20
-1509.999925385096
 30
0.0
  0
VERTEX
  5
656
100
AcDbEntity
  8
IMPORTED
  6
STYLE_05
 62
              30
100
AcDbVertex
100
AcDb2dVertex
 10
5.4000166066489843
 20
-1509.999925385096
 30
0.0
 42
0.4142135623730661
 70
               2
 50
3.1191399769264294E+17
  0
VERTEX
  5
657
100
AcDbEntity
  8
IMPORTED
  6
STYLE_05
 62
              30
100
AcDbVertex
100
AcDb2dVertex
 10
10.000016606649348
 20
-1505.3999253850961
 30
0.0
  0
VERTEX
  5
658
100
AcDbEntity
  8
IMPORTED
  6
STYLE_05
 62
              30
100
AcDbVertex
100
AcDb2dVertex
 10
10.000016606649348
 20
-1459.999925385096
 30
0.0
  0
VERTEX
  5
659
100
AcDbEntity
  8
IMPORTED
  6
STYLE_05
 62
              30
100
AcDbVertex
100
AcDb2dVertex
 10
10.000016606649348
 20
-1414.599925385096
 30
0.0
  0
VERTEX
  5
65A
100
AcDbEntity
  8
IMPORTED
  6
STYLE_05
 62
              30
100
AcDbVertex
100
AcDb2dVertex
 10
10.000016606649348
 20
-1414.599925385096
 30
0.0
 42
0.414213562373124
 70
               2
  0
VERTEX
  5
65B
100
AcDbEntity
  8
IMPORTED
  6
STYLE_05
 62
              30
100
AcDbVertex
100
AcDb2dVertex
 10
5.4000166066489843
 20
-1409.999925385096
 30
0.0
  0
SEQEND
  5
65C
100
AcDbEntity
  8
IMPORTED
  6
STYLE_05
 62
              30
  0
POLYLINE
  5
65D
100
AcDbEntity
  8
IMPORTED
  6
STYLE_05
 62
              30
100
AcDb2dPolyline
 66
               1
 10
0.0
 20
0.0
 30
0.0
 70
             129
  0
VERTEX
  5
65E
100
AcDbEntity
  8
IMPORTED
  6
STYLE_05
 62
              30
100
AcDbVertex
100
AcDb2dVertex
 10
5.4000166066489843
 20
-1412.299925385096
 30
0.0
  0
VERTEX
  5
65F
100
AcDbEntity
  8
IMPORTED
  6
STYLE_05
 62
              30
100
AcDbVertex
100
AcDb2dVertex
 10
5.4000166066489843
 20
-1412.299925385096
 30
0.0
 42
-0.4142135623731095
 70
               2
 50
-1159086524229986.2
  0
VERTEX
  5
660
100
AcDbEntity
  8
IMPORTED
  6
STYLE_05
 62
              30
100
AcDbVertex
100
AcDb2dVertex
 10
7.7000166066491662
 20
-1414.599925385096
 30
0.0
  0
VERTEX
  5
661
100
AcDbEntity
  8
IMPORTED
  6
STYLE_05
 62
              30
100
AcDbVertex
100
AcDb2dVertex
 10
7.7000166066491662
 20
-1459.999925385096
 30
0.0
  0
VERTEX
  5
662
100
AcDbEntity
  8
IMPORTED
  6
STYLE_05
 62
              30
100
AcDbVertex
100
AcDb2dVertex
 10
7.7000166066491662
 20
-1505.3999253850961
 30
0.0
  0
VERTEX
  5
663
100
AcDbEntity
  8
IMPORTED
  6
STYLE_05
 62
              30
100
AcDbVertex
100
AcDb2dVertex
 10
7.7000166066491662
 20
-1505.3999253850961
 30
0.0
 42
-0.414213562373095
 70
               2
  0
VERTEX
  5
664
100
AcDbEntity
  8
IMPORTED
  6
STYLE_05
 62
              30
100
AcDbVertex
100
AcDb2dVertex
 10
5.4000166066489843
 20
-1507.6999253850961
 30
0.0
  0
VERTEX
  5
665
100
AcDbEntity
  8
IMPORTED
  6
STYLE_05
 62
              30
100
AcDbVertex
100
AcDb2dVertex
 10
-39.999983393350654
 20
-1507.6999253850961
 30
0.0
  0
VERTEX
  5
666
100
AcDbEntity
  8
IMPORTED
  6
STYLE_05
 62
              30
100
AcDbVertex
100
AcDb2dVertex
 10
-85.399983393351192
 20
-1507.6999253850961
 30
0.0
  0
VERTEX
  5
667
100
AcDbEntity
  8
IMPORTED
  6
STYLE_05
 62
              30
100
AcDbVertex
100
AcDb2dVertex
 10
-85.399983393351192
 20
-1507.6999253850961
 30
0.0
 42
-0.4142135623730516
 70
               2
 50
385805517572725.19
  0
VERTEX
  5
668
100
AcDbEntity
  8
IMPORTED
  6
STYLE_05
 62
              30
100
AcDbVertex
100
AcDb2dVertex
 10
-87.699983393350919
 20
-1505.3999253850961
 30
0.0
  0
VERTEX
  5
669
100
AcDbEntity
  8
IMPORTED
  6
STYLE_05
 62
              30
100
AcDbVertex
100
AcDb2dVertex
 10
-87.699983393350919
 20
-1459.999925385096
 30
0.0
  0
VERTEX
  5
66A
100
AcDbEntity
  8
IMPORTED
  6
STYLE_05
 62
              30
100
AcDbVertex
100
AcDb2dVertex
 10
-87.699983393350919
 20
-1414.599925385096
 30
0.0
  0
VERTEX
  5
66B
100
AcDbEntity
  8
IMPORTED
  6
STYLE_05
 62
              30
100
AcDbVertex
100
AcDb2dVertex
 10
-87.699983393350919
 20
-1414.599925385096
 30
0.0
 42
-0.414213562373153
 70
               2
  0
VERTEX
  5
66C
100
AcDbEntity
  8
IMPORTED
  6
STYLE_05
 62
              30
100
AcDbVertex
100
AcDb2dVertex
 10
-85.399983393351192
 20
-1412.299925385096
 30
0.0
  0
VERTEX
  5
66D
100
AcDbEntity
  8
IMPORTED
  6
STYLE_05
 62
              30
100
AcDbVertex
100
AcDb2dVertex
 10
-39.999983393350654
 20
-1412.299925385096
 30
0.0
  0
SEQEND
  5
66E
100
AcDbEntity
  8
IMPORTED
  6
STYLE_05
 62
              30
  0
POLYLINE
  5
66F
100
AcDbEntity
  8
IMPORTED
  6
CONTINUOUS
 62
              30
100
AcDb2dPolyline
 66
               1
 10
0.0
 20
0.0
 30
0.0
 70
               1
 75
               5
  0
VERTEX
  5
670
100
AcDbEntity
  8
IMPORTED
  6
CONTINUOUS
 62
              30
100
AcDbVertex
100
AcDb2dVertex
 10
-99.999983393350647
 20
-1404.999925385096
 30
0.0
  0
VERTEX
  5
671
100
AcDbEntity
  8
IMPORTED
  6
CONTINUOUS
 62
              30
100
AcDbVertex
100
AcDb2dVertex
 10
-94.999983393350647
 20
-1399.999925385096
 30
0.0
  0
VERTEX
  5
672
100
AcDbEntity
  8
IMPORTED
  6
CONTINUOUS
 62
              30
100
AcDbVertex
100
AcDb2dVertex
 10
15.000016606649348
 20
-1399.999925385096
 30
0.0
  0
VERTEX
  5
673
100
AcDbEntity
  8
IMPORTED
  6
CONTINUOUS
 62
              30
100
AcDbVertex
100
AcDb2dVertex
 10
20.000016606649346
 20
-1404.999925385096
 30
0.0
  0
VERTEX
  5
674
100
AcDbEntity
  8
IMPORTED
  6
CONTINUOUS
 62
              30
100
AcDbVertex
100
AcDb2dVertex
 10
20.000016606649346
 20
-1514.999925385096
 30
0.0
  0
VERTEX
  5
675
100
AcDbEntity
  8
IMPORTED
  6
CONTINUOUS
 62
              30
100
AcDbVertex
100
AcDb2dVertex
 10
15.000016606649348
 20
-1519.999925385096
 30
0.0
  0
VERTEX
  5
676
100
AcDbEntity
  8
IMPORTED
  6
CONTINUOUS
 62
              30
100
AcDbVertex
100
AcDb2dVertex
 10
-94.999983393350647
 20
-1519.999925385096
 30
0.0
  0
VERTEX
  5
677
100
AcDbEntity
  8
IMPORTED
  6
CONTINUOUS
 62
              30
100
AcDbVertex
100
AcDb2dVertex
 10
-99.999983393350647
 20
-1514.999925385096
 30
0.0
  0
SEQEND
  5
678
100
AcDbEntity
  8
IMPORTED
  6
CONTINUOUS
 62
              30
  0
POLYLINE
  5
67A
100
AcDbEntity
  8
IMPORTED
  6
CONTINUOUS
 62
              30
100
AcDb2dPolyline
 66
               1
 10
0.0
 20
0.0
 30
0.0
 70
             128
  0
VERTEX
  5
67B
100
AcDbEntity
  8
IMPORTED
  6
CONTINUOUS
 62
              30
100
AcDbVertex
100
AcDb2dVertex
 10
-101.49998339335065
 20
-1485.7499253850958
 30
0.0
  0
VERTEX
  5
67C
100
AcDbEntity
  8
IMPORTED
  6
CONTINUOUS
 62
              30
100
AcDbVertex
100
AcDb2dVertex
 10
-99.999983393350647
 20
-1485.7499253850958
 30
0.0
  0
VERTEX
  5
67D
100
AcDbEntity
  8
IMPORTED
  6
CONTINUOUS
 62
              30
100
AcDbVertex
100
AcDb2dVertex
 10
-99.999983393350647
 20
-1434.2499253850958
 30
0.0
  0
VERTEX
  5
67E
100
AcDbEntity
  8
IMPORTED
  6
CONTINUOUS
 62
              30
100
AcDbVertex
100
AcDb2dVertex
 10
-163.99998339335065
 20
-1434.2499253850958
 30
0.0
  0
VERTEX
  5
67F
100
AcDbEntity
  8
IMPORTED
  6
CONTINUOUS
 62
              30
100
AcDbVertex
100
AcDb2dVertex
 10
-163.99998339335065
 20
-1435.7499253850958
 30
0.0
  0
VERTEX
  5
680
100
AcDbEntity
  8
IMPORTED
  6
CONTINUOUS
 62
              30
100
AcDbVertex
100
AcDb2dVertex
 10
-101.49998339335065
 20
-1435.7499253850958
 30
0.0
  0
VERTEX
  5
681
100
AcDbEntity
  8
IMPORTED
  6
CONTINUOUS
 62
              30
100
AcDbVertex
100
AcDb2dVertex
 10
-101.49998339335065
 20
-1485.7499253850958
 30
0.0
  0
SEQEND
  5
682
100
AcDbEntity
  8
IMPORTED
  6
CONTINUOUS
 62
              30
  0
POLYLINE
  5
683
100
AcDbEntity
  8
IMPORTED
  6
CONTINUOUS
 62
              30
100
AcDb2dPolyline
 66
               1
 10
0.0
 20
0.0
 30
0.0
 70
             129
  0
VERTEX
  5
684
100
AcDbEntity
  8
IMPORTED
  6
CONTINUOUS
 62
              30
100
AcDbVertex
100
AcDb2dVertex
 10
-101.49998339335065
 20
-1485.7499253850958
 30
0.0
  0
VERTEX
  5
685
100
AcDbEntity
  8
IMPORTED
  6
CONTINUOUS
 62
              30
100
AcDbVertex
100
AcDb2dVertex
 10
-106.49998339335065
 20
-1485.7499253850958
 30
0.0
  0
VERTEX
  5
686
100
AcDbEntity
  8
IMPORTED
  6
CONTINUOUS
 62
              30
100
AcDbVertex
100
AcDb2dVertex
 10
-106.49998339335065
 20
-1435.7499253850958
 30
0.0
  0
VERTEX
  5
687
100
AcDbEntity
  8
IMPORTED
  6
CONTINUOUS
 62
              30
100
AcDbVertex
100
AcDb2dVertex
 10
-101.49998339335065
 20
-1435.7499253850958
 30
0.0
  0
SEQEND
  5
688
100
AcDbEntity
  8
IMPORTED
  6
CONTINUOUS
 62
              30
  0
LINE
  5
689
100
AcDbEntity
  8
IMPORTED
  6
CONTINUOUS
 62
              30
100
AcDbLine
 10
-133.25828339335106
 20
-1426.7499253850958
 30
0.0
 11
-133.25828339335106
 21
-1432.2499253850958
 31
0.0
  0
LINE
  5
68A
100
AcDbEntity
  8
IMPORTED
  6
CONTINUOUS
 62
              30
100
AcDbLine
 10
-140.74158339335094
 20
-1426.7499253850958
 30
0.0
 11
-140.74158339335094
 21
-1432.2499253850958
 31
0.0
  0
POLYLINE
  5
68B
100
AcDbEntity
  8
IMPORTED
  6
STYLE_05
 62
              30
100
AcDb2dPolyline
 66
               1
 10
0.0
 20
0.0
 30
0.0
 70
             129
  0
VERTEX
  5
68C
100
AcDbEntity
  8
IMPORTED
  6
STYLE_05
 62
              30
100
AcDbVertex
100
AcDb2dVertex
 10
-140.99998339335065
 20
-1432.2499253850958
 30
0.0
  0
VERTEX
  5
68D
100
AcDbEntity
  8
IMPORTED
  6
STYLE_05
 62
              30
100
AcDbVertex
100
AcDb2dVertex
 10
-140.99998339335065
 20
-1485.7499253850958
 30
0.0
  0
VERTEX
  5
68E
100
AcDbEntity
  8
IMPORTED
  6
STYLE_05
 62
              30
100
AcDbVertex
100
AcDb2dVertex
 10
-132.99998339335065
 20
-1485.7499253850958
 30
0.0
  0
VERTEX
  5
68F
100
AcDbEntity
  8
IMPORTED
  6
STYLE_05
 62
              30
100
AcDbVertex
100
AcDb2dVertex
 10
-132.99998339335065
 20
-1432.2499253850958
 30
0.0
  0
SEQEND
  5
690
100
AcDbEntity
  8
IMPORTED
  6
STYLE_05
 62
              30
  0
POLYLINE
  5
691
100
AcDbEntity
  8
IMPORTED
  6
CONTINUOUS
 62
              30
100
AcDb2dPolyline
 66
               1
 10
0.0
 20
0.0
 30
0.0
 70
             129
  0
VERTEX
  5
692
100
AcDbEntity
  8
IMPORTED
  6
CONTINUOUS
 62
              30
100
AcDbVertex
100
AcDb2dVertex
 10
-146.99998339335065
 20
-1432.2499253850958
 30
0.0
  0
VERTEX
  5
693
100
AcDbEntity
  8
IMPORTED
  6
CONTINUOUS
 62
              30
100
AcDbVertex
100
AcDb2dVertex
 10
-146.99998339335065
 20
-1434.2499253850958
 30
0.0
  0
VERTEX
  5
694
100
AcDbEntity
  8
IMPORTED
  6
CONTINUOUS
 62
              30
100
AcDbVertex
100
AcDb2dVertex
 10
-126.99998339335065
 20
-1434.2499253850958
 30
0.0
  0
VERTEX
  5
695
100
AcDbEntity
  8
IMPORTED
  6
CONTINUOUS
 62
              30
100
AcDbVertex
100
AcDb2dVertex
 10
-126.99998339335065
 20
-1432.2499253850958
 30
0.0
  0
SEQEND
  5
696
100
AcDbEntity
  8
IMPORTED
  6
CONTINUOUS
 62
              30
  0
POLYLINE
  5
697
100
AcDbEntity
  8
IMPORTED
  6
CONTINUOUS
 62
              30
100
AcDb2dPolyline
 66
               1
 10
0.0
 20
0.0
 30
0.0
 70
             128
  0
VERTEX
  5
698
100
AcDbEntity
  8
IMPORTED
  6
CONTINUOUS
 62
              30
100
AcDbVertex
100
AcDb2dVertex
 10
-143.19998339335092
 20
-1426.7499253850958
 30
0.0
  0
VERTEX
  5
699
100
AcDbEntity
  8
IMPORTED
  6
CONTINUOUS
 62
              30
100
AcDbVertex
100
AcDb2dVertex
 10
-144.49998339335065
 20
-1427.5005253850959
 30
0.0
  0
VERTEX
  5
69A
100
AcDbEntity
  8
IMPORTED
  6
CONTINUOUS
 62
              30
100
AcDbVertex
100
AcDb2dVertex
 10
-144.49998339335065
 20
-1432.2499253850958
 30
0.0
  0
VERTEX
  5
69B
100
AcDbEntity
  8
IMPORTED
  6
CONTINUOUS
 62
              30
100
AcDbVertex
100
AcDb2dVertex
 10
-129.49998339335065
 20
-1432.2499253850958
 30
0.0
  0
VERTEX
  5
69C
100
AcDbEntity
  8
IMPORTED
  6
CONTINUOUS
 62
              30
100
AcDbVertex
100
AcDb2dVertex
 10
-129.49998339335065
 20
-1427.5005253850959
 30
0.0
  0
VERTEX
  5
69D
100
AcDbEntity
  8
IMPORTED
  6
CONTINUOUS
 62
              30
100
AcDbVertex
100
AcDb2dVertex
 10
-130.79998339335083
 20
-1426.7499253850958
 30
0.0
  0
VERTEX
  5
69E
100
AcDbEntity
  8
IMPORTED
  6
CONTINUOUS
 62
              30
100
AcDbVertex
100
AcDb2dVertex
 10
-143.19998339335092
 20
-1426.7499253850958
 30
0.0
  0
SEQEND
  5
69F
100
AcDbEntity
  8
IMPORTED
  6
CONTINUOUS
 62
              30
  0
POLYLINE
  5
6A0
100
AcDbEntity
  8
IMPORTED
  6
CONTINUOUS
 62
              30
100
AcDb2dPolyline
 66
               1
 10
0.0
 20
0.0
 30
0.0
 70
               1
 75
               5
  0
VERTEX
  5
6A1
100
AcDbEntity
  8
IMPORTED
  6
CONTINUOUS
 62
              30
100
AcDbVertex
100
AcDb2dVertex
 10
-152.99998339335065
 20
-1485.7499253850958
 30
0.0
  0
VERTEX
  5
6A2
100
AcDbEntity
  8
IMPORTED
  6
CONTINUOUS
 62
              30
100
AcDbVertex
100
AcDb2dVertex
 10
-120.99998339335065
 20
-1485.7499253850958
 30
0.0
  0
VERTEX
  5
6A3
100
AcDbEntity
  8
IMPORTED
  6
CONTINUOUS
 62
              30
100
AcDbVertex
100
AcDb2dVertex
 10
-120.99998339335065
 20
-1487.2499253850958
 30
0.0
  0
VERTEX
  5
6A4
100
AcDbEntity
  8
IMPORTED
  6
CONTINUOUS
 62
              30
100
AcDbVertex
100
AcDb2dVertex
 10
-152.99998339335065
 20
-1487.2499253850958
 30
0.0
  0
SEQEND
  5
6A5
100
AcDbEntity
  8
IMPORTED
  6
CONTINUOUS
 62
              30
  0
POLYLINE
  5
6A7
100
AcDbEntity
  8
IMPORTED
  6
CONTINUOUS
 62
              30
100
AcDb2dPolyline
 66
               1
 10
0.0
 20
0.0
 30
0.0
 70
               1
 75
               5
  0
VERTEX
  5
6A8
100
AcDbEntity
  8
IMPORTED
  6
CONTINUOUS
 62
              30
100
AcDbVertex
100
AcDb2dVertex
 10
-144.99998339335065
 20
-1487.2499253850958
 30
0.0
  0
VERTEX
  5
6A9
100
AcDbEntity
  8
IMPORTED
  6
CONTINUOUS
 62
              30
100
AcDbVertex
100
AcDb2dVertex
 10
-128.99998339335065
 20
-1487.2499253850958
 30
0.0
  0
VERTEX
  5
6AA
100
AcDbEntity
  8
IMPORTED
  6
CONTINUOUS
 62
              30
100
AcDbVertex
100
AcDb2dVertex
 10
-128.99998339335065
 20
-1492.2499253850958
 30
0.0
  0
VERTEX
  5
6AB
100
AcDbEntity
  8
IMPORTED
  6
CONTINUOUS
 62
              30
100
AcDbVertex
100
AcDb2dVertex
 10
-144.99998339335065
 20
-1492.2499253850958
 30
0.0
  0
SEQEND
  5
6AC
100
AcDbEntity
  8
IMPORTED
  6
CONTINUOUS
 62
              30
  0
SPLINE
  5
6AE
100
AcDbEntity
  8
IMPORTED
  6
CONTINUOUS
 62
              30
100
AcDbSpline
210
0.0
220
0.0
230
1.0
 70
               8
 71
               2
 72
               8
 73
               5
 74
               0
 42
0.000001
 43
0.000001
 40
0.0
 40
0.0
 40
0.0
 40
1.0
 40
1.0
 40
2.0
 40
2.0
 40
2.0
 10
-144.99998339335065
 20
-1491.535425385096
 30
0.0
 10
-140.99998339335065
 20
-1492.9614850558776
 30
0.0
 10
-136.99998339335065
 20
-1491.535425385096
 30
0.0
 10
-132.99998339335065
 20
-1492.9614850558776
 30
0.0
 10
-128.99998339335065
 20
-1491.535425385096
 30
0.0
  0
SPLINE
  5
6AF
100
AcDbEntity
  8
IMPORTED
  6
CONTINUOUS
 62
              30
100
AcDbSpline
210
0.0
220
0.0
230
1.0
 70
               8
 71
               2
 72
               8
 73
               5
 74
               0
 42
0.000001
 43
0.000001
 40
0.0
 40
0.0
 40
0.0
 40
1.0
 40
1.0
 40
2.0
 40
2.0
 40
2.0
 10
-144.99998339335065
 20
-1487.9645253850958
 30
0.0
 10
-140.99998339335065
 20
-1486.5384657143143
 30
0.0
 10
-136.99998339335065
 20
-1487.9645253850958
 30
0.0
 10
-132.99998339335065
 20
-1486.5384657143143
 30
0.0
 10
-128.99998339335065
 20
-1487.9645253850958
 30
0.0
  0
LINE
  5
6B0
100
AcDbEntity
  8
IMPORTED
  6
CONTINUOUS
 62
              30
100
AcDbLine
 10
-136.99998339335065
 20
-1491.535425385096
 30
0.0
 11
-136.99998339335065
 21
-1487.9645253850958
 31
0.0
  0
POLYLINE
  5
6B1
100
AcDbEntity
  8
IMPORTED
  6
CONTINUOUS
 62
              30
100
AcDb2dPolyline
 66
               1
 10
0.0
 20
0.0
 30
0.0
 70
             129
  0
VERTEX
  5
6B2
100
AcDbEntity
  8
IMPORTED
  6
CONTINUOUS
 62
              30
100
AcDbVertex
100
AcDb2dVertex
 10
-136.99998339335065
 20
-1498.2605253850959
 30
0.0
 42
-0.4142135623731172
 70
               2
 50
-760784192913608.87
  0
VERTEX
  5
6B3
100
AcDbEntity
  8
IMPORTED
  6
CONTINUOUS
 62
              30
100
AcDbVertex
100
AcDb2dVertex
 10
-143.01058339335117
 20
-1492.2499253850958
 30
0.0
  0
VERTEX
  5
6B4
100
AcDbEntity
  8
IMPORTED
  6
CONTINUOUS
 62
              30
100
AcDbVertex
100
AcDb2dVertex
 10
-130.98938339335103
 20
-1492.2499253850958
 30
0.0
  0
VERTEX
  5
6B5
100
AcDbEntity
  8
IMPORTED
  6
CONTINUOUS
 62
              30
100
AcDbVertex
100
AcDb2dVertex
 10
-130.98938339335103
 20
-1492.2499253850958
 30
0.0
 42
-0.4142135623731172
 70
               2
  0
VERTEX
  5
6B6
100
AcDbEntity
  8
IMPORTED
  6
CONTINUOUS
 62
              30
100
AcDbVertex
100
AcDb2dVertex
 10
-136.99998339335065
 20
-1498.2605253850959
 30
0.0
  0
SEQEND
  5
6B7
100
AcDbEntity
  8
IMPORTED
  6
CONTINUOUS
 62
              30
  0
POLYLINE
  5
6B8
100
AcDbEntity
  8
IMPORTED
  6
CONTINUOUS
 62
              30
100
AcDb2dPolyline
 66
               1
 10
0.0
 20
0.0
 30
0.0
 70
             128
  0
VERTEX
  5
6B9
100
AcDbEntity
  8
IMPORTED
  6
CONTINUOUS
 62
              30
100
AcDbVertex
100
AcDb2dVertex
 10
21.500016606649346
 20
-1485.7499253850958
 30
0.0
  0
VERTEX
  5
6BA
100
AcDbEntity
  8
IMPORTED
  6
CONTINUOUS
 62
              30
100
AcDbVertex
100
AcDb2dVertex
 10
20.000016606649346
 20
-1485.7499253850958
 30
0.0
  0
VERTEX
  5
6BB
100
AcDbEntity
  8
IMPORTED
  6
CONTINUOUS
 62
              30
100
AcDbVertex
100
AcDb2dVertex
 10
20.000016606649346
 20
-1434.2499253850958
 30
0.0
  0
VERTEX
  5
6BC
100
AcDbEntity
  8
IMPORTED
  6
CONTINUOUS
 62
              30
100
AcDbVertex
100
AcDb2dVertex
 10
84.000016606649353
 20
-1434.2499253850958
 30
0.0
  0
VERTEX
  5
6BD
100
AcDbEntity
  8
IMPORTED
  6
CONTINUOUS
 62
              30
100
AcDbVertex
100
AcDb2dVertex
 10
84.000016606649353
 20
-1435.7499253850958
 30
0.0
  0
VERTEX
  5
6BE
100
AcDbEntity
  8
IMPORTED
  6
CONTINUOUS
 62
              30
100
AcDbVertex
100
AcDb2dVertex
 10
21.500016606649346
 20
-1435.7499253850958
 30
0.0
  0
VERTEX
  5
6BF
100
AcDbEntity
  8
IMPORTED
  6
CONTINUOUS
 62
              30
100
AcDbVertex
100
AcDb2dVertex
 10
21.500016606649346
 20
-1485.7499253850958
 30
0.0
  0
SEQEND
  5
6C0
100
AcDbEntity
  8
IMPORTED
  6
CONTINUOUS
 62
              30
  0
POLYLINE
  5
6C1
100
AcDbEntity
  8
IMPORTED
  6
CONTINUOUS
 62
              30
100
AcDb2dPolyline
 66
               1
 10
0.0
 20
0.0
 30
0.0
 70
             129
  0
VERTEX
  5
6C2
100
AcDbEntity
  8
IMPORTED
  6
CONTINUOUS
 62
              30
100
AcDbVertex
100
AcDb2dVertex
 10
21.500016606649346
 20
-1485.7499253850958
 30
0.0
  0
VERTEX
  5
6C3
100
AcDbEntity
  8
IMPORTED
  6
CONTINUOUS
 62
              30
100
AcDbVertex
100
AcDb2dVertex
 10
26.500016606649346
 20
-1485.7499253850958
 30
0.0
  0
VERTEX
  5
6C4
100
AcDbEntity
  8
IMPORTED
  6
CONTINUOUS
 62
              30
100
AcDbVertex
100
AcDb2dVertex
 10
26.500016606649346
 20
-1435.7499253850958
 30
0.0
  0
VERTEX
  5
6C5
100
AcDbEntity
  8
IMPORTED
  6
CONTINUOUS
 62
              30
100
AcDbVertex
100
AcDb2dVertex
 10
21.500016606649346
 20
-1435.7499253850958
 30
0.0
  0
SEQEND
  5
6C6
100
AcDbEntity
  8
IMPORTED
  6
CONTINUOUS
 62
              30
  0
LINE
  5
6C7
100
AcDbEntity
  8
IMPORTED
  6
CONTINUOUS
 62
              30
100
AcDbLine
 10
53.258316606649309
 20
-1426.7499253850958
 30
0.0
 11
53.258316606649309
 21
-1432.2499253850958
 31
0.0
  0
LINE
  5
6C8
100
AcDbEntity
  8
IMPORTED
  6
CONTINUOUS
 62
              30
100
AcDbLine
 10
60.741616606649181
 20
-1426.7499253850958
 30
0.0
 11
60.741616606649181
 21
-1432.2499253850958
 31
0.0
  0
POLYLINE
  5
6C9
100
AcDbEntity
  8
IMPORTED
  6
STYLE_05
 62
              30
100
AcDb2dPolyline
 66
               1
 10
0.0
 20
0.0
 30
0.0
 70
             129
  0
VERTEX
  5
6CA
100
AcDbEntity
  8
IMPORTED
  6
STYLE_05
 62
              30
100
AcDbVertex
100
AcDb2dVertex
 10
61.000016606649346
 20
-1432.2499253850958
 30
0.0
  0
VERTEX
  5
6CB
100
AcDbEntity
  8
IMPORTED
  6
STYLE_05
 62
              30
100
AcDbVertex
100
AcDb2dVertex
 10
61.000016606649346
 20
-1485.7499253850958
 30
0.0
  0
VERTEX
  5
6CC
100
AcDbEntity
  8
IMPORTED
  6
STYLE_05
 62
              30
100
AcDbVertex
100
AcDb2dVertex
 10
53.000016606649346
 20
-1485.7499253850958
 30
0.0
  0
VERTEX
  5
6CD
100
AcDbEntity
  8
IMPORTED
  6
STYLE_05
 62
              30
100
AcDbVertex
100
AcDb2dVertex
 10
53.000016606649346
 20
-1432.2499253850958
 30
0.0
  0
SEQEND
  5
6CE
100
AcDbEntity
  8
IMPORTED
  6
STYLE_05
 62
              30
  0
POLYLINE
  5
6CF
100
AcDbEntity
  8
IMPORTED
  6
CONTINUOUS
 62
              30
100
AcDb2dPolyline
 66
               1
 10
0.0
 20
0.0
 30
0.0
 70
             129
  0
VERTEX
  5
6D0
100
AcDbEntity
  8
IMPORTED
  6
CONTINUOUS
 62
              30
100
AcDbVertex
100
AcDb2dVertex
 10
67.000016606649353
 20
-1432.2499253850958
 30
0.0
  0
VERTEX
  5
6D1
100
AcDbEntity
  8
IMPORTED
  6
CONTINUOUS
 62
              30
100
AcDbVertex
100
AcDb2dVertex
 10
67.000016606649353
 20
-1434.2499253850958
 30
0.0
  0
VERTEX
  5
6D2
100
AcDbEntity
  8
IMPORTED
  6
CONTINUOUS
 62
              30
100
AcDbVertex
100
AcDb2dVertex
 10
47.000016606649346
 20
-1434.2499253850958
 30
0.0
  0
VERTEX
  5
6D3
100
AcDbEntity
  8
IMPORTED
  6
CONTINUOUS
 62
              30
100
AcDbVertex
100
AcDb2dVertex
 10
47.000016606649346
 20
-1432.2499253850958
 30
0.0
  0
SEQEND
  5
6D4
100
AcDbEntity
  8
IMPORTED
  6
CONTINUOUS
 62
              30
  0
POLYLINE
  5
6D5
100
AcDbEntity
  8
IMPORTED
  6
CONTINUOUS
 62
              30
100
AcDb2dPolyline
 66
               1
 10
0.0
 20
0.0
 30
0.0
 70
             128
  0
VERTEX
  5
6D6
100
AcDbEntity
  8
IMPORTED
  6
CONTINUOUS
 62
              30
100
AcDbVertex
100
AcDb2dVertex
 10
63.200016606649164
 20
-1426.7499253850958
 30
0.0
  0
VERTEX
  5
6D7
100
AcDbEntity
  8
IMPORTED
  6
CONTINUOUS
 62
              30
100
AcDbVertex
100
AcDb2dVertex
 10
64.500016606649353
 20
-1427.5005253850959
 30
0.0
  0
VERTEX
  5
6D8
100
AcDbEntity
  8
IMPORTED
  6
CONTINUOUS
 62
              30
100
AcDbVertex
100
AcDb2dVertex
 10
64.500016606649353
 20
-1432.2499253850958
 30
0.0
  0
VERTEX
  5
6D9
100
AcDbEntity
  8
IMPORTED
  6
CONTINUOUS
 62
              30
100
AcDbVertex
100
AcDb2dVertex
 10
49.500016606649346
 20
-1432.2499253850958
 30
0.0
  0
VERTEX
  5
6DA
100
AcDbEntity
  8
IMPORTED
  6
CONTINUOUS
 62
              30
100
AcDbVertex
100
AcDb2dVertex
 10
49.500016606649346
 20
-1427.5005253850959
 30
0.0
  0
VERTEX
  5
6DB
100
AcDbEntity
  8
IMPORTED
  6
CONTINUOUS
 62
              30
100
AcDbVertex
100
AcDb2dVertex
 10
50.800016606649528
 20
-1426.7499253850958
 30
0.0
  0
VERTEX
  5
6DC
100
AcDbEntity
  8
IMPORTED
  6
CONTINUOUS
 62
              30
100
AcDbVertex
100
AcDb2dVertex
 10
63.200016606649164
 20
-1426.7499253850958
 30
0.0
  0
SEQEND
  5
6DD
100
AcDbEntity
  8
IMPORTED
  6
CONTINUOUS
 62
              30
  0
POLYLINE
  5
6DE
100
AcDbEntity
  8
IMPORTED
  6
CONTINUOUS
 62
              30
100
AcDb2dPolyline
 66
               1
 10
0.0
 20
0.0
 30
0.0
 70
               1
 75
               5
  0
VERTEX
  5
6DF
100
AcDbEntity
  8
IMPORTED
  6
CONTINUOUS
 62
              30
100
AcDbVertex
100
AcDb2dVertex
 10
41.000016606649346
 20
-1485.7499253850958
 30
0.0
  0
VERTEX
  5
6E0
100
AcDbEntity
  8
IMPORTED
  6
CONTINUOUS
 62
              30
100
AcDbVertex
100
AcDb2dVertex
 10
73.000016606649353
 20
-1485.7499253850958
 30
0.0
  0
VERTEX
  5
6E1
100
AcDbEntity
  8
IMPORTED
  6
CONTINUOUS
 62
              30
100
AcDbVertex
100
AcDb2dVertex
 10
73.000016606649353
 20
-1487.2499253850958
 30
0.0
  0
VERTEX
  5
6E2
100
AcDbEntity
  8
IMPORTED
  6
CONTINUOUS
 62
              30
100
AcDbVertex
100
AcDb2dVertex
 10
41.000016606649346
 20
-1487.2499253850958
 30
0.0
  0
SEQEND
  5
6E3
100
AcDbEntity
  8
IMPORTED
  6
CONTINUOUS
 62
              30
  0
POLYLINE
  5
6E5
100
AcDbEntity
  8
IMPORTED
  6
CONTINUOUS
 62
              30
100
AcDb2dPolyline
 66
               1
 10
0.0
 20
0.0
 30
0.0
 70
               1
 75
               5
  0
VERTEX
  5
6E6
100
AcDbEntity
  8
IMPORTED
  6
CONTINUOUS
 62
              30
100
AcDbVertex
100
AcDb2dVertex
 10
49.000016606649346
 20
-1487.2499253850958
 30
0.0
  0
VERTEX
  5
6E7
100
AcDbEntity
  8
IMPORTED
  6
CONTINUOUS
 62
              30
100
AcDbVertex
100
AcDb2dVertex
 10
65.000016606649353
 20
-1487.2499253850958
 30
0.0
  0
VERTEX
  5
6E8
100
AcDbEntity
  8
IMPORTED
  6
CONTINUOUS
 62
              30
100
AcDbVertex
100
AcDb2dVertex
 10
65.000016606649353
 20
-1492.2499253850958
 30
0.0
  0
VERTEX
  5
6E9
100
AcDbEntity
  8
IMPORTED
  6
CONTINUOUS
 62
              30
100
AcDbVertex
100
AcDb2dVertex
 10
49.000016606649346
 20
-1492.2499253850958
 30
0.0
  0
SEQEND
  5
6EA
100
AcDbEntity
  8
IMPORTED
  6
CONTINUOUS
 62
              30
  0
SPLINE
  5
6EC
100
AcDbEntity
  8
IMPORTED
  6
CONTINUOUS
 62
              30
100
AcDbSpline
210
0.0
220
0.0
230
1.0
 70
               8
 71
               2
 72
               8
 73
               5
 74
               0
 42
0.000001
 43
0.000001
 40
0.0
 40
0.0
 40
0.0
 40
1.0
 40
1.0
 40
2.0
 40
2.0
 40
2.0
 10
65.000016606649353
 20
-1491.535425385096
 30
0.0
 10
61.000016606649346
 20
-1492.9614850558776
 30
0.0
 10
57.000016606649346
 20
-1491.535425385096
 30
0.0
 10
53.000016606649346
 20
-1492.9614850558776
 30
0.0
 10
49.000016606649346
 20
-1491.535425385096
 30
0.0
  0
SPLINE
  5
6ED
100
AcDbEntity
  8
IMPORTED
  6
CONTINUOUS
 62
              30
100
AcDbSpline
210
0.0
220
0.0
230
1.0
 70
               8
 71
               2
 72
               8
 73
               5
 74
               0
 42
0.000001
 43
0.000001
 40
0.0
 40
0.0
 40
0.0
 40
1.0
 40
1.0
 40
2.0
 40
2.0
 40
2.0
 10
65.000016606649353
 20
-1487.9645253850958
 30
0.0
 10
61.000016606649346
 20
-1486.5384657143143
 30
0.0
 10
57.000016606649346
 20
-1487.9645253850958
 30
0.0
 10
53.000016606649346
 20
-1486.5384657143143
 30
0.0
 10
49.000016606649346
 20
-1487.9645253850958
 30
0.0
  0
LINE
  5
6EE
100
AcDbEntity
  8
IMPORTED
  6
CONTINUOUS
 62
              30
100
AcDbLine
 10
57.000016606649346
 20
-1491.535425385096
 30
0.0
 11
57.000016606649346
 21
-1487.9645253850958
 31
0.0
  0
POLYLINE
  5
6EF
100
AcDbEntity
  8
IMPORTED
  6
CONTINUOUS
 62
              30
100
AcDb2dPolyline
 66
               1
 10
0.0
 20
0.0
 30
0.0
 70
             129
  0
VERTEX
  5
6F0
100
AcDbEntity
  8
IMPORTED
  6
CONTINUOUS
 62
              30
100
AcDbVertex
100
AcDb2dVertex
 10
57.000016606649346
 20
-1498.2605253850959
 30
0.0
 42
0.4142135623731172
 70
               2
 50
3.1191399769264294E+17
  0
VERTEX
  5
6F1
100
AcDbEntity
  8
IMPORTED
  6
CONTINUOUS
 62
              30
100
AcDbVertex
100
AcDb2dVertex
 10
63.010616606648959
 20
-1492.2499253850958
 30
0.0
  0
VERTEX
  5
6F2
100
AcDbEntity
  8
IMPORTED
  6
CONTINUOUS
 62
              30
100
AcDbVertex
100
AcDb2dVertex
 10
50.989416606648824
 20
-1492.2499253850958
 30
0.0
  0
VERTEX
  5
6F3
100
AcDbEntity
  8
IMPORTED
  6
CONTINUOUS
 62
              30
100
AcDbVertex
100
AcDb2dVertex
 10
50.989416606648824
 20
-1492.2499253850958
 30
0.0
 42
0.4142135623731172
 70
               2
  0
VERTEX
  5
6F4
100
AcDbEntity
  8
IMPORTED
  6
CONTINUOUS
 62
              30
100
AcDbVertex
100
AcDb2dVertex
 10
57.000016606649346
 20
-1498.2605253850959
 30
0.0
  0
SEQEND
  5
6F5
100
AcDbEntity
  8
IMPORTED
  6
CONTINUOUS
 62
              30
  0
MTEXT
  5
6F6
100
AcDbEntity
  8
IMPORTED
 62
              30
100
AcDbMText
 10
1327.0318547110978
 20
-1929.2278615512791
 30
0.0
 40
54.294704861111114
 41
0.0
 71
               1
 72
               1
  1
※特記事項\P\P・ESWは、木粉50％以上、ポリプロピレン40％以上の配合で、\P  表面をサンディング加工した再生木材「EINスーパーウッド」の略称。
  7
_______
  0
ENDSEC
  0
SECTION
  2
OBJECTS
  0
DICTIONARY
  5
19
100
AcDbDictionary
  3
ACAD_GROUP
350
1A
  3
ACAD_MLINESTYLE
350
1B
  0
DICTIONARY
  5
1A
102
{ACAD_REACTORS
330
19
102
}
100
AcDbDictionary
  0
DICTIONARY
  5
1B
102
{ACAD_REACTORS
330
19
102
}
100
AcDbDictionary
  3
STANDARD
350
1C
  0
MLINESTYLE
  5
1C
102
{ACAD_REACTORS
330
1B
102
}
100
AcDbMlineStyle
  2
STANDARD
 70
               0
  3

 62
               0
 51
90.0
 52
90.0
 71
               2
 49
0.5
 62
             256
  6
BYLAYER
 49
-0.5
 62
             256
  6
BYLAYER
  0
ENDSEC
  0
EOF
