  0
SECTION
  2
HEADER
  9
$ACADVER
  1
AC1012
  9
$DWGCODEPAGE
  3
dos932
  9
$INSBASE
 10
0.0
 20
0.0
 30
0.0
  9
$EXTMIN
 10
-4048.9998850503603
 20
-2811.0000632915567
 30
0.0
  9
$EXTMAX
 10
3751.0001149496393
 20
2688.9999367084429
 30
0.0
  9
$LIMMIN
 10
0.0
 20
0.0
  9
$LIMMAX
 10
0.0
 20
0.0
  9
$ORTHOMODE
 70
               0
  9
$REGENMODE
 70
               1
  9
$FILLMODE
 70
               1
  9
$QTEXTMODE
 70
               0
  9
$MIRRTEXT
 70
               1
  9
$DRAGMODE
 70
               2
  9
$LTSCALE
 40
101.59999999999999
  9
$OSMODE
 70
               0
  9
$ATTMODE
 70
               1
  9
$TEXTSIZE
 40
0.2
  9
$TRACEWID
 40
1.0
  9
$TEXTSTYLE
  7
STANDARD
  9
$CLAYER
  8
IMPORTED
  9
$CELTYPE
  6
CONTINUOUS
  9
$CECOLOR
 62
             256
  9
$CELTSCALE
 40
1.0
  9
$DELOBJ
 70
               1
  9
$DISPSILH
 70
               0
  9
$DIMSCALE
 40
1.0
  9
$DIMASZ
 40
0.18
  9
$DIMEXO
 40
0.0625
  9
$DIMDLI
 40
0.38
  9
$DIMRND
 40
0.0
  9
$DIMDLE
 40
0.0
  9
$DIMEXE
 40
0.18
  9
$DIMTP
 40
0.0
  9
$DIMTM
 40
0.0
  9
$DIMTXT
 40
0.18
  9
$DIMCEN
 40
0.09
  9
$DIMTSZ
 40
0.0
  9
$DIMTOL
 70
               0
  9
$DIMLIM
 70
               0
  9
$DIMTIH
 70
               1
  9
$DIMTOH
 70
               1
  9
$DIMSE1
 70
               0
  9
$DIMSE2
 70
               0
  9
$DIMTAD
 70
               0
  9
$DIMZIN
 70
               0
  9
$DIMBLK
  1

  9
$DIMASO
 70
               1
  9
$DIMSHO
 70
               1
  9
$DIMPOST
  1

  9
$DIMAPOST
  1

  9
$DIMALT
 70
               0
  9
$DIMALTD
 70
               2
  9
$DIMALTF
 40
25.399999999999999
  9
$DIMLFAC
 40
1.0
  9
$DIMTOFL
 70
               0
  9
$DIMTVP
 40
0.0
  9
$DIMTIX
 70
               0
  9
$DIMSOXD
 70
               0
  9
$DIMSAH
 70
               0
  9
$DIMBLK1
  1

  9
$DIMBLK2
  1

  9
$DIMSTYLE
  2
STANDARD
  9
$DIMCLRD
 70
               0
  9
$DIMCLRE
 70
               0
  9
$DIMCLRT
 70
               0
  9
$DIMTFAC
 40
1.0
  9
$DIMGAP
 40
0.09
  9
$DIMJUST
 70
               0
  9
$DIMSD1
 70
               0
  9
$DIMSD2
 70
               0
  9
$DIMTOLJ
 70
               1
  9
$DIMTZIN
 70
               0
  9
$DIMALTZ
 70
               0
  9
$DIMALTTZ
 70
               0
  9
$DIMFIT
 70
               3
  9
$DIMUPT
 70
               0
  9
$DIMUNIT
 70
               2
  9
$DIMDEC
 70
               4
  9
$DIMTDEC
 70
               4
  9
$DIMALTU
 70
               2
  9
$DIMALTTD
 70
               2
  9
$DIMTXSTY
  7
STANDARD
  9
$DIMAUNIT
 70
               0
  9
$LUNITS
 70
               2
  9
$LUPREC
 70
               4
  9
$SKETCHINC
 40
0.1
  9
$FILLETRAD
 40
0.0
  9
$AUNITS
 70
               0
  9
$AUPREC
 70
               0
  9
$MENU
  1
acad
  9
$ELEVATION
 40
0.0
  9
$PELEVATION
 40
0.0
  9
$THICKNESS
 40
0.0
  9
$LIMCHECK
 70
               0
  9
$BLIPMODE
 70
               0
  9
$CHAMFERA
 40
0.0
  9
$CHAMFERB
 40
0.0
  9
$CHAMFERC
 40
0.0
  9
$CHAMFERD
 40
0.0
  9
$SKPOLY
 70
               0
  9
$TDCREATE
 40
2459227.580601852
  9
$TDUPDATE
 40
2459227.580601852
  9
$TDINDWG
 40
0.0000000000
  9
$TDUSRTIMER
 40
0.0000000000
  9
$USRTIMER
 70
               1
  9
$ANGBASE
 50
0.0
  9
$ANGDIR
 70
               0
  9
$PDMODE
 70
               1
  9
$PDSIZE
 40
-2.0
  9
$PLINEWID
 40
0.0
  9
$COORDS
 70
               0
  9
$SPLFRAME
 70
               0
  9
$SPLINETYPE
 70
               6
  9
$SPLINESEGS
 70
               8
  9
$ATTDIA
 70
               0
  9
$ATTREQ
 70
               1
  9
$HANDLING
 70
               1
  9
$HANDSEED
  5
2EC
  9
$SURFTAB1
 70
               6
  9
$SURFTAB2
 70
               6
  9
$SURFTYPE
 70
               6
  9
$SURFU
 70
               6
  9
$SURFV
 70
               6
  9
$UCSNAME
  2

  9
$UCSORG
 10
0.0
 20
0.0
 30
0.0
  9
$UCSXDIR
 10
1.0
 20
0.0
 30
0.0
  9
$UCSYDIR
 10
0.0
 20
1.0
 30
0.0
  9
$PUCSNAME
  2

  9
$PUCSORG
 10
0.0
 20
0.0
 30
0.0
  9
$PUCSXDIR
 10
1.0
 20
0.0
 30
0.0
  9
$PUCSYDIR
 10
0.0
 20
1.0
 30
0.0
  9
$USERI1
 70
               0
  9
$USERI2
 70
               0
  9
$USERI3
 70
               0
  9
$USERI4
 70
               0
  9
$USERI5
 70
               0
  9
$USERR1
 40
0.0
  9
$USERR2
 40
0.0
  9
$USERR3
 40
0.0
  9
$USERR4
 40
0.0
  9
$USERR5
 40
0.0
  9
$WORLDVIEW
 70
               1
  9
$SHADEDGE
 70
               3
  9
$SHADEDIF
 70
              70
  9
$TILEMODE
 70
               1
  9
$MAXACTVP
 70
              64
  9
$PINSBASE
 10
0.0
 20
0.0
 30
0.0
  9
$PLIMCHECK
 70
               0
  9
$PEXTMIN
 10
1.0000000000000000E+20
 20
1.0000000000000000E+20
 30
1.0000000000000000E+20
  9
$PEXTMAX
 10
-1.0000000000000000E+20
 20
-1.0000000000000000E+20
 30
-1.0000000000000000E+20
  9
$PLIMMIN
 10
0.0
 20
0.0
  9
$PLIMMAX
 10
12.0
 20
9.0
  9
$UNITMODE
 70
               0
  9
$VISRETAIN
 70
               0
  9
$PLINEGEN
 70
               1
  9
$PSLTSCALE
 70
               0
  9
$TREEDEPTH
 70
            3020
  9
$PICKSTYLE
 70
               1
  9
$CMLSTYLE
  2
STANDARD
  9
$CMLJUST
 70
               0
  9
$CMLSCALE
 40
1.0
  9
$SAVEIMAGES
 70
               0
  0
ENDSEC
  0
SECTION
  2
CLASSES
  0
CLASS
  1
LWPOLYLINE
  2
AcDbPolyline
  3
"AutoCAD"
 90
    32768
280
               0
281
               1
  0
CLASS
  1
IMAGE
  2
AcDbRasterImage
  3
ISM
 90
    32895
280
               0
281
               1
  0
CLASS
  1
OLE2FRAME
  2
AcDbOle2Frame
  3
""
 90
    32768
280
               0
281
               1
  0
CLASS
  1
HATCH
  2
AcDbHatch
  3
"ACAD_SEDONA"
 90
    32768
280
               0
281
               1
  0
CLASS
  1
DICTIONARYVAR
  2
AcDbDictionaryVar
  3
"AutoCAD"
 90
    32768
280
               0
281
               0
  0
CLASS
  1
RASTERVARIABLES
  2
AcDbRasterVariables
  3
ISM
 90
    32768
280
               0
281
               0
  0
CLASS
  1
IMAGEDEF
  2
AcDbRasterImageDef
  3
ISM
 90
    32768
280
               0
281
               0
  0
CLASS
  1
IMAGEDEF_REACTOR
  2
AcDbRasterImageDefReactor
  3
ISM
 90
    32769
280
               0
281
               0
  0
CLASS
  1
IDBUFFER
  2
AcDbIdBuffer
  3
"Acad"
 90
    32768
280
               0
281
               0
  0
CLASS
  1
SPATIAL_FILTER
  2
AcDbSpatialFilter
  3
"Acad"
 90
    32768
280
               0
281
               0
  0
CLASS
  1
XRECORD
  2
AcDbXrecord
  3
"<Built In>"
 90
    32768
280
               0
281
               0
  0
CLASS
  1
SORTENTSTABLE
  2
AcDbSortentsTable
  3
"AutoCAD"
 90
    32768
280
               0
281
               0
  0
CLASS
  1
LAYER_INDEX
  2
AcDbLayerIndex
  3
"Acad"
 90
    32768
280
               0
281
               0
  0
CLASS
  1
SPATIAL_INDEX
  2
AcDbSpatialIndex
  3
"Acad"
 90
    32768
280
               0
281
               0
  0
CLASS
  1
OBJECT_PTR
  2
CAseDLPNTableRecord
  3
"ASE-LPNTableRecord"
 90
    32769
280
               0
281
               0
  0
CLASS
  1
LAYOUT
  2
AcDbLayout
  3
"AutoCAD 2000"
 90
    32768
280
               0
281
               0
  0
CLASS
  1
PLOTSETTINGS
  2
AcDbPlotSettings
  3
"AutoCAD 2000"
 90
    32768
280
               0
281
               0
  0
CLASS
  1
ACDBDICTIONARYWDFLT
  2
AcDbDictionaryWithDefault
  3
"AutoCAD 2000"
 90
    32768
280
               0
281
               0
  0
CLASS
  1
ACDBPLACEHOLDER
  2
AcDbPlaceHolder
  3
"AutoCAD 2000"
 90
    32768
280
               0
281
               0
  0
ENDSEC
  0
SECTION
  2
TABLES
  0
TABLE
  2
VPORT
  5
7
100
AcDbSymbolTable
 70
               1
  0
VPORT
  5
15
100
AcDbSymbolTableRecord
100
AcDbViewportTableRecord
  2
*ACTIVE
 70
               0
 10
0.0
 20
0.0
 11
1.0
 21
1.0
 12
-148.99988505036026
 22
-61.000063291556671
 13
0.0
 23
0.0
 14
1.0
 24
1.0
 15
0.0
 25
0.0
 16
0.0
 26
0.0
 36
1.0
 17
0.0
 27
0.0
 37
0.0
 40
5500.0
 41
0.688564
 42
50.0
 43
0.0
 44
0.0
 50
0.0
 51
0.0
 71
               0
 72
            2000
 73
               1
 74
               1
 75
               0
 76
               0
 77
               0
 78
               0
  0
ENDTAB
  0
TABLE
  2
LTYPE
  5
4
100
AcDbSymbolTable
 70
              13
  0
LTYPE
  5
11
100
AcDbSymbolTableRecord
100
AcDbLinetypeTableRecord
  2
BYBLOCK
 70
              64
  3

 72
              65
 73
               0
 40
0.0
  0
LTYPE
  5
12
100
AcDbSymbolTableRecord
100
AcDbLinetypeTableRecord
  2
BYLAYER
 70
              64
  3

 72
              65
 73
               0
 40
0.0
  0
LTYPE
  5
13
100
AcDbSymbolTableRecord
100
AcDbLinetypeTableRecord
  2
CONTINUOUS
 70
              64
  3
Solid line
 72
              65
 73
               0
 40
0.0
  0
LTYPE
  5
1E
100
AcDbSymbolTableRecord
100
AcDbLinetypeTableRecord
  2
STYLE_01
 70
               0
  3

 72
              65
 73
               2
 40
0.694427490234375
 49
0.4860687255859375
 74
               0
 49
-0.2083587646484375
 74
               0
  0
LTYPE
  5
1F
100
AcDbSymbolTableRecord
100
AcDbLinetypeTableRecord
  2
STYLE_02
 70
               0
  3

 72
              65
 73
               2
 40
0.208282470703125
 49
0.069427490234375
 74
               0
 49
-0.13885498046875
 74
               0
  0
LTYPE
  5
20
100
AcDbSymbolTableRecord
100
AcDbLinetypeTableRecord
  2
STYLE_03
 70
               0
  3

 72
              65
 73
               2
 40
0.1476287841796875
 49
0.098419189453125
 74
               0
 49
-0.0492095947265625
 74
               0
  0
LTYPE
  5
21
100
AcDbSymbolTableRecord
100
AcDbLinetypeTableRecord
  2
STYLE_04
 70
               0
  3

 72
              65
 73
               2
 40
0.1532745361328125
 49
0.1021575927734375
 74
               0
 49
-0.051116943359375
 74
               0
  0
LTYPE
  5
22
100
AcDbSymbolTableRecord
100
AcDbLinetypeTableRecord
  2
STYLE_05
 70
               0
  3

 72
              65
 73
               2
 40
0.208282470703125
 49
0.069427490234375
 74
               0
 49
-0.13885498046875
 74
               0
  0
LTYPE
  5
23
100
AcDbSymbolTableRecord
100
AcDbLinetypeTableRecord
  2
STYLE_06
 70
               0
  3

 72
              65
 73
               4
 40
1.0416412353515625
 49
0.625
 74
               0
 49
-0.208282470703125
 74
               0
 49
0.069427490234375
 74
               0
 49
-0.1389312744140625
 74
               0
  0
LTYPE
  5
24
100
AcDbSymbolTableRecord
100
AcDbLinetypeTableRecord
  2
STYLE_07
 70
               0
  3

 72
              65
 73
               6
 40
1.875
 49
0.625
 74
               0
 49
-0.208282470703125
 74
               0
 49
0.625
 74
               0
 49
-0.2083587646484375
 74
               0
 49
0.069427490234375
 74
               0
 49
-0.1389312744140625
 74
               0
  0
LTYPE
  5
25
100
AcDbSymbolTableRecord
100
AcDbLinetypeTableRecord
  2
STYLE_08
 70
               0
  3

 72
              65
 73
               6
 40
1.25
 49
0.625
 74
               0
 49
-0.208282470703125
 74
               0
 49
0.069427490234375
 74
               0
 49
-0.1389312744140625
 74
               0
 49
0.069427490234375
 74
               0
 49
-0.1389312744140625
 74
               0
  0
LTYPE
  5
26
100
AcDbSymbolTableRecord
100
AcDbLinetypeTableRecord
  2
STYLE_09
 70
               0
  3

 72
              65
 73
               4
 40
5.0
 49
3.75
 74
               0
 49
-0.2777862548828125
 74
               0
 49
0.694427490234375
 74
               0
 49
-0.2777862548828125
 74
               0
  0
LTYPE
  5
27
100
AcDbSymbolTableRecord
100
AcDbLinetypeTableRecord
  2
STYLE_10
 70
               0
  3

 72
              65
 73
               6
 40
5.9375
 49
3.75
 74
               0
 49
-0.2777862548828125
 74
               0
 49
0.694427490234375
 74
               0
 49
-0.2777862548828125
 74
               0
 49
0.625
 74
               0
 49
-0.3125
 74
               0
  0
ENDTAB
  0
TABLE
  2
LAYER
  5
2
100
AcDbSymbolTable
 70
               2
  0
LAYER
  5
14
100
AcDbSymbolTableRecord
100
AcDbLayerTableRecord
  2
0
 70
               0
 62
               7
  6
CONTINUOUS
  0
LAYER
  5
28
100
AcDbSymbolTableRecord
100
AcDbLayerTableRecord
  2
IMPORTED
 70
               0
 62
               7
  6
CONTINUOUS
  0
ENDTAB
  0
TABLE
  2
STYLE
  5
3
100
AcDbSymbolTable
 70
               2
  0
STYLE
  5
17
100
AcDbSymbolTableRecord
100
AcDbTextStyleTableRecord
  2
STANDARD
 70
               0
 40
0.0
 41
1.0
 50
0.0
 71
               0
 42
0.0
  3
txt
  4
BIGFONT.SHX
  0
STYLE
  5
1D
100
AcDbSymbolTableRecord
100
AcDbTextStyleTableRecord
  2
_______
 70
               0
 40
0.0
 41
1.0
 50
0.0
 71
               0
 42
0.0
  3

  4
ＭＳ ゴシック
1001
ACAD
1000
ＭＳ ゴシック
1071
        0
  0
ENDTAB
  0
TABLE
  2
VIEW
  5
5
100
AcDbSymbolTable
 70
               0
  0
ENDTAB
  0
TABLE
  2
UCS
  5
6
100
AcDbSymbolTable
 70
               0
  0
ENDTAB
  0
TABLE
  2
APPID
  5
8
100
AcDbSymbolTable
 70
               1
  0
APPID
  5
16
100
AcDbSymbolTableRecord
100
AcDbRegAppTableRecord
  2
ACAD
 70
               0
  0
ENDTAB
  0
TABLE
  2
DIMSTYLE
  5
9
100
AcDbSymbolTable
 70
               1
  0
DIMSTYLE
105
18
100
AcDbSymbolTableRecord
100
AcDbDimStyleTableRecord
  2
STANDARD
 70
               0
  3

  4

  5

  6

  7

 40
1.0
 41
0.18
 42
0.0625
 43
0.38
 44
0.18
 45
0.0
 46
0.0
 47
0.0
 48
0.0
 71
               0
 72
               0
 73
               1
 74
               1
 75
               0
 76
               0
 77
               0
 78
               0
140
0.18
141
0.09
142
0.0
143
25.399999999999999
144
1.0
145
0.0
146
1.0
147
0.09
170
               0
171
               2
172
               0
173
               0
174
               0
175
               0
176
               0
177
               0
178
               0
270
               2
271
               4
272
               4
273
               2
274
               2
275
               0
280
               0
281
               0
282
               0
283
               1
284
               0
285
               0
286
               0
287
               3
288
               0
340
17
  0
ENDTAB
  0
TABLE
  2
BLOCK_RECORD
  5
1
100
AcDbSymbolTable
 70
               0
  0
BLOCK_RECORD
  5
A
100
AcDbSymbolTableRecord
100
AcDbBlockTableRecord
  2
*MODEL_SPACE
  0
BLOCK_RECORD
  5
B
100
AcDbSymbolTableRecord
100
AcDbBlockTableRecord
  2
*PAPER_SPACE
  0
ENDTAB
  0
ENDSEC
  0
SECTION
  2
BLOCKS
  0
BLOCK
  5
D
100
AcDbEntity
  8
0
100
AcDbBlockBegin
  2
*MODEL_SPACE
 70
               0
 10
0.0
 20
0.0
 30
0.0
  3
*MODEL_SPACE
  1

  0
ENDBLK
  5
E
100
AcDbEntity
  8
0
100
AcDbBlockEnd
  0
BLOCK
  5
F
100
AcDbEntity
 67
               1
  8
0
100
AcDbBlockBegin
  2
*PAPER_SPACE
 70
               0
 10
0.0
 20
0.0
 30
0.0
  3
*PAPER_SPACE
  1

  0
ENDBLK
  5
10
100
AcDbEntity
 67
               1
  8
0
100
AcDbBlockEnd
  0
ENDSEC
  0
SECTION
  2
ENTITIES
  0
MTEXT
  5
29
100
AcDbEntity
  8
IMPORTED
 62
               1
100
AcDbMText
 10
-1726.7129850503602
 20
-11.257204025931557
 30
0.0
 40
32.576797265624997
 41
0.0
 71
               1
 72
               1
  1
均しコンクリート
  7
_______
  0
MTEXT
  5
2A
100
AcDbEntity
  8
IMPORTED
 62
               1
100
AcDbMText
 10
-1726.7129850503602
 20
-102.58297599947444
 30
0.0
 40
32.576797265624997
 41
0.0
 71
               1
 72
               1
  1
再生クラッシャラン
  7
_______
  0
MTEXT
  5
2B
100
AcDbEntity
  8
IMPORTED
 62
               1
100
AcDbMText
 10
-1832.8311808271169
 20
1524.2018138030919
 30
0.0
 40
32.576822916666664
 41
0.0
 71
               1
 72
               1
  1
柱 ESW85×85CH
  7
_______
  0
LINE
  5
2C
100
AcDbEntity
  8
IMPORTED
  6
CONTINUOUS
 62
               1
100
AcDbLine
 10
-1997.4998850503603
 20
1291.9999367084433
 30
0.0
 11
-1854.9998850503603
 21
1474.9998367084434
 31
0.0
  0
LINE
  5
2D
100
AcDbEntity
  8
IMPORTED
  6
CONTINUOUS
 62
               1
100
AcDbLine
 10
-1854.9998850503603
 20
1474.9998367084434
 30
0.0
 11
-1535.0
 21
1474.9998367084434
 31
0.0
  0
MTEXT
  5
2E
100
AcDbEntity
  8
IMPORTED
 62
               1
100
AcDbMText
 10
-1482.4716829387387
 20
681.86835639639253
 30
0.0
 40
32.576797265624997
 41
0.0
 71
               1
 72
               1
  1
ロープ（別途）
  7
_______
  0
LINE
  5
2F
100
AcDbEntity
  8
IMPORTED
  6
CONTINUOUS
 62
               1
100
AcDbLine
 10
-1559.9997850503603
 20
860.75663670844347
 30
0.0
 11
-1502.8943850503604
 21
631.58033670844338
 31
0.0
  0
LINE
  5
30
100
AcDbEntity
  8
IMPORTED
  6
CONTINUOUS
 62
               1
100
AcDbLine
 10
-1502.8943850503604
 20
631.58033670844338
 30
0.0
 11
-1196.0
 21
631.58033670844338
 31
0.0
  0
MTEXT
  5
31
100
AcDbEntity
  8
IMPORTED
 62
               1
100
AcDbMText
 10
-1762.1815850503604
 20
300.07472400052558
 30
0.0
 40
32.576797265624997
 41
0.0
 71
               1
 72
               1
  1
樹脂発泡シート巻
  7
_______
  0
LINE
  5
32
100
AcDbEntity
  8
IMPORTED
  6
CONTINUOUS
 62
               1
100
AcDbLine
 10
-1420.0
 20
248.97923670844341
 30
0.0
 11
-1773.0000850503602
 21
248.97923670844341
 31
0.0
  0
LINE
  5
33
100
AcDbEntity
  8
IMPORTED
  6
CONTINUOUS
 62
               1
100
AcDbLine
 10
-1773.0000850503602
 20
248.97923670844341
 30
0.0
 11
-1989.9998850503603
 21
374.99983670844341
 31
0.0
  0
LINE
  5
34
100
AcDbEntity
  8
IMPORTED
  6
CONTINUOUS
 62
               1
100
AcDbLine
 10
-1410.0
 20
152.99993670844341
 30
0.0
 11
-1778.0000850503602
 21
152.99993670844341
 31
0.0
  0
LINE
  5
35
100
AcDbEntity
  8
IMPORTED
  6
CONTINUOUS
 62
               1
100
AcDbLine
 10
-1376.0
 20
-62.000063291556557
 30
0.0
 11
-1738.0000850503602
 21
-62.000063291556557
 31
0.0
  0
LINE
  5
36
100
AcDbEntity
  8
IMPORTED
  6
CONTINUOUS
 62
               1
100
AcDbLine
 10
-1738.0000850503602
 20
-62.000063291556557
 30
0.0
 11
-1864.9998850503603
 21
61.999836708443439
 31
0.0
  0
LINE
  5
37
100
AcDbEntity
  8
IMPORTED
  6
CONTINUOUS
 62
               1
100
AcDbLine
 10
-1340.0
 20
-152.00006329155656
 30
0.0
 11
-1738.0000850503602
 21
-152.00006329155656
 31
0.0
  0
LINE
  5
38
100
AcDbEntity
  8
IMPORTED
  6
CONTINUOUS
 62
               1
100
AcDbLine
 10
-1738.0000850503602
 20
-152.00006329155656
 30
0.0
 11
-1864.9998850503603
 21
-25.000263291556564
 31
0.0
  0
LINE
  5
39
100
AcDbEntity
  8
IMPORTED
  6
CONTINUOUS
 62
               1
100
AcDbLine
 10
-1778.0000850503602
 20
152.99993670844341
 30
0.0
 11
-1920.4516850503603
 21
235.2444367084434
 31
0.0
  0
LINE
  5
3A
100
AcDbEntity
  8
IMPORTED
  6
CONTINUOUS
 62
               1
100
AcDbLine
 10
-442.49988527387779
 20
-1417.4999632915565
 30
0.0
 11
-108.00000014901158
 21
-1417.4999632915565
 31
0.0
  0
LINE
  5
3B
100
AcDbEntity
  8
IMPORTED
  6
CONTINUOUS
 62
               1
100
AcDbLine
 10
-442.49988527387779
 20
-1502.4999632915565
 30
0.0
 11
-108.00000014901158
 21
-1502.4999632915565
 31
0.0
  0
LINE
  5
3C
100
AcDbEntity
  8
IMPORTED
  6
CONTINUOUS
 62
               1
100
AcDbLine
 10
-147.99999999999997
 20
-1377.4999634405681
 30
0.0
 11
-147.99999999999997
 21
-1417.4999632915565
 31
0.0
  0
LINE
  5
3D
100
AcDbEntity
  8
IMPORTED
  6
CONTINUOUS
 62
               1
100
AcDbLine
 10
-147.99999999999997
 20
-1502.4999632915565
 30
0.0
 11
-147.99999999999997
 21
-1542.4999631425449
 31
0.0
  0
LINE
  5
3E
100
AcDbEntity
  8
IMPORTED
  6
CONTINUOUS
 62
               1
100
AcDbLine
 10
-147.99999999999997
 20
-1417.4999632915565
 30
0.0
 11
-147.99999999999997
 21
-1502.4999632915565
 31
0.0
  0
SOLID
  5
3F
100
AcDbEntity
  8
IMPORTED
 62
               1
100
AcDbTrace
 10
-147.99999999999997
 20
-1417.4999632915565
 30
0.0
 11
-144.50066705433295
 21
-1457.4975218853065
 31
0.0
 12
-151.49933294566699
 22
-1457.4975218853065
 32
0.0
 13
-151.49933294566699
 23
-1457.4975218853065
 33
0.0
  0
SOLID
  5
40
100
AcDbEntity
  8
IMPORTED
 62
               1
100
AcDbTrace
 10
-147.99999999999997
 20
-1502.4999632915565
 30
0.0
 11
-151.49933294566699
 21
-1462.5024046978065
 31
0.0
 12
-144.50066705433295
 22
-1462.5024046978065
 32
0.0
 13
-144.50066705433295
 23
-1462.5024046978065
 33
0.0
  0
MTEXT
  5
41
100
AcDbEntity
  8
IMPORTED
 62
               1
100
AcDbMText
 10
-206.5034895088275
 20
-1481.1666299582232
 30
0.0
 40
32.576822916666664
 41
0.0
 71
               1
 72
               1
  1
85
  7
_______
 11
0.0
 21
1.0
 31
0.0
  0
LINE
  5
42
100
AcDbEntity
  8
IMPORTED
  6
CONTINUOUS
 62
               1
100
AcDbLine
 10
-582.49988505036038
 20
-1557.4999630680391
 30
0.0
 11
-582.49988505036038
 21
-1851.9999998509884
 31
0.0
  0
LINE
  5
43
100
AcDbEntity
  8
IMPORTED
  6
CONTINUOUS
 62
               1
100
AcDbLine
 10
-497.49988505036038
 20
-1557.4999630680391
 30
0.0
 11
-497.49988505036038
 21
-1851.9999998509884
 31
0.0
  0
LINE
  5
44
100
AcDbEntity
  8
IMPORTED
  6
CONTINUOUS
 62
               1
100
AcDbLine
 10
-622.49988490134876
 20
-1812.0
 30
0.0
 11
-582.49988505036038
 21
-1812.0
 31
0.0
  0
LINE
  5
45
100
AcDbEntity
  8
IMPORTED
  6
CONTINUOUS
 62
               1
100
AcDbLine
 10
-497.49988505036038
 20
-1812.0
 30
0.0
 11
-457.49988519937199
 21
-1812.0
 31
0.0
  0
LINE
  5
46
100
AcDbEntity
  8
IMPORTED
  6
CONTINUOUS
 62
               1
100
AcDbLine
 10
-582.49988505036038
 20
-1812.0
 30
0.0
 11
-497.49988505036038
 21
-1812.0
 31
0.0
  0
SOLID
  5
47
100
AcDbEntity
  8
IMPORTED
 62
               1
100
AcDbTrace
 10
-582.49988505036038
 20
-1812.0
 30
0.0
 11
-542.50232645661038
 21
-1808.500667054333
 31
0.0
 12
-542.50232645661038
 22
-1815.499332945667
 32
0.0
 13
-542.50232645661038
 23
-1815.499332945667
 33
0.0
  0
SOLID
  5
48
100
AcDbEntity
  8
IMPORTED
 62
               1
100
AcDbTrace
 10
-497.49988505036038
 20
-1812.0
 30
0.0
 11
-537.49744364411038
 21
-1815.499332945667
 31
0.0
 12
-537.49744364411038
 22
-1808.500667054333
 32
0.0
 13
-537.49744364411038
 23
-1808.500667054333
 33
0.0
  0
MTEXT
  5
49
100
AcDbEntity
  8
IMPORTED
 62
               1
100
AcDbMText
 10
-561.166551717027
 20
-1753.4965104911726
 30
0.0
 40
32.576822916666664
 41
0.0
 71
               1
 72
               1
  1
85
  7
_______
  0
LINE
  5
4A
100
AcDbEntity
  8
IMPORTED
  6
CONTINUOUS
 62
               1
100
AcDbLine
 10
-2039.9998850503603
 20
-1357.4999635150739
 30
0.0
 11
-2039.9998850503603
 21
-1084.9999634405681
 31
0.0
  0
LINE
  5
4B
100
AcDbEntity
  8
IMPORTED
  6
CONTINUOUS
 62
               1
100
AcDbLine
 10
-539.99988505036038
 20
-1357.4999635150739
 30
0.0
 11
-539.99988505036038
 21
-1084.9999634405681
 31
0.0
  0
LINE
  5
4C
100
AcDbEntity
  8
IMPORTED
  6
CONTINUOUS
 62
               1
100
AcDbLine
 10
-2079.9998849013487
 20
-1124.9999632915565
 30
0.0
 11
-2039.9998850503603
 21
-1124.9999632915565
 31
0.0
  0
LINE
  5
4D
100
AcDbEntity
  8
IMPORTED
  6
CONTINUOUS
 62
               1
100
AcDbLine
 10
-539.99988505036038
 20
-1124.9999632915565
 30
0.0
 11
-499.99988519937199
 21
-1124.9999632915565
 31
0.0
  0
LINE
  5
4E
100
AcDbEntity
  8
IMPORTED
  6
CONTINUOUS
 62
               1
100
AcDbLine
 10
-2039.9998850503603
 20
-1124.9999632915565
 30
0.0
 11
-539.99988505036038
 21
-1124.9999632915565
 31
0.0
  0
SOLID
  5
4F
100
AcDbEntity
  8
IMPORTED
 62
               1
100
AcDbTrace
 10
-2039.9998850503603
 20
-1124.9999632915565
 30
0.0
 11
-2000.0023264566103
 21
-1121.5006303458895
 31
0.0
 12
-2000.0023264566103
 22
-1128.4992962372235
 32
0.0
 13
-2000.0023264566103
 23
-1128.4992962372235
 33
0.0
  0
SOLID
  5
50
100
AcDbEntity
  8
IMPORTED
 62
               1
100
AcDbTrace
 10
-539.99988505036038
 20
-1124.9999632915565
 30
0.0
 11
-579.99744364411038
 21
-1128.4992962372235
 31
0.0
 12
-579.99744364411038
 22
-1121.5006303458895
 32
0.0
 13
-579.99744364411038
 23
-1121.5006303458895
 33
0.0
  0
MTEXT
  5
51
100
AcDbEntity
  8
IMPORTED
 62
               1
100
AcDbMText
 10
-1332.3332183836935
 20
-1066.496473782729
 30
0.0
 40
32.576822916666664
 41
0.0
 71
               1
 72
               1
  1
1500
  7
_______
  0
LINE
  5
52
100
AcDbEntity
  8
IMPORTED
  6
CONTINUOUS
 62
               1
100
AcDbLine
 10
1547.4999149496393
 20
1441.3476364849259
 30
0.0
 11
1547.4999149496393
 21
1639.9999998509884
 31
0.0
  0
LINE
  5
53
100
AcDbEntity
  8
IMPORTED
  6
CONTINUOUS
 62
               1
100
AcDbLine
 10
1632.4999149496393
 20
1441.3476364849259
 30
0.0
 11
1632.4999149496393
 21
1639.9999998509884
 31
0.0
  0
LINE
  5
54
100
AcDbEntity
  8
IMPORTED
  6
CONTINUOUS
 62
               1
100
AcDbLine
 10
1507.4999150986509
 20
1600.0
 30
0.0
 11
1547.4999149496393
 21
1600.0
 31
0.0
  0
LINE
  5
55
100
AcDbEntity
  8
IMPORTED
  6
CONTINUOUS
 62
               1
100
AcDbLine
 10
1632.4999149496393
 20
1600.0
 30
0.0
 11
1672.4999148006277
 21
1600.0
 31
0.0
  0
LINE
  5
56
100
AcDbEntity
  8
IMPORTED
  6
CONTINUOUS
 62
               1
100
AcDbLine
 10
1547.4999149496393
 20
1600.0
 30
0.0
 11
1632.4999149496393
 21
1600.0
 31
0.0
  0
SOLID
  5
57
100
AcDbEntity
  8
IMPORTED
 62
               1
100
AcDbTrace
 10
1547.4999149496393
 20
1600.0
 30
0.0
 11
1587.4974735433893
 21
1603.499332945667
 31
0.0
 12
1587.4974735433893
 22
1596.500667054333
 32
0.0
 13
1587.4974735433893
 23
1596.500667054333
 33
0.0
  0
SOLID
  5
58
100
AcDbEntity
  8
IMPORTED
 62
               1
100
AcDbTrace
 10
1632.4999149496393
 20
1600.0
 30
0.0
 11
1592.5023563558893
 21
1596.500667054333
 31
0.0
 12
1592.5023563558893
 22
1603.499332945667
 32
0.0
 13
1592.5023563558893
 23
1603.499332945667
 33
0.0
  0
MTEXT
  5
59
100
AcDbEntity
  8
IMPORTED
 62
               1
100
AcDbMText
 10
1568.8332482829726
 20
1658.5034895088274
 30
0.0
 40
32.576822916666664
 41
0.0
 71
               1
 72
               1
  1
85
  7
_______
  0
LINE
  5
5A
100
AcDbEntity
  8
IMPORTED
  6
CONTINUOUS
 62
               1
100
AcDbLine
 10
1364.9999149496393
 20
-123.00006306803914
 30
0.0
 11
1364.9999149496393
 21
-258.99996314254497
 31
0.0
  0
LINE
  5
5B
100
AcDbEntity
  8
IMPORTED
  6
CONTINUOUS
 62
               1
100
AcDbLine
 10
1414.9999149496393
 20
26.999836931960857
 30
0.0
 11
1414.9999149496393
 21
-258.99996314254497
 31
0.0
  0
LINE
  5
5C
100
AcDbEntity
  8
IMPORTED
  6
CONTINUOUS
 62
               1
100
AcDbLine
 10
1324.9999150986509
 20
-218.99996329155655
 30
0.0
 11
1364.9999149496393
 21
-218.99996329155655
 31
0.0
  0
LINE
  5
5D
100
AcDbEntity
  8
IMPORTED
  6
CONTINUOUS
 62
               1
100
AcDbLine
 10
1414.9999149496393
 20
-218.99996329155655
 30
0.0
 11
1454.9999148006277
 21
-218.99996329155655
 31
0.0
  0
LINE
  5
5E
100
AcDbEntity
  8
IMPORTED
  6
CONTINUOUS
 62
               1
100
AcDbLine
 10
1364.9999149496393
 20
-218.99996329155655
 30
0.0
 11
1414.9999149496393
 21
-218.99996329155655
 31
0.0
  0
SOLID
  5
5F
100
AcDbEntity
  8
IMPORTED
 62
               1
100
AcDbTrace
 10
1364.9999149496393
 20
-218.99996329155655
 30
0.0
 11
1404.9974735433893
 21
-215.50063034588953
 31
0.0
 12
1404.9974735433893
 22
-222.49929623722358
 32
0.0
 13
1404.9974735433893
 23
-222.49929623722358
 33
0.0
  0
SOLID
  5
60
100
AcDbEntity
  8
IMPORTED
 62
               1
100
AcDbTrace
 10
1414.9999149496393
 20
-218.99996329155655
 30
0.0
 11
1375.0023563558893
 21
-222.49929623722358
 31
0.0
 12
1375.0023563558893
 22
-215.50063034588953
 32
0.0
 13
1375.0023563558893
 23
-215.50063034588953
 33
0.0
  0
MTEXT
  5
61
100
AcDbEntity
  8
IMPORTED
 62
               1
100
AcDbMText
 10
1368.8332482829726
 20
-160.49647378272903
 30
0.0
 40
32.576822916666664
 41
0.0
 71
               1
 72
               1
  1
50
  7
_______
  0
LINE
  5
62
100
AcDbEntity
  8
IMPORTED
  6
CONTINUOUS
 62
               1
100
AcDbLine
 10
1414.9999149496393
 20
26.999836931960857
 30
0.0
 11
1414.9999149496393
 21
-258.99996314254497
 31
0.0
  0
LINE
  5
63
100
AcDbEntity
  8
IMPORTED
  6
CONTINUOUS
 62
               1
100
AcDbLine
 10
1764.9999149496393
 20
26.999836931960857
 30
0.0
 11
1764.9999149496393
 21
-258.99996314254497
 31
0.0
  0
LINE
  5
64
100
AcDbEntity
  8
IMPORTED
  6
CONTINUOUS
 62
               1
100
AcDbLine
 10
1374.9999150986509
 20
-218.99996329155655
 30
0.0
 11
1414.9999149496393
 21
-218.99996329155655
 31
0.0
  0
LINE
  5
65
100
AcDbEntity
  8
IMPORTED
  6
CONTINUOUS
 62
               1
100
AcDbLine
 10
1764.9999149496393
 20
-218.99996329155655
 30
0.0
 11
1804.9999148006277
 21
-218.99996329155655
 31
0.0
  0
LINE
  5
66
100
AcDbEntity
  8
IMPORTED
  6
CONTINUOUS
 62
               1
100
AcDbLine
 10
1414.9999149496393
 20
-218.99996329155655
 30
0.0
 11
1764.9999149496393
 21
-218.99996329155655
 31
0.0
  0
SOLID
  5
67
100
AcDbEntity
  8
IMPORTED
 62
               1
100
AcDbTrace
 10
1414.9999149496393
 20
-218.99996329155655
 30
0.0
 11
1454.9974735433893
 21
-215.50063034588953
 31
0.0
 12
1454.9974735433893
 22
-222.49929623722358
 32
0.0
 13
1454.9974735433893
 23
-222.49929623722358
 33
0.0
  0
SOLID
  5
68
100
AcDbEntity
  8
IMPORTED
 62
               1
100
AcDbTrace
 10
1764.9999149496393
 20
-218.99996329155655
 30
0.0
 11
1725.0023563558893
 21
-222.49929623722358
 31
0.0
 12
1725.0023563558893
 22
-215.50063034588953
 32
0.0
 13
1725.0023563558893
 23
-215.50063034588953
 33
0.0
  0
MTEXT
  5
69
100
AcDbEntity
  8
IMPORTED
 62
               1
100
AcDbMText
 10
1558.2499149496393
 20
-160.49647378272903
 30
0.0
 40
32.576822916666664
 41
0.0
 71
               1
 72
               1
  1
350
  7
_______
  0
LINE
  5
6A
100
AcDbEntity
  8
IMPORTED
  6
CONTINUOUS
 62
               1
100
AcDbLine
 10
1764.9999149496393
 20
26.999836931960857
 30
0.0
 11
1764.9999149496393
 21
-258.99996314254497
 31
0.0
  0
LINE
  5
6B
100
AcDbEntity
  8
IMPORTED
  6
CONTINUOUS
 62
               1
100
AcDbLine
 10
1814.9999149496393
 20
-123.00006306803914
 30
0.0
 11
1814.9999149496393
 21
-258.99996314254497
 31
0.0
  0
LINE
  5
6C
100
AcDbEntity
  8
IMPORTED
  6
CONTINUOUS
 62
               1
100
AcDbLine
 10
1724.9999150986509
 20
-218.99996329155655
 30
0.0
 11
1764.9999149496393
 21
-218.99996329155655
 31
0.0
  0
LINE
  5
6D
100
AcDbEntity
  8
IMPORTED
  6
CONTINUOUS
 62
               1
100
AcDbLine
 10
1814.9999149496393
 20
-218.99996329155655
 30
0.0
 11
1854.9999148006277
 21
-218.99996329155655
 31
0.0
  0
LINE
  5
6E
100
AcDbEntity
  8
IMPORTED
  6
CONTINUOUS
 62
               1
100
AcDbLine
 10
1764.9999149496393
 20
-218.99996329155655
 30
0.0
 11
1814.9999149496393
 21
-218.99996329155655
 31
0.0
  0
SOLID
  5
6F
100
AcDbEntity
  8
IMPORTED
 62
               1
100
AcDbTrace
 10
1764.9999149496393
 20
-218.99996329155655
 30
0.0
 11
1804.9974735433893
 21
-215.50063034588953
 31
0.0
 12
1804.9974735433893
 22
-222.49929623722358
 32
0.0
 13
1804.9974735433893
 23
-222.49929623722358
 33
0.0
  0
SOLID
  5
70
100
AcDbEntity
  8
IMPORTED
 62
               1
100
AcDbTrace
 10
1814.9999149496393
 20
-218.99996329155655
 30
0.0
 11
1775.0023563558893
 21
-222.49929623722358
 31
0.0
 12
1775.0023563558893
 22
-215.50063034588953
 32
0.0
 13
1775.0023563558893
 23
-215.50063034588953
 33
0.0
  0
MTEXT
  5
71
100
AcDbEntity
  8
IMPORTED
 62
               1
100
AcDbMText
 10
1768.8332482829726
 20
-160.49647378272903
 30
0.0
 40
32.576822916666664
 41
0.0
 71
               1
 72
               1
  1
50
  7
_______
  0
LINE
  5
72
100
AcDbEntity
  8
IMPORTED
  6
CONTINUOUS
 62
               1
100
AcDbLine
 10
1814.9999149496393
 20
-123.00006306803914
 30
0.0
 11
1814.9999149496393
 21
-369.99999985098839
 31
0.0
  0
LINE
  5
73
100
AcDbEntity
  8
IMPORTED
  6
CONTINUOUS
 62
               1
100
AcDbLine
 10
1364.9999149496393
 20
-123.00006306803914
 30
0.0
 11
1364.9999149496393
 21
-369.99999985098839
 31
0.0
  0
LINE
  5
74
100
AcDbEntity
  8
IMPORTED
  6
CONTINUOUS
 62
               1
100
AcDbLine
 10
1854.9999148006277
 20
-330.0
 30
0.0
 11
1814.9999149496393
 21
-330.0
 31
0.0
  0
LINE
  5
75
100
AcDbEntity
  8
IMPORTED
  6
CONTINUOUS
 62
               1
100
AcDbLine
 10
1364.9999149496393
 20
-330.0
 30
0.0
 11
1324.9999150986509
 21
-330.0
 31
0.0
  0
LINE
  5
76
100
AcDbEntity
  8
IMPORTED
  6
CONTINUOUS
 62
               1
100
AcDbLine
 10
1814.9999149496393
 20
-330.0
 30
0.0
 11
1364.9999149496393
 21
-330.0
 31
0.0
  0
SOLID
  5
77
100
AcDbEntity
  8
IMPORTED
 62
               1
100
AcDbTrace
 10
1814.9999149496393
 20
-330.0
 30
0.0
 11
1775.0023563558893
 21
-333.49933294566705
 31
0.0
 12
1775.0023563558893
 22
-326.50066705433301
 32
0.0
 13
1775.0023563558893
 23
-326.50066705433301
 33
0.0
  0
SOLID
  5
78
100
AcDbEntity
  8
IMPORTED
 62
               1
100
AcDbTrace
 10
1364.9999149496393
 20
-330.0
 30
0.0
 11
1404.9974735433893
 21
-326.50066705433301
 31
0.0
 12
1404.9974735433893
 22
-333.49933294566705
 32
0.0
 13
1404.9974735433893
 23
-333.49933294566705
 33
0.0
  0
MTEXT
  5
79
100
AcDbEntity
  8
IMPORTED
 62
               1
100
AcDbMText
 10
1558.2499149496393
 20
-271.4965104911725
 30
0.0
 40
32.576822916666664
 41
0.0
 71
               1
 72
               1
  1
450
  7
_______
  0
LINE
  5
7A
100
AcDbEntity
  8
IMPORTED
  6
CONTINUOUS
 62
               1
100
AcDbLine
 10
-764.99988505036026
 20
-123.00006306803914
 30
0.0
 11
-764.99988505036026
 21
-258.99996314254497
 31
0.0
  0
LINE
  5
7B
100
AcDbEntity
  8
IMPORTED
  6
CONTINUOUS
 62
               1
100
AcDbLine
 10
-714.99988505036026
 20
26.999836931960857
 30
0.0
 11
-714.99988505036026
 21
-258.99996314254497
 31
0.0
  0
LINE
  5
7C
100
AcDbEntity
  8
IMPORTED
  6
CONTINUOUS
 62
               1
100
AcDbLine
 10
-804.99988490134865
 20
-218.99996329155655
 30
0.0
 11
-764.99988505036026
 21
-218.99996329155655
 31
0.0
  0
LINE
  5
7D
100
AcDbEntity
  8
IMPORTED
  6
CONTINUOUS
 62
               1
100
AcDbLine
 10
-714.99988505036026
 20
-218.99996329155655
 30
0.0
 11
-674.99988519937187
 21
-218.99996329155655
 31
0.0
  0
LINE
  5
7E
100
AcDbEntity
  8
IMPORTED
  6
CONTINUOUS
 62
               1
100
AcDbLine
 10
-764.99988505036026
 20
-218.99996329155655
 30
0.0
 11
-714.99988505036026
 21
-218.99996329155655
 31
0.0
  0
SOLID
  5
7F
100
AcDbEntity
  8
IMPORTED
 62
               1
100
AcDbTrace
 10
-764.99988505036026
 20
-218.99996329155655
 30
0.0
 11
-725.00232645661026
 21
-215.50063034588953
 31
0.0
 12
-725.00232645661026
 22
-222.49929623722358
 32
0.0
 13
-725.00232645661026
 23
-222.49929623722358
 33
0.0
  0
SOLID
  5
80
100
AcDbEntity
  8
IMPORTED
 62
               1
100
AcDbTrace
 10
-714.99988505036026
 20
-218.99996329155655
 30
0.0
 11
-754.99744364411026
 21
-222.49929623722358
 31
0.0
 12
-754.99744364411026
 22
-215.50063034588953
 32
0.0
 13
-754.99744364411026
 23
-215.50063034588953
 33
0.0
  0
MTEXT
  5
81
100
AcDbEntity
  8
IMPORTED
 62
               1
100
AcDbMText
 10
-761.16655171702689
 20
-160.49647378272903
 30
0.0
 40
32.576822916666664
 41
0.0
 71
               1
 72
               1
  1
50
  7
_______
  0
LINE
  5
82
100
AcDbEntity
  8
IMPORTED
  6
CONTINUOUS
 62
               1
100
AcDbLine
 10
-714.99988505036026
 20
26.999836931960857
 30
0.0
 11
-714.99988505036026
 21
-258.99996314254497
 31
0.0
  0
LINE
  5
83
100
AcDbEntity
  8
IMPORTED
  6
CONTINUOUS
 62
               1
100
AcDbLine
 10
-364.99988505036038
 20
26.999836931960857
 30
0.0
 11
-364.99988505036038
 21
-258.99996314254497
 31
0.0
  0
LINE
  5
84
100
AcDbEntity
  8
IMPORTED
  6
CONTINUOUS
 62
               1
100
AcDbLine
 10
-754.99988490134865
 20
-218.99996329155655
 30
0.0
 11
-714.99988505036026
 21
-218.99996329155655
 31
0.0
  0
LINE
  5
85
100
AcDbEntity
  8
IMPORTED
  6
CONTINUOUS
 62
               1
100
AcDbLine
 10
-364.99988505036038
 20
-218.99996329155655
 30
0.0
 11
-324.99988519937199
 21
-218.99996329155655
 31
0.0
  0
LINE
  5
86
100
AcDbEntity
  8
IMPORTED
  6
CONTINUOUS
 62
               1
100
AcDbLine
 10
-714.99988505036026
 20
-218.99996329155655
 30
0.0
 11
-364.99988505036038
 21
-218.99996329155655
 31
0.0
  0
SOLID
  5
87
100
AcDbEntity
  8
IMPORTED
 62
               1
100
AcDbTrace
 10
-714.99988505036026
 20
-218.99996329155655
 30
0.0
 11
-675.00232645661026
 21
-215.50063034588953
 31
0.0
 12
-675.00232645661026
 22
-222.49929623722358
 32
0.0
 13
-675.00232645661026
 23
-222.49929623722358
 33
0.0
  0
SOLID
  5
88
100
AcDbEntity
  8
IMPORTED
 62
               1
100
AcDbTrace
 10
-364.99988505036038
 20
-218.99996329155655
 30
0.0
 11
-404.99744364411038
 21
-222.49929623722358
 31
0.0
 12
-404.99744364411038
 22
-215.50063034588953
 32
0.0
 13
-404.99744364411038
 23
-215.50063034588953
 33
0.0
  0
MTEXT
  5
89
100
AcDbEntity
  8
IMPORTED
 62
               1
100
AcDbMText
 10
-571.74988505036026
 20
-160.49647378272903
 30
0.0
 40
32.576822916666664
 41
0.0
 71
               1
 72
               1
  1
350
  7
_______
  0
LINE
  5
8A
100
AcDbEntity
  8
IMPORTED
  6
CONTINUOUS
 62
               1
100
AcDbLine
 10
-364.99988505036038
 20
26.999836931960857
 30
0.0
 11
-364.99988505036038
 21
-258.99996314254497
 31
0.0
  0
LINE
  5
8B
100
AcDbEntity
  8
IMPORTED
  6
CONTINUOUS
 62
               1
100
AcDbLine
 10
-314.99988505036038
 20
-123.00006306803914
 30
0.0
 11
-314.99988505036038
 21
-258.99996314254497
 31
0.0
  0
LINE
  5
8C
100
AcDbEntity
  8
IMPORTED
  6
CONTINUOUS
 62
               1
100
AcDbLine
 10
-404.99988490134876
 20
-218.99996329155655
 30
0.0
 11
-364.99988505036038
 21
-218.99996329155655
 31
0.0
  0
LINE
  5
8D
100
AcDbEntity
  8
IMPORTED
  6
CONTINUOUS
 62
               1
100
AcDbLine
 10
-314.99988505036038
 20
-218.99996329155655
 30
0.0
 11
-274.99988519937199
 21
-218.99996329155655
 31
0.0
  0
LINE
  5
8E
100
AcDbEntity
  8
IMPORTED
  6
CONTINUOUS
 62
               1
100
AcDbLine
 10
-364.99988505036038
 20
-218.99996329155655
 30
0.0
 11
-314.99988505036038
 21
-218.99996329155655
 31
0.0
  0
SOLID
  5
8F
100
AcDbEntity
  8
IMPORTED
 62
               1
100
AcDbTrace
 10
-364.99988505036038
 20
-218.99996329155655
 30
0.0
 11
-325.00232645661038
 21
-215.50063034588953
 31
0.0
 12
-325.00232645661038
 22
-222.49929623722358
 32
0.0
 13
-325.00232645661038
 23
-222.49929623722358
 33
0.0
  0
SOLID
  5
90
100
AcDbEntity
  8
IMPORTED
 62
               1
100
AcDbTrace
 10
-314.99988505036038
 20
-218.99996329155655
 30
0.0
 11
-354.99744364411038
 21
-222.49929623722358
 31
0.0
 12
-354.99744364411038
 22
-215.50063034588953
 32
0.0
 13
-354.99744364411038
 23
-215.50063034588953
 33
0.0
  0
MTEXT
  5
91
100
AcDbEntity
  8
IMPORTED
 62
               1
100
AcDbMText
 10
-361.166551717027
 20
-160.49647378272903
 30
0.0
 40
32.576822916666664
 41
0.0
 71
               1
 72
               1
  1
50
  7
_______
  0
LINE
  5
92
100
AcDbEntity
  8
IMPORTED
  6
CONTINUOUS
 62
               1
100
AcDbLine
 10
-314.99988505036038
 20
-123.00006306803914
 30
0.0
 11
-314.99988505036038
 21
-371.99999985098839
 31
0.0
  0
LINE
  5
93
100
AcDbEntity
  8
IMPORTED
  6
CONTINUOUS
 62
               1
100
AcDbLine
 10
-764.99988505036026
 20
-123.00006306803914
 30
0.0
 11
-764.99988505036026
 21
-371.99999985098839
 31
0.0
  0
LINE
  5
94
100
AcDbEntity
  8
IMPORTED
  6
CONTINUOUS
 62
               1
100
AcDbLine
 10
-274.99988519937199
 20
-332.0
 30
0.0
 11
-314.99988505036038
 21
-332.0
 31
0.0
  0
LINE
  5
95
100
AcDbEntity
  8
IMPORTED
  6
CONTINUOUS
 62
               1
100
AcDbLine
 10
-764.99988505036026
 20
-332.0
 30
0.0
 11
-804.99988490134865
 21
-332.0
 31
0.0
  0
LINE
  5
96
100
AcDbEntity
  8
IMPORTED
  6
CONTINUOUS
 62
               1
100
AcDbLine
 10
-314.99988505036038
 20
-332.0
 30
0.0
 11
-764.99988505036026
 21
-332.0
 31
0.0
  0
SOLID
  5
97
100
AcDbEntity
  8
IMPORTED
 62
               1
100
AcDbTrace
 10
-314.99988505036038
 20
-332.0
 30
0.0
 11
-354.99744364411038
 21
-335.49933294566705
 31
0.0
 12
-354.99744364411038
 22
-328.50066705433301
 32
0.0
 13
-354.99744364411038
 23
-328.50066705433301
 33
0.0
  0
SOLID
  5
98
100
AcDbEntity
  8
IMPORTED
 62
               1
100
AcDbTrace
 10
-764.99988505036026
 20
-332.0
 30
0.0
 11
-725.00232645661026
 21
-328.50066705433295
 31
0.0
 12
-725.00232645661026
 22
-335.49933294566705
 32
0.0
 13
-725.00232645661026
 23
-335.49933294566705
 33
0.0
  0
MTEXT
  5
99
100
AcDbEntity
  8
IMPORTED
 62
               1
100
AcDbMText
 10
-571.74988505036026
 20
-273.4965104911725
 30
0.0
 40
32.576822916666664
 41
0.0
 71
               1
 72
               1
  1
450
  7
_______
  0
LINE
  5
9A
100
AcDbEntity
  8
IMPORTED
  6
CONTINUOUS
 62
               1
100
AcDbLine
 10
-254.99988527387777
 20
-63.000063291556557
 30
0.0
 11
-70.000000149011612
 21
-63.000063291556557
 31
0.0
  0
LINE
  5
9B
100
AcDbEntity
  8
IMPORTED
  6
CONTINUOUS
 62
               1
100
AcDbLine
 10
-254.99988527387777
 20
36.999836708443425
 30
0.0
 11
-70.000000149011612
 21
36.999836708443425
 31
0.0
  0
LINE
  5
9C
100
AcDbEntity
  8
IMPORTED
  6
CONTINUOUS
 62
               1
100
AcDbLine
 10
-110.0
 20
-103.00006314254495
 30
0.0
 11
-110.0
 21
-63.000063291556557
 31
0.0
  0
LINE
  5
9D
100
AcDbEntity
  8
IMPORTED
  6
CONTINUOUS
 62
               1
100
AcDbLine
 10
-110.0
 20
36.999836708443425
 30
0.0
 11
-110.0
 21
76.999836559431799
 31
0.0
  0
LINE
  5
9E
100
AcDbEntity
  8
IMPORTED
  6
CONTINUOUS
 62
               1
100
AcDbLine
 10
-110.0
 20
-63.000063291556557
 30
0.0
 11
-110.0
 21
36.999836708443425
 31
0.0
  0
SOLID
  5
9F
100
AcDbEntity
  8
IMPORTED
 62
               1
100
AcDbTrace
 10
-110.0
 20
-63.000063291556557
 30
0.0
 11
-113.49933294566702
 21
-23.002504697806557
 31
0.0
 12
-106.50066705433298
 22
-23.002504697806557
 32
0.0
 13
-106.50066705433298
 23
-23.002504697806557
 33
0.0
  0
SOLID
  5
A0
100
AcDbEntity
  8
IMPORTED
 62
               1
100
AcDbTrace
 10
-110.0
 20
36.999836708443425
 30
0.0
 11
-106.50066705433298
 21
-2.997721885306575
 31
0.0
 12
-113.49933294566702
 22
-2.997721885306575
 32
0.0
 13
-113.49933294566702
 23
-2.997721885306575
 33
0.0
  0
MTEXT
  5
A1
100
AcDbEntity
  8
IMPORTED
 62
               1
100
AcDbMText
 10
-168.50348950882753
 20
-44.750113291556559
 30
0.0
 40
32.576822916666664
 41
0.0
 71
               1
 72
               1
  1
100
  7
_______
 11
0.0
 21
1.0
 31
0.0
  0
LINE
  5
A2
100
AcDbEntity
  8
IMPORTED
  6
CONTINUOUS
 62
               1
100
AcDbLine
 10
-254.99988527387777
 20
36.999836708443425
 30
0.0
 11
-70.000000149011612
 21
36.999836708443425
 31
0.0
  0
LINE
  5
A3
100
AcDbEntity
  8
IMPORTED
  6
CONTINUOUS
 62
               1
100
AcDbLine
 10
-254.99988527387777
 20
86.999836708443439
 30
0.0
 11
-70.000000149011612
 21
86.999836708443439
 31
0.0
  0
LINE
  5
A4
100
AcDbEntity
  8
IMPORTED
  6
CONTINUOUS
 62
               1
100
AcDbLine
 10
-110.0
 20
-3.0001631425449631
 30
0.0
 11
-110.0
 21
36.999836708443425
 31
0.0
  0
LINE
  5
A5
100
AcDbEntity
  8
IMPORTED
  6
CONTINUOUS
 62
               1
100
AcDbLine
 10
-110.0
 20
86.999836708443439
 30
0.0
 11
-110.0
 21
126.99983655943183
 31
0.0
  0
LINE
  5
A6
100
AcDbEntity
  8
IMPORTED
  6
CONTINUOUS
 62
               1
100
AcDbLine
 10
-110.0
 20
36.999836708443425
 30
0.0
 11
-110.0
 21
86.999836708443439
 31
0.0
  0
SOLID
  5
A7
100
AcDbEntity
  8
IMPORTED
 62
               1
100
AcDbTrace
 10
-110.0
 20
36.999836708443425
 30
0.0
 11
-113.49933294566702
 21
76.997395302193411
 31
0.0
 12
-106.50066705433298
 22
76.997395302193411
 32
0.0
 13
-106.50066705433298
 23
76.997395302193411
 33
0.0
  0
SOLID
  5
A8
100
AcDbEntity
  8
IMPORTED
 62
               1
100
AcDbTrace
 10
-110.0
 20
86.999836708443439
 30
0.0
 11
-106.50066705433298
 21
47.002278114693439
 31
0.0
 12
-113.49933294566702
 22
47.002278114693439
 32
0.0
 13
-113.49933294566702
 23
47.002278114693439
 33
0.0
  0
MTEXT
  5
A9
100
AcDbEntity
  8
IMPORTED
 62
               1
100
AcDbMText
 10
-168.50348950882753
 20
40.833170041776782
 30
0.0
 40
32.576822916666664
 41
0.0
 71
               1
 72
               1
  1
50
  7
_______
 11
0.0
 21
1.0
 31
0.0
  0
LINE
  5
AA
100
AcDbEntity
  8
IMPORTED
  6
CONTINUOUS
 62
               1
100
AcDbLine
 10
-254.99988527387777
 20
86.999836708443439
 30
0.0
 11
-70.000000149011612
 21
86.999836708443439
 31
0.0
  0
LINE
  5
AB
100
AcDbEntity
  8
IMPORTED
  6
CONTINUOUS
 62
               1
100
AcDbLine
 10
-304.99988527387779
 20
436.99983670844341
 30
0.0
 11
-70.000000149011612
 21
436.99983670844341
 31
0.0
  0
LINE
  5
AC
100
AcDbEntity
  8
IMPORTED
  6
CONTINUOUS
 62
               1
100
AcDbLine
 10
-110.0
 20
46.999836857455051
 30
0.0
 11
-110.0
 21
86.999836708443439
 31
0.0
  0
LINE
  5
AD
100
AcDbEntity
  8
IMPORTED
  6
CONTINUOUS
 62
               1
100
AcDbLine
 10
-110.0
 20
436.99983670844341
 30
0.0
 11
-110.0
 21
476.9998365594318
 31
0.0
  0
LINE
  5
AE
100
AcDbEntity
  8
IMPORTED
  6
CONTINUOUS
 62
               1
100
AcDbLine
 10
-110.0
 20
86.999836708443439
 30
0.0
 11
-110.0
 21
436.99983670844341
 31
0.0
  0
SOLID
  5
AF
100
AcDbEntity
  8
IMPORTED
 62
               1
100
AcDbTrace
 10
-110.0
 20
86.999836708443439
 30
0.0
 11
-113.49933294566702
 21
126.99739530219344
 31
0.0
 12
-106.50066705433298
 22
126.99739530219344
 32
0.0
 13
-106.50066705433298
 23
126.99739530219344
 33
0.0
  0
SOLID
  5
B0
100
AcDbEntity
  8
IMPORTED
 62
               1
100
AcDbTrace
 10
-110.0
 20
436.99983670844341
 30
0.0
 11
-106.50066705433298
 21
397.00227811469341
 31
0.0
 12
-113.49933294566702
 22
397.00227811469341
 32
0.0
 13
-113.49933294566702
 23
397.00227811469341
 33
0.0
  0
MTEXT
  5
B1
100
AcDbEntity
  8
IMPORTED
 62
               1
100
AcDbMText
 10
-168.50348950882753
 20
230.24983670844341
 30
0.0
 40
32.576822916666664
 41
0.0
 71
               1
 72
               1
  1
350
  7
_______
 11
0.0
 21
1.0
 31
0.0
  0
LINE
  5
B2
100
AcDbEntity
  8
IMPORTED
  6
CONTINUOUS
 62
               1
100
AcDbLine
 10
-304.99988527387779
 20
436.99983670844341
 30
0.0
 11
-70.000000149011584
 21
436.99983670844341
 31
0.0
  0
LINE
  5
B3
100
AcDbEntity
  8
IMPORTED
  6
CONTINUOUS
 62
               1
100
AcDbLine
 10
-279.99988527387779
 20
486.99983670844341
 30
0.0
 11
-70.000000149011612
 21
486.99983670844341
 31
0.0
  0
LINE
  5
B4
100
AcDbEntity
  8
IMPORTED
  6
CONTINUOUS
 62
               1
100
AcDbLine
 10
-110.0
 20
396.99983685745502
 30
0.0
 11
-110.0
 21
436.99983670844341
 31
0.0
  0
LINE
  5
B5
100
AcDbEntity
  8
IMPORTED
  6
CONTINUOUS
 62
               1
100
AcDbLine
 10
-110.0
 20
486.99983670844341
 30
0.0
 11
-110.0
 21
526.99983655943174
 31
0.0
  0
LINE
  5
B6
100
AcDbEntity
  8
IMPORTED
  6
CONTINUOUS
 62
               1
100
AcDbLine
 10
-110.0
 20
436.99983670844341
 30
0.0
 11
-110.0
 21
486.99983670844341
 31
0.0
  0
SOLID
  5
B7
100
AcDbEntity
  8
IMPORTED
 62
               1
100
AcDbTrace
 10
-110.0
 20
436.99983670844341
 30
0.0
 11
-113.49933294566702
 21
476.99739530219341
 31
0.0
 12
-106.50066705433298
 22
476.99739530219341
 32
0.0
 13
-106.50066705433298
 23
476.99739530219341
 33
0.0
  0
SOLID
  5
B8
100
AcDbEntity
  8
IMPORTED
 62
               1
100
AcDbTrace
 10
-110.0
 20
486.99983670844341
 30
0.0
 11
-106.50066705433298
 21
447.00227811469341
 31
0.0
 12
-113.49933294566702
 22
447.00227811469341
 32
0.0
 13
-113.49933294566702
 23
447.00227811469341
 33
0.0
  0
MTEXT
  5
B9
100
AcDbEntity
  8
IMPORTED
 62
               1
100
AcDbMText
 10
-168.50348950882753
 20
440.83317004177678
 30
0.0
 40
32.576822916666664
 41
0.0
 71
               1
 72
               1
  1
50
  7
_______
 11
0.0
 21
1.0
 31
0.0
  0
LINE
  5
BA
100
AcDbEntity
  8
IMPORTED
  6
CONTINUOUS
 62
               1
100
AcDbLine
 10
-279.99988527387779
 20
486.99983670844341
 30
0.0
 11
-70.000000149011584
 21
486.99983670844341
 31
0.0
  0
LINE
  5
BB
100
AcDbEntity
  8
IMPORTED
  6
CONTINUOUS
 62
               1
100
AcDbLine
 10
-437.49988527387779
 20
1236.9998367084434
 30
0.0
 11
-70.000000149011584
 21
1236.9998367084434
 31
0.0
  0
LINE
  5
BC
100
AcDbEntity
  8
IMPORTED
  6
CONTINUOUS
 62
               1
100
AcDbLine
 10
-110.0
 20
446.99983685745502
 30
0.0
 11
-110.0
 21
486.99983670844341
 31
0.0
  0
LINE
  5
BD
100
AcDbEntity
  8
IMPORTED
  6
CONTINUOUS
 62
               1
100
AcDbLine
 10
-109.99999999999997
 20
1236.9998367084434
 30
0.0
 11
-109.99999999999997
 21
1276.9998365594317
 31
0.0
  0
LINE
  5
BE
100
AcDbEntity
  8
IMPORTED
  6
CONTINUOUS
 62
               1
100
AcDbLine
 10
-110.0
 20
486.99983670844341
 30
0.0
 11
-109.99999999999997
 21
1236.9998367084434
 31
0.0
  0
SOLID
  5
BF
100
AcDbEntity
  8
IMPORTED
 62
               1
100
AcDbTrace
 10
-110.0
 20
486.99983670844341
 30
0.0
 11
-113.49933294566702
 21
526.99739530219335
 31
0.0
 12
-106.50066705433298
 22
526.99739530219335
 32
0.0
 13
-106.50066705433298
 23
526.99739530219335
 33
0.0
  0
SOLID
  5
C0
100
AcDbEntity
  8
IMPORTED
 62
               1
100
AcDbTrace
 10
-109.99999999999997
 20
1236.9998367084434
 30
0.0
 11
-106.50066705433295
 21
1197.0022781146934
 31
0.0
 12
-113.49933294566699
 22
1197.0022781146934
 32
0.0
 13
-113.49933294566699
 23
1197.0022781146934
 33
0.0
  0
MTEXT
  5
C1
100
AcDbEntity
  8
IMPORTED
 62
               1
100
AcDbMText
 10
-168.5034895088275
 20
830.24983670844335
 30
0.0
 40
32.576822916666664
 41
0.0
 71
               1
 72
               1
  1
750
  7
_______
 11
0.0
 21
1.0
 31
0.0
  0
LINE
  5
C2
100
AcDbEntity
  8
IMPORTED
  6
CONTINUOUS
 62
               1
100
AcDbLine
 10
-442.49988527387779
 20
1386.9998367084434
 30
0.0
 11
34.999999850988416
 21
1386.9998367084434
 31
0.0
  0
LINE
  5
C3
100
AcDbEntity
  8
IMPORTED
  6
CONTINUOUS
 62
               1
100
AcDbLine
 10
-279.99988527387779
 20
486.99983670844341
 30
0.0
 11
34.999999850988416
 21
486.99983670844341
 31
0.0
  0
LINE
  5
C4
100
AcDbEntity
  8
IMPORTED
  6
CONTINUOUS
 62
               1
100
AcDbLine
 10
-4.9999999999999716
 20
1426.9998365594317
 30
0.0
 11
-4.9999999999999716
 21
1386.9998367084434
 31
0.0
  0
LINE
  5
C5
100
AcDbEntity
  8
IMPORTED
  6
CONTINUOUS
 62
               1
100
AcDbLine
 10
-4.9999999999999716
 20
486.99983670844341
 30
0.0
 11
-4.9999999999999716
 21
446.99983685745502
 31
0.0
  0
LINE
  5
C6
100
AcDbEntity
  8
IMPORTED
  6
CONTINUOUS
 62
               1
100
AcDbLine
 10
-4.9999999999999716
 20
1386.9998367084434
 30
0.0
 11
-4.9999999999999716
 21
486.99983670844341
 31
0.0
  0
SOLID
  5
C7
100
AcDbEntity
  8
IMPORTED
 62
               1
100
AcDbTrace
 10
-4.9999999999999716
 20
1386.9998367084434
 30
0.0
 11
-1.5006670543329506
 21
1347.0022781146934
 31
0.0
 12
-8.4993329456669926
 22
1347.0022781146934
 32
0.0
 13
-8.4993329456669926
 23
1347.0022781146934
 33
0.0
  0
SOLID
  5
C8
100
AcDbEntity
  8
IMPORTED
 62
               1
100
AcDbTrace
 10
-4.9999999999999716
 20
486.99983670844341
 30
0.0
 11
-8.4993329456669926
 21
526.99739530219335
 31
0.0
 12
-1.5006670543329506
 22
526.99739530219335
 32
0.0
 13
-1.5006670543329506
 23
526.99739530219335
 33
0.0
  0
MTEXT
  5
C9
100
AcDbEntity
  8
IMPORTED
 62
               1
100
AcDbMText
 10
-63.503489508827499
 20
905.24983670844335
 30
0.0
 40
32.576822916666664
 41
0.0
 71
               1
 72
               1
  1
900
  7
_______
 11
0.0
 21
1.0
 31
0.0
  0
LINE
  5
CA
100
AcDbEntity
  8
IMPORTED
  6
CONTINUOUS
 62
               1
100
AcDbLine
 10
-279.99988527387779
 20
486.99983670844341
 30
0.0
 11
34.999999850988416
 21
486.99983670844341
 31
0.0
  0
LINE
  5
CB
100
AcDbEntity
  8
IMPORTED
  6
CONTINUOUS
 62
               1
100
AcDbLine
 10
-254.99988527387777
 20
-63.000063291556557
 30
0.0
 11
34.999999850988416
 21
-63.000063291556557
 31
0.0
  0
LINE
  5
CC
100
AcDbEntity
  8
IMPORTED
  6
CONTINUOUS
 62
               1
100
AcDbLine
 10
-4.9999999999999716
 20
526.99983655943174
 30
0.0
 11
-4.9999999999999716
 21
486.99983670844341
 31
0.0
  0
LINE
  5
CD
100
AcDbEntity
  8
IMPORTED
  6
CONTINUOUS
 62
               1
100
AcDbLine
 10
-4.9999999999999716
 20
-63.000063291556557
 30
0.0
 11
-4.9999999999999716
 21
-103.00006314254495
 31
0.0
  0
LINE
  5
CE
100
AcDbEntity
  8
IMPORTED
  6
CONTINUOUS
 62
               1
100
AcDbLine
 10
-4.9999999999999716
 20
486.99983670844341
 30
0.0
 11
-4.9999999999999716
 21
-63.000063291556557
 31
0.0
  0
SOLID
  5
CF
100
AcDbEntity
  8
IMPORTED
 62
               1
100
AcDbTrace
 10
-4.9999999999999716
 20
486.99983670844341
 30
0.0
 11
-1.5006670543329506
 21
447.00227811469341
 31
0.0
 12
-8.4993329456669926
 22
447.00227811469341
 32
0.0
 13
-8.4993329456669926
 23
447.00227811469341
 33
0.0
  0
SOLID
  5
D0
100
AcDbEntity
  8
IMPORTED
 62
               1
100
AcDbTrace
 10
-4.9999999999999716
 20
-63.000063291556557
 30
0.0
 11
-8.4993329456669926
 21
-23.002504697806557
 31
0.0
 12
-1.5006670543329506
 22
-23.002504697806557
 32
0.0
 13
-1.5006670543329506
 23
-23.002504697806557
 33
0.0
  0
MTEXT
  5
D1
100
AcDbEntity
  8
IMPORTED
 62
               1
100
AcDbMText
 10
-63.503489508827499
 20
180.2498867084434
 30
0.0
 40
32.576822916666664
 41
0.0
 71
               1
 72
               1
  1
550
  7
_______
 11
0.0
 21
1.0
 31
0.0
  0
LINE
  5
D2
100
AcDbEntity
  8
IMPORTED
  6
CONTINUOUS
 62
               1
100
AcDbLine
 10
-2324.9998848268428
 20
86.999836708443439
 30
0.0
 11
-2699.9998849013487
 21
86.999836708443439
 31
0.0
  0
LINE
  5
D3
100
AcDbEntity
  8
IMPORTED
  6
CONTINUOUS
 62
               1
100
AcDbLine
 10
-2549.9998848268428
 20
486.99983670844341
 30
0.0
 11
-2699.9998849013487
 21
486.99983670844341
 31
0.0
  0
LINE
  5
D4
100
AcDbEntity
  8
IMPORTED
  6
CONTINUOUS
 62
               1
100
AcDbLine
 10
-2659.9998850503603
 20
46.999836857455051
 30
0.0
 11
-2659.9998850503603
 21
86.999836708443439
 31
0.0
  0
LINE
  5
D5
100
AcDbEntity
  8
IMPORTED
  6
CONTINUOUS
 62
               1
100
AcDbLine
 10
-2659.9998850503603
 20
486.99983670844341
 30
0.0
 11
-2659.9998850503603
 21
526.99983655943174
 31
0.0
  0
LINE
  5
D6
100
AcDbEntity
  8
IMPORTED
  6
CONTINUOUS
 62
               1
100
AcDbLine
 10
-2659.9998850503603
 20
86.999836708443439
 30
0.0
 11
-2659.9998850503603
 21
486.99983670844341
 31
0.0
  0
SOLID
  5
D7
100
AcDbEntity
  8
IMPORTED
 62
               1
100
AcDbTrace
 10
-2659.9998850503603
 20
86.999836708443439
 30
0.0
 11
-2663.4992179960273
 21
126.99739530219344
 31
0.0
 12
-2656.5005521046933
 22
126.99739530219344
 32
0.0
 13
-2656.5005521046933
 23
126.99739530219344
 33
0.0
  0
SOLID
  5
D8
100
AcDbEntity
  8
IMPORTED
 62
               1
100
AcDbTrace
 10
-2659.9998850503603
 20
486.99983670844341
 30
0.0
 11
-2656.5005521046933
 21
447.00227811469341
 31
0.0
 12
-2663.4992179960273
 22
447.00227811469341
 32
0.0
 13
-2663.4992179960273
 23
447.00227811469341
 33
0.0
  0
MTEXT
  5
D9
100
AcDbEntity
  8
IMPORTED
 62
               1
100
AcDbMText
 10
-2718.5033745591877
 20
255.24983670844341
 30
0.0
 40
32.576822916666664
 41
0.0
 71
               1
 72
               1
  1
400
  7
_______
 11
0.0
 21
1.0
 31
0.0
  0
LINE
  5
DA
100
AcDbEntity
  8
IMPORTED
  6
CONTINUOUS
 62
               1
100
AcDbLine
 10
-2549.9998848268428
 20
486.99983670844341
 30
0.0
 11
-2699.9998849013487
 21
486.99983670844341
 31
0.0
  0
LINE
  5
DB
100
AcDbEntity
  8
IMPORTED
  6
CONTINUOUS
 62
               1
100
AcDbLine
 10
-2142.4998848268428
 20
936.99983670844335
 30
0.0
 11
-2699.9998849013487
 21
936.99983670844335
 31
0.0
  0
LINE
  5
DC
100
AcDbEntity
  8
IMPORTED
  6
CONTINUOUS
 62
               1
100
AcDbLine
 10
-2659.9998850503603
 20
446.99983685745502
 30
0.0
 11
-2659.9998850503603
 21
486.99983670844341
 31
0.0
  0
LINE
  5
DD
100
AcDbEntity
  8
IMPORTED
  6
CONTINUOUS
 62
               1
100
AcDbLine
 10
-2659.9998850503603
 20
936.99983670844335
 30
0.0
 11
-2659.9998850503603
 21
976.99983655943174
 31
0.0
  0
LINE
  5
DE
100
AcDbEntity
  8
IMPORTED
  6
CONTINUOUS
 62
               1
100
AcDbLine
 10
-2659.9998850503603
 20
486.99983670844341
 30
0.0
 11
-2659.9998850503603
 21
936.99983670844335
 31
0.0
  0
SOLID
  5
DF
100
AcDbEntity
  8
IMPORTED
 62
               1
100
AcDbTrace
 10
-2659.9998850503603
 20
486.99983670844341
 30
0.0
 11
-2663.4992179960273
 21
526.99739530219335
 31
0.0
 12
-2656.5005521046933
 22
526.99739530219335
 32
0.0
 13
-2656.5005521046933
 23
526.99739530219335
 33
0.0
  0
SOLID
  5
E0
100
AcDbEntity
  8
IMPORTED
 62
               1
100
AcDbTrace
 10
-2659.9998850503603
 20
936.99983670844335
 30
0.0
 11
-2656.5005521046933
 21
897.00227811469335
 31
0.0
 12
-2663.4992179960273
 22
897.00227811469335
 32
0.0
 13
-2663.4992179960273
 23
897.00227811469335
 33
0.0
  0
MTEXT
  5
E1
100
AcDbEntity
  8
IMPORTED
 62
               1
100
AcDbMText
 10
-2718.5033745591877
 20
680.24983670844335
 30
0.0
 40
32.576822916666664
 41
0.0
 71
               1
 72
               1
  1
450
  7
_______
 11
0.0
 21
1.0
 31
0.0
  0
LINE
  5
E2
100
AcDbEntity
  8
IMPORTED
  6
CONTINUOUS
 62
               1
100
AcDbLine
 10
-2142.4998848268428
 20
936.99983670844335
 30
0.0
 11
-2699.9998849013487
 21
936.99983670844335
 31
0.0
  0
LINE
  5
E3
100
AcDbEntity
  8
IMPORTED
  6
CONTINUOUS
 62
               1
100
AcDbLine
 10
-2142.4998848268428
 20
1236.9998367084434
 30
0.0
 11
-2699.9998849013487
 21
1236.9998367084434
 31
0.0
  0
LINE
  5
E4
100
AcDbEntity
  8
IMPORTED
  6
CONTINUOUS
 62
               1
100
AcDbLine
 10
-2659.9998850503603
 20
896.99983685745497
 30
0.0
 11
-2659.9998850503603
 21
936.99983670844335
 31
0.0
  0
LINE
  5
E5
100
AcDbEntity
  8
IMPORTED
  6
CONTINUOUS
 62
               1
100
AcDbLine
 10
-2659.9998850503603
 20
1236.9998367084434
 30
0.0
 11
-2659.9998850503603
 21
1276.9998365594317
 31
0.0
  0
LINE
  5
E6
100
AcDbEntity
  8
IMPORTED
  6
CONTINUOUS
 62
               1
100
AcDbLine
 10
-2659.9998850503603
 20
936.99983670844335
 30
0.0
 11
-2659.9998850503603
 21
1236.9998367084434
 31
0.0
  0
SOLID
  5
E7
100
AcDbEntity
  8
IMPORTED
 62
               1
100
AcDbTrace
 10
-2659.9998850503603
 20
936.99983670844335
 30
0.0
 11
-2663.4992179960273
 21
976.99739530219335
 31
0.0
 12
-2656.5005521046933
 22
976.99739530219335
 32
0.0
 13
-2656.5005521046933
 23
976.99739530219335
 33
0.0
  0
SOLID
  5
E8
100
AcDbEntity
  8
IMPORTED
 62
               1
100
AcDbTrace
 10
-2659.9998850503603
 20
1236.9998367084434
 30
0.0
 11
-2656.5005521046933
 21
1197.0022781146934
 31
0.0
 12
-2663.4992179960273
 22
1197.0022781146934
 32
0.0
 13
-2663.4992179960273
 23
1197.0022781146934
 33
0.0
  0
MTEXT
  5
E9
100
AcDbEntity
  8
IMPORTED
 62
               1
100
AcDbMText
 10
-2718.5033745591877
 20
1055.2498367084434
 30
0.0
 40
32.576822916666664
 41
0.0
 71
               1
 72
               1
  1
300
  7
_______
 11
0.0
 21
1.0
 31
0.0
  0
LINE
  5
EA
100
AcDbEntity
  8
IMPORTED
  6
CONTINUOUS
 62
               1
100
AcDbLine
 10
-2324.9998848268428
 20
86.999836708443439
 30
0.0
 11
-2834.9999998509884
 21
86.999836708443439
 31
0.0
  0
LINE
  5
EB
100
AcDbEntity
  8
IMPORTED
  6
CONTINUOUS
 62
               1
100
AcDbLine
 10
-2137.4998848268428
 20
1386.9998367084434
 30
0.0
 11
-2834.9999998509884
 21
1386.9998367084434
 31
0.0
  0
LINE
  5
EC
100
AcDbEntity
  8
IMPORTED
  6
CONTINUOUS
 62
               1
100
AcDbLine
 10
-2795.0
 20
46.999836857455051
 30
0.0
 11
-2795.0
 21
86.999836708443439
 31
0.0
  0
LINE
  5
ED
100
AcDbEntity
  8
IMPORTED
  6
CONTINUOUS
 62
               1
100
AcDbLine
 10
-2795.0
 20
1386.9998367084434
 30
0.0
 11
-2795.0
 21
1426.9998365594317
 31
0.0
  0
LINE
  5
EE
100
AcDbEntity
  8
IMPORTED
  6
CONTINUOUS
 62
               1
100
AcDbLine
 10
-2795.0
 20
86.999836708443439
 30
0.0
 11
-2795.0
 21
1386.9998367084434
 31
0.0
  0
SOLID
  5
EF
100
AcDbEntity
  8
IMPORTED
 62
               1
100
AcDbTrace
 10
-2795.0
 20
86.999836708443439
 30
0.0
 11
-2798.499332945667
 21
126.99739530219344
 31
0.0
 12
-2791.500667054333
 22
126.99739530219344
 32
0.0
 13
-2791.500667054333
 23
126.99739530219344
 33
0.0
  0
SOLID
  5
F0
100
AcDbEntity
  8
IMPORTED
 62
               1
100
AcDbTrace
 10
-2795.0
 20
1386.9998367084434
 30
0.0
 11
-2791.500667054333
 21
1347.0022781146934
 31
0.0
 12
-2798.499332945667
 22
1347.0022781146934
 32
0.0
 13
-2798.499332945667
 23
1347.0022781146934
 33
0.0
  0
MTEXT
  5
F1
100
AcDbEntity
  8
IMPORTED
 62
               1
100
AcDbMText
 10
-2853.5034895088279
 20
694.6665033751101
 30
0.0
 40
32.576822916666664
 41
0.0
 71
               1
 72
               1
  1
1300
  7
_______
 11
0.0
 21
1.0
 31
0.0
  0
LINE
  5
F2
100
AcDbEntity
  8
IMPORTED
  6
CONTINUOUS
 62
               1
100
AcDbLine
 10
-2039.9998850503603
 20
1446.9998364849259
 30
0.0
 11
-2039.9998850503603
 21
1841.9998365594317
 31
0.0
  0
LINE
  5
F3
100
AcDbEntity
  8
IMPORTED
  6
CONTINUOUS
 62
               1
100
AcDbLine
 10
-539.99988505036038
 20
1446.9998364849259
 30
0.0
 11
-539.99988505036038
 21
1841.9998365594317
 31
0.0
  0
LINE
  5
F4
100
AcDbEntity
  8
IMPORTED
  6
CONTINUOUS
 62
               1
100
AcDbLine
 10
-2079.9998849013487
 20
1801.9998367084434
 30
0.0
 11
-2039.9998850503603
 21
1801.9998367084434
 31
0.0
  0
LINE
  5
F5
100
AcDbEntity
  8
IMPORTED
  6
CONTINUOUS
 62
               1
100
AcDbLine
 10
-539.99988505036038
 20
1801.9998367084434
 30
0.0
 11
-499.99988519937199
 21
1801.9998367084434
 31
0.0
  0
LINE
  5
F6
100
AcDbEntity
  8
IMPORTED
  6
CONTINUOUS
 62
               1
100
AcDbLine
 10
-2039.9998850503603
 20
1801.9998367084434
 30
0.0
 11
-539.99988505036038
 21
1801.9998367084434
 31
0.0
  0
SOLID
  5
F7
100
AcDbEntity
  8
IMPORTED
 62
               1
100
AcDbTrace
 10
-2039.9998850503603
 20
1801.9998367084434
 30
0.0
 11
-2000.0023264566103
 21
1805.4991696541103
 31
0.0
 12
-2000.0023264566103
 22
1798.5005037627764
 32
0.0
 13
-2000.0023264566103
 23
1798.5005037627764
 33
0.0
  0
SOLID
  5
F8
100
AcDbEntity
  8
IMPORTED
 62
               1
100
AcDbTrace
 10
-539.99988505036038
 20
1801.9998367084434
 30
0.0
 11
-579.99744364411038
 21
1798.5005037627764
 31
0.0
 12
-579.99744364411038
 22
1805.4991696541103
 32
0.0
 13
-579.99744364411038
 23
1805.4991696541103
 33
0.0
  0
MTEXT
  5
F9
100
AcDbEntity
  8
IMPORTED
 62
               1
100
AcDbMText
 10
-1332.3332183836935
 20
1860.5033262172708
 30
0.0
 40
32.576822916666664
 41
0.0
 71
               1
 72
               1
  1
1500
  7
_______
  0
LINE
  5
FA
100
AcDbEntity
  8
IMPORTED
  6
CONTINUOUS
 62
               1
100
AcDbLine
 10
-2082.4998850503603
 20
1441.3476364849259
 30
0.0
 11
-2082.4998850503603
 21
1691.9998365594317
 31
0.0
  0
LINE
  5
FB
100
AcDbEntity
  8
IMPORTED
  6
CONTINUOUS
 62
               1
100
AcDbLine
 10
-1997.4998850503603
 20
1441.3476364849259
 30
0.0
 11
-1997.4998850503603
 21
1691.9998365594317
 31
0.0
  0
LINE
  5
FC
100
AcDbEntity
  8
IMPORTED
  6
CONTINUOUS
 62
               1
100
AcDbLine
 10
-2122.4998849013487
 20
1651.9998367084434
 30
0.0
 11
-2082.4998850503603
 21
1651.9998367084434
 31
0.0
  0
LINE
  5
FD
100
AcDbEntity
  8
IMPORTED
  6
CONTINUOUS
 62
               1
100
AcDbLine
 10
-1997.4998850503603
 20
1651.9998367084434
 30
0.0
 11
-1957.4998851993719
 21
1651.9998367084434
 31
0.0
  0
LINE
  5
FE
100
AcDbEntity
  8
IMPORTED
  6
CONTINUOUS
 62
               1
100
AcDbLine
 10
-2082.4998850503603
 20
1651.9998367084434
 30
0.0
 11
-1997.4998850503603
 21
1651.9998367084434
 31
0.0
  0
SOLID
  5
FF
100
AcDbEntity
  8
IMPORTED
 62
               1
100
AcDbTrace
 10
-2082.4998850503603
 20
1651.9998367084434
 30
0.0
 11
-2042.5023264566103
 21
1655.4991696541103
 31
0.0
 12
-2042.5023264566103
 22
1648.5005037627764
 32
0.0
 13
-2042.5023264566103
 23
1648.5005037627764
 33
0.0
  0
SOLID
  5
100
100
AcDbEntity
  8
IMPORTED
 62
               1
100
AcDbTrace
 10
-1997.4998850503603
 20
1651.9998367084434
 30
0.0
 11
-2037.4974436441103
 21
1648.5005037627764
 31
0.0
 12
-2037.4974436441103
 22
1655.4991696541103
 32
0.0
 13
-2037.4974436441103
 23
1655.4991696541103
 33
0.0
  0
MTEXT
  5
101
100
AcDbEntity
  8
IMPORTED
 62
               1
100
AcDbMText
 10
-2061.1665517170268
 20
1710.5033262172708
 30
0.0
 40
32.576822916666664
 41
0.0
 71
               1
 72
               1
  1
85
  7
_______
  0
LINE
  5
102
100
AcDbEntity
  8
IMPORTED
  6
CONTINUOUS
 62
               1
100
AcDbLine
 10
-1997.4998850503603
 20
1441.3476364849259
 30
0.0
 11
-1997.4998850503603
 21
1691.9998365594317
 31
0.0
  0
LINE
  5
103
100
AcDbEntity
  8
IMPORTED
  6
CONTINUOUS
 62
               1
100
AcDbLine
 10
-582.49988505036038
 20
1441.9998364849259
 30
0.0
 11
-582.49988505036038
 21
1691.9998365594317
 31
0.0
  0
LINE
  5
104
100
AcDbEntity
  8
IMPORTED
  6
CONTINUOUS
 62
               1
100
AcDbLine
 10
-2037.4998849013487
 20
1651.9998367084434
 30
0.0
 11
-1997.4998850503603
 21
1651.9998367084434
 31
0.0
  0
LINE
  5
105
100
AcDbEntity
  8
IMPORTED
  6
CONTINUOUS
 62
               1
100
AcDbLine
 10
-582.49988505036038
 20
1651.9998367084434
 30
0.0
 11
-542.49988519937199
 21
1651.9998367084434
 31
0.0
  0
LINE
  5
106
100
AcDbEntity
  8
IMPORTED
  6
CONTINUOUS
 62
               1
100
AcDbLine
 10
-1997.4998850503603
 20
1651.9998367084434
 30
0.0
 11
-582.49988505036038
 21
1651.9998367084434
 31
0.0
  0
SOLID
  5
107
100
AcDbEntity
  8
IMPORTED
 62
               1
100
AcDbTrace
 10
-1997.4998850503603
 20
1651.9998367084434
 30
0.0
 11
-1957.5023264566103
 21
1655.4991696541103
 31
0.0
 12
-1957.5023264566103
 22
1648.5005037627764
 32
0.0
 13
-1957.5023264566103
 23
1648.5005037627764
 33
0.0
  0
SOLID
  5
108
100
AcDbEntity
  8
IMPORTED
 62
               1
100
AcDbTrace
 10
-582.49988505036038
 20
1651.9998367084434
 30
0.0
 11
-622.49744364411038
 21
1648.5005037627764
 31
0.0
 12
-622.49744364411038
 22
1655.4991696541103
 32
0.0
 13
-622.49744364411038
 23
1655.4991696541103
 33
0.0
  0
MTEXT
  5
109
100
AcDbEntity
  8
IMPORTED
 62
               1
100
AcDbMText
 10
-1332.3332183836935
 20
1710.5033262172708
 30
0.0
 40
32.576822916666664
 41
0.0
 71
               1
 72
               1
  1
1415
  7
_______
  0
LINE
  5
10A
100
AcDbEntity
  8
IMPORTED
  6
CONTINUOUS
 62
               1
100
AcDbLine
 10
-582.49988505036038
 20
1441.9998364849259
 30
0.0
 11
-582.49988505036038
 21
1691.9998365594317
 31
0.0
  0
LINE
  5
10B
100
AcDbEntity
  8
IMPORTED
  6
CONTINUOUS
 62
               1
100
AcDbLine
 10
-497.49988505036038
 20
1441.9998364849259
 30
0.0
 11
-497.49988505036038
 21
1691.9998365594317
 31
0.0
  0
LINE
  5
10C
100
AcDbEntity
  8
IMPORTED
  6
CONTINUOUS
 62
               1
100
AcDbLine
 10
-622.49988490134876
 20
1651.9998367084434
 30
0.0
 11
-582.49988505036038
 21
1651.9998367084434
 31
0.0
  0
LINE
  5
10D
100
AcDbEntity
  8
IMPORTED
  6
CONTINUOUS
 62
               1
100
AcDbLine
 10
-497.49988505036038
 20
1651.9998367084434
 30
0.0
 11
-457.49988519937199
 21
1651.9998367084434
 31
0.0
  0
LINE
  5
10E
100
AcDbEntity
  8
IMPORTED
  6
CONTINUOUS
 62
               1
100
AcDbLine
 10
-582.49988505036038
 20
1651.9998367084434
 30
0.0
 11
-497.49988505036038
 21
1651.9998367084434
 31
0.0
  0
SOLID
  5
10F
100
AcDbEntity
  8
IMPORTED
 62
               1
100
AcDbTrace
 10
-582.49988505036038
 20
1651.9998367084434
 30
0.0
 11
-542.50232645661038
 21
1655.4991696541103
 31
0.0
 12
-542.50232645661038
 22
1648.5005037627764
 32
0.0
 13
-542.50232645661038
 23
1648.5005037627764
 33
0.0
  0
SOLID
  5
110
100
AcDbEntity
  8
IMPORTED
 62
               1
100
AcDbTrace
 10
-497.49988505036038
 20
1651.9998367084434
 30
0.0
 11
-537.49744364411038
 21
1648.5005037627764
 31
0.0
 12
-537.49744364411038
 22
1655.4991696541103
 32
0.0
 13
-537.49744364411038
 23
1655.4991696541103
 33
0.0
  0
MTEXT
  5
111
100
AcDbEntity
  8
IMPORTED
 62
               1
100
AcDbMText
 10
-561.166551717027
 20
1710.5033262172708
 30
0.0
 40
32.576822916666664
 41
0.0
 71
               1
 72
               1
  1
85
  7
_______
  0
MTEXT
  5
112
100
AcDbEntity
  8
IMPORTED
 62
               1
100
AcDbMText
 10
-1760.4287850503604
 20
203.55482400052563
 30
0.0
 40
32.576797265624997
 41
0.0
 71
               1
 72
               1
  1
基礎コンクリート
  7
_______
  0
POLYLINE
  5
113
100
AcDbEntity
  8
IMPORTED
  6
CONTINUOUS
 62
              30
100
AcDb2dPolyline
 66
               1
 10
0.0
 20
0.0
 30
0.0
 70
               1
 75
               5
  0
VERTEX
  5
114
100
AcDbEntity
  8
IMPORTED
  6
CONTINUOUS
 62
              30
100
AcDbVertex
100
AcDb2dVertex
 10
-2082.4998850503603
 20
-1422.4999632915565
 30
0.0
  0
VERTEX
  5
115
100
AcDbEntity
  8
IMPORTED
  6
CONTINUOUS
 62
              30
100
AcDbVertex
100
AcDb2dVertex
 10
-2077.4998850503603
 20
-1417.4999632915565
 30
0.0
  0
VERTEX
  5
116
100
AcDbEntity
  8
IMPORTED
  6
CONTINUOUS
 62
              30
100
AcDbVertex
100
AcDb2dVertex
 10
-2002.4998850503603
 20
-1417.4999632915565
 30
0.0
  0
VERTEX
  5
117
100
AcDbEntity
  8
IMPORTED
  6
CONTINUOUS
 62
              30
100
AcDbVertex
100
AcDb2dVertex
 10
-1997.4998850503603
 20
-1422.4999632915565
 30
0.0
  0
VERTEX
  5
118
100
AcDbEntity
  8
IMPORTED
  6
CONTINUOUS
 62
              30
100
AcDbVertex
100
AcDb2dVertex
 10
-1997.4998850503603
 20
-1497.4999632915565
 30
0.0
  0
VERTEX
  5
119
100
AcDbEntity
  8
IMPORTED
  6
CONTINUOUS
 62
              30
100
AcDbVertex
100
AcDb2dVertex
 10
-2002.4998850503603
 20
-1502.4999632915565
 30
0.0
  0
VERTEX
  5
11A
100
AcDbEntity
  8
IMPORTED
  6
CONTINUOUS
 62
              30
100
AcDbVertex
100
AcDb2dVertex
 10
-2077.4998850503603
 20
-1502.4999632915565
 30
0.0
  0
VERTEX
  5
11B
100
AcDbEntity
  8
IMPORTED
  6
CONTINUOUS
 62
              30
100
AcDbVertex
100
AcDb2dVertex
 10
-2082.4998850503603
 20
-1497.4999632915565
 30
0.0
  0
SEQEND
  5
11C
100
AcDbEntity
  8
IMPORTED
  6
CONTINUOUS
 62
              30
  0
POLYLINE
  5
11E
100
AcDbEntity
  8
IMPORTED
  6
STYLE_02
 62
              30
100
AcDb2dPolyline
 66
               1
 10
0.0
 20
0.0
 30
0.0
 70
               1
 75
               5
  0
VERTEX
  5
11F
100
AcDbEntity
  8
IMPORTED
  6
STYLE_02
 62
              30
100
AcDbVertex
100
AcDb2dVertex
 10
-2067.9223850503604
 20
-1427.4999632915565
 30
0.0
  0
VERTEX
  5
120
100
AcDbEntity
  8
IMPORTED
  6
STYLE_02
 62
              30
100
AcDbVertex
100
AcDb2dVertex
 10
-2072.4998850503603
 20
-1432.0774632915563
 30
0.0
  0
VERTEX
  5
121
100
AcDbEntity
  8
IMPORTED
  6
STYLE_02
 62
              30
100
AcDbVertex
100
AcDb2dVertex
 10
-2072.4998850503603
 20
-1487.9224632915564
 30
0.0
  0
VERTEX
  5
122
100
AcDbEntity
  8
IMPORTED
  6
STYLE_02
 62
              30
100
AcDbVertex
100
AcDb2dVertex
 10
-2067.9223850503604
 20
-1492.4999632915565
 30
0.0
  0
VERTEX
  5
123
100
AcDbEntity
  8
IMPORTED
  6
STYLE_02
 62
              30
100
AcDbVertex
100
AcDb2dVertex
 10
-2012.0773850503604
 20
-1492.4999632915565
 30
0.0
  0
VERTEX
  5
124
100
AcDbEntity
  8
IMPORTED
  6
STYLE_02
 62
              30
100
AcDbVertex
100
AcDb2dVertex
 10
-2007.4998850503603
 20
-1487.9224632915564
 30
0.0
  0
VERTEX
  5
125
100
AcDbEntity
  8
IMPORTED
  6
STYLE_02
 62
              30
100
AcDbVertex
100
AcDb2dVertex
 10
-2007.4998850503603
 20
-1432.0774632915563
 30
0.0
  0
VERTEX
  5
126
100
AcDbEntity
  8
IMPORTED
  6
STYLE_02
 62
              30
100
AcDbVertex
100
AcDb2dVertex
 10
-2012.0773850503604
 20
-1427.4999632915565
 30
0.0
  0
SEQEND
  5
127
100
AcDbEntity
  8
IMPORTED
  6
STYLE_02
 62
              30
  0
POLYLINE
  5
129
100
AcDbEntity
  8
IMPORTED
  6
STYLE_02
 62
              30
100
AcDb2dPolyline
 66
               1
 10
0.0
 20
0.0
 30
0.0
 70
               1
 75
               5
  0
VERTEX
  5
12A
100
AcDbEntity
  8
IMPORTED
  6
STYLE_02
 62
              30
100
AcDbVertex
100
AcDb2dVertex
 10
-2075.4998850503603
 20
-1428.6764632915563
 30
0.0
  0
VERTEX
  5
12B
100
AcDbEntity
  8
IMPORTED
  6
STYLE_02
 62
              30
100
AcDbVertex
100
AcDb2dVertex
 10
-2071.3233850503602
 20
-1424.4999632915565
 30
0.0
  0
VERTEX
  5
12C
100
AcDbEntity
  8
IMPORTED
  6
STYLE_02
 62
              30
100
AcDbVertex
100
AcDb2dVertex
 10
-2008.6763850503603
 20
-1424.4999632915565
 30
0.0
  0
VERTEX
  5
12D
100
AcDbEntity
  8
IMPORTED
  6
STYLE_02
 62
              30
100
AcDbVertex
100
AcDb2dVertex
 10
-2004.4998850503603
 20
-1428.6764632915563
 30
0.0
  0
VERTEX
  5
12E
100
AcDbEntity
  8
IMPORTED
  6
STYLE_02
 62
              30
100
AcDbVertex
100
AcDb2dVertex
 10
-2004.4998850503603
 20
-1491.3234632915564
 30
0.0
  0
VERTEX
  5
12F
100
AcDbEntity
  8
IMPORTED
  6
STYLE_02
 62
              30
100
AcDbVertex
100
AcDb2dVertex
 10
-2008.6763850503603
 20
-1495.4999632915565
 30
0.0
  0
VERTEX
  5
130
100
AcDbEntity
  8
IMPORTED
  6
STYLE_02
 62
              30
100
AcDbVertex
100
AcDb2dVertex
 10
-2071.3233850503602
 20
-1495.4999632915565
 30
0.0
  0
VERTEX
  5
131
100
AcDbEntity
  8
IMPORTED
  6
STYLE_02
 62
              30
100
AcDbVertex
100
AcDb2dVertex
 10
-2075.4998850503603
 20
-1491.3234632915564
 30
0.0
  0
SEQEND
  5
132
100
AcDbEntity
  8
IMPORTED
  6
STYLE_02
 62
              30
  0
POLYLINE
  5
134
100
AcDbEntity
  8
IMPORTED
  6
CONTINUOUS
 62
              30
100
AcDb2dPolyline
 66
               1
 10
0.0
 20
0.0
 30
0.0
 70
             129
  0
VERTEX
  5
135
100
AcDbEntity
  8
IMPORTED
  6
CONTINUOUS
 62
              30
100
AcDbVertex
100
AcDb2dVertex
 10
1414.9999149496393
 20
436.99983670844341
 30
0.0
  0
VERTEX
  5
136
100
AcDbEntity
  8
IMPORTED
  6
CONTINUOUS
 62
              30
100
AcDbVertex
100
AcDb2dVertex
 10
1764.9999149496393
 20
436.99983670844341
 30
0.0
  0
VERTEX
  5
137
100
AcDbEntity
  8
IMPORTED
  6
CONTINUOUS
 62
              30
100
AcDbVertex
100
AcDb2dVertex
 10
1764.9999149496393
 20
86.999836708443439
 30
0.0
  0
VERTEX
  5
138
100
AcDbEntity
  8
IMPORTED
  6
CONTINUOUS
 62
              30
100
AcDbVertex
100
AcDb2dVertex
 10
1414.9999149496393
 20
86.999836708443439
 30
0.0
  0
VERTEX
  5
139
100
AcDbEntity
  8
IMPORTED
  6
CONTINUOUS
 62
              30
100
AcDbVertex
100
AcDb2dVertex
 10
1414.9999149496393
 20
436.99983670844341
 30
0.0
  0
VERTEX
  5
13A
100
AcDbEntity
  8
IMPORTED
  6
CONTINUOUS
 62
              30
100
AcDbVertex
100
AcDb2dVertex
 10
1414.9999149496393
 20
436.99983670844341
 30
0.0
  0
SEQEND
  5
13B
100
AcDbEntity
  8
IMPORTED
  6
CONTINUOUS
 62
              30
  0
LINE
  5
13C
100
AcDbEntity
  8
IMPORTED
  6
CONTINUOUS
 62
              30
100
AcDbLine
 10
1414.9999149496393
 20
280.1074367084434
 30
0.0
 11
1571.8923149496395
 21
436.99983670844341
 31
0.0
  0
LINE
  5
13D
100
AcDbEntity
  8
IMPORTED
  6
CONTINUOUS
 62
              30
100
AcDbLine
 10
1414.9999149496393
 20
110.40183670844343
 30
0.0
 11
1741.5979149496393
 21
436.99983670844341
 31
0.0
  0
LINE
  5
13E
100
AcDbEntity
  8
IMPORTED
  6
CONTINUOUS
 62
              30
100
AcDbLine
 10
1561.3035149496393
 20
86.999836708443439
 30
0.0
 11
1764.9999149496393
 21
290.69623670844339
 31
0.0
  0
LINE
  5
13F
100
AcDbEntity
  8
IMPORTED
  6
CONTINUOUS
 62
              30
100
AcDbLine
 10
1731.0091149496393
 20
86.999836708443439
 30
0.0
 11
1764.9999149496393
 21
120.99063670844342
 31
0.0
  0
LINE
  5
140
100
AcDbEntity
  8
IMPORTED
  6
CONTINUOUS
 62
              30
100
AcDbLine
 10
1414.9999149496393
 20
299.90643670844338
 30
0.0
 11
1552.0933149496393
 21
436.99983670844341
 31
0.0
  0
LINE
  5
141
100
AcDbEntity
  8
IMPORTED
  6
CONTINUOUS
 62
              30
100
AcDbLine
 10
1414.9999149496393
 20
130.20083670844343
 30
0.0
 11
1721.7989149496393
 21
436.99983670844341
 31
0.0
  0
LINE
  5
142
100
AcDbEntity
  8
IMPORTED
  6
CONTINUOUS
 62
              30
100
AcDbLine
 10
1541.5045149496393
 20
86.999836708443439
 30
0.0
 11
1764.9999149496393
 21
310.49523670844343
 31
0.0
  0
LINE
  5
143
100
AcDbEntity
  8
IMPORTED
  6
CONTINUOUS
 62
              30
100
AcDbLine
 10
1711.2101149496393
 20
86.999836708443439
 30
0.0
 11
1764.9999149496393
 21
140.78963670844342
 31
0.0
  0
LINE
  5
144
100
AcDbEntity
  8
IMPORTED
  6
CONTINUOUS
 62
              30
100
AcDbLine
 10
1414.9999149496393
 20
319.70543670844341
 30
0.0
 11
1532.2943149496393
 21
436.99983670844341
 31
0.0
  0
LINE
  5
145
100
AcDbEntity
  8
IMPORTED
  6
CONTINUOUS
 62
              30
100
AcDbLine
 10
1414.9999149496393
 20
149.99983670844341
 30
0.0
 11
1701.9999149496393
 21
436.99983670844341
 31
0.0
  0
LINE
  5
146
100
AcDbEntity
  8
IMPORTED
  6
CONTINUOUS
 62
              30
100
AcDbLine
 10
1521.7055149496393
 20
86.999836708443439
 30
0.0
 11
1764.9999149496393
 21
330.29423670844341
 31
0.0
  0
LINE
  5
147
100
AcDbEntity
  8
IMPORTED
  6
CONTINUOUS
 62
              30
100
AcDbLine
 10
1691.4111149496393
 20
86.999836708443439
 30
0.0
 11
1764.9999149496393
 21
160.58863670844343
 31
0.0
  0
POLYLINE
  5
148
100
AcDbEntity
  8
IMPORTED
  6
CONTINUOUS
 62
              30
100
AcDb2dPolyline
 66
               1
 10
0.0
 20
0.0
 30
0.0
 70
             129
  0
VERTEX
  5
149
100
AcDbEntity
  8
IMPORTED
  6
CONTINUOUS
 62
              30
100
AcDbVertex
100
AcDb2dVertex
 10
1364.9999149496393
 20
36.999936708443428
 30
0.0
  0
VERTEX
  5
14A
100
AcDbEntity
  8
IMPORTED
  6
CONTINUOUS
 62
              30
100
AcDbVertex
100
AcDb2dVertex
 10
1814.9999149496393
 20
36.999936708443428
 30
0.0
  0
VERTEX
  5
14B
100
AcDbEntity
  8
IMPORTED
  6
CONTINUOUS
 62
              30
100
AcDbVertex
100
AcDb2dVertex
 10
1814.9999149496393
 20
-63.000063291556557
 30
0.0
  0
VERTEX
  5
14C
100
AcDbEntity
  8
IMPORTED
  6
CONTINUOUS
 62
              30
100
AcDbVertex
100
AcDb2dVertex
 10
1364.9999149496393
 20
-63.000063291556557
 30
0.0
  0
VERTEX
  5
14D
100
AcDbEntity
  8
IMPORTED
  6
CONTINUOUS
 62
              30
100
AcDbVertex
100
AcDb2dVertex
 10
1364.9999149496393
 20
36.999936708443428
 30
0.0
  0
VERTEX
  5
14E
100
AcDbEntity
  8
IMPORTED
  6
CONTINUOUS
 62
              30
100
AcDbVertex
100
AcDb2dVertex
 10
1364.9999149496393
 20
36.999936708443428
 30
0.0
  0
SEQEND
  5
14F
100
AcDbEntity
  8
IMPORTED
  6
CONTINUOUS
 62
              30
  0
POLYLINE
  5
150
100
AcDbEntity
  8
IMPORTED
  6
CONTINUOUS
 62
              30
100
AcDb2dPolyline
 66
               1
 10
0.0
 20
0.0
 30
0.0
 70
             129
  0
VERTEX
  5
151
100
AcDbEntity
  8
IMPORTED
  6
CONTINUOUS
 62
              30
100
AcDbVertex
100
AcDb2dVertex
 10
1364.9999149496393
 20
86.999836708443439
 30
0.0
  0
VERTEX
  5
152
100
AcDbEntity
  8
IMPORTED
  6
CONTINUOUS
 62
              30
100
AcDbVertex
100
AcDb2dVertex
 10
1814.9999149496393
 20
86.999836708443439
 30
0.0
  0
VERTEX
  5
153
100
AcDbEntity
  8
IMPORTED
  6
CONTINUOUS
 62
              30
100
AcDbVertex
100
AcDb2dVertex
 10
1814.9999149496393
 20
36.999836708443425
 30
0.0
  0
VERTEX
  5
154
100
AcDbEntity
  8
IMPORTED
  6
CONTINUOUS
 62
              30
100
AcDbVertex
100
AcDb2dVertex
 10
1364.9999149496393
 20
36.999836708443425
 30
0.0
  0
VERTEX
  5
155
100
AcDbEntity
  8
IMPORTED
  6
CONTINUOUS
 62
              30
100
AcDbVertex
100
AcDb2dVertex
 10
1364.9999149496393
 20
86.999836708443439
 30
0.0
  0
VERTEX
  5
156
100
AcDbEntity
  8
IMPORTED
  6
CONTINUOUS
 62
              30
100
AcDbVertex
100
AcDb2dVertex
 10
1364.9999149496393
 20
86.999836708443439
 30
0.0
  0
SEQEND
  5
157
100
AcDbEntity
  8
IMPORTED
  6
CONTINUOUS
 62
              30
  0
LINE
  5
158
100
AcDbEntity
  8
IMPORTED
  6
CONTINUOUS
 62
              30
100
AcDbLine
 10
1721.8577149496393
 20
86.999836708443439
 30
0.0
 11
1771.8577149496393
 21
36.999836708443425
 31
0.0
  0
LINE
  5
159
100
AcDbEntity
  8
IMPORTED
  6
CONTINUOUS
 62
              30
100
AcDbLine
 10
1735.9999149496393
 20
86.999836708443439
 30
0.0
 11
1785.9999149496393
 21
36.999836708443425
 31
0.0
  0
LINE
  5
15A
100
AcDbEntity
  8
IMPORTED
  6
CONTINUOUS
 62
              30
100
AcDbLine
 10
1571.8577149496393
 20
86.999836708443439
 30
0.0
 11
1621.8577149496393
 21
36.999836708443425
 31
0.0
  0
LINE
  5
15B
100
AcDbEntity
  8
IMPORTED
  6
CONTINUOUS
 62
              30
100
AcDbLine
 10
1585.9999149496393
 20
86.999836708443439
 30
0.0
 11
1635.9999149496393
 21
36.999836708443425
 31
0.0
  0
LINE
  5
15C
100
AcDbEntity
  8
IMPORTED
  6
CONTINUOUS
 62
              30
100
AcDbLine
 10
1421.8577149496393
 20
86.999836708443439
 30
0.0
 11
1471.8577149496393
 21
36.999836708443425
 31
0.0
  0
LINE
  5
15D
100
AcDbEntity
  8
IMPORTED
  6
CONTINUOUS
 62
              30
100
AcDbLine
 10
1435.9999149496393
 20
86.999836708443439
 30
0.0
 11
1485.9999149496393
 21
36.999836708443425
 31
0.0
  0
LINE
  5
15E
100
AcDbEntity
  8
IMPORTED
  6
CONTINUOUS
 62
              30
100
AcDbLine
 10
1785.1286149496393
 20
-63.000063291556557
 30
0.0
 11
1727.3936149496394
 21
36.999936708443428
 31
0.0
  0
LINE
  5
15F
100
AcDbEntity
  8
IMPORTED
  6
CONTINUOUS
 62
              30
100
AcDbLine
 10
1741.8273149496395
 20
11.999836708443439
 30
0.0
 11
1756.2611149496395
 21
36.999836708443425
 31
0.0
  0
LINE
  5
160
100
AcDbEntity
  8
IMPORTED
  6
CONTINUOUS
 62
              30
100
AcDbLine
 10
1770.6948149496393
 20
-37.999863291556565
 30
0.0
 11
1756.2610149496393
 21
-63.000063291556557
 31
0.0
  0
LINE
  5
161
100
AcDbEntity
  8
IMPORTED
  6
CONTINUOUS
 62
              30
100
AcDbLine
 10
1701.1286149496393
 20
-63.000063291556557
 30
0.0
 11
1643.3936149496394
 21
36.999936708443428
 31
0.0
  0
LINE
  5
162
100
AcDbEntity
  8
IMPORTED
  6
CONTINUOUS
 62
              30
100
AcDbLine
 10
1657.8273149496395
 20
11.999836708443439
 30
0.0
 11
1672.2611149496395
 21
36.999836708443425
 31
0.0
  0
LINE
  5
163
100
AcDbEntity
  8
IMPORTED
  6
CONTINUOUS
 62
              30
100
AcDbLine
 10
1686.6948149496393
 20
-37.999863291556565
 30
0.0
 11
1672.2610149496395
 21
-63.000063291556557
 31
0.0
  0
LINE
  5
164
100
AcDbEntity
  8
IMPORTED
  6
CONTINUOUS
 62
              30
100
AcDbLine
 10
1617.1286149496393
 20
-63.000063291556557
 30
0.0
 11
1559.3936149496394
 21
36.999936708443428
 31
0.0
  0
LINE
  5
165
100
AcDbEntity
  8
IMPORTED
  6
CONTINUOUS
 62
              30
100
AcDbLine
 10
1573.8273149496395
 20
11.999836708443439
 30
0.0
 11
1588.2611149496395
 21
36.999836708443425
 31
0.0
  0
LINE
  5
166
100
AcDbEntity
  8
IMPORTED
  6
CONTINUOUS
 62
              30
100
AcDbLine
 10
1602.6948149496393
 20
-37.999863291556565
 30
0.0
 11
1588.2610149496395
 21
-63.000063291556557
 31
0.0
  0
LINE
  5
167
100
AcDbEntity
  8
IMPORTED
  6
CONTINUOUS
 62
              30
100
AcDbLine
 10
1533.1286149496393
 20
-63.000063291556557
 30
0.0
 11
1475.3936149496394
 21
36.999936708443428
 31
0.0
  0
LINE
  5
168
100
AcDbEntity
  8
IMPORTED
  6
CONTINUOUS
 62
              30
100
AcDbLine
 10
1489.8273149496395
 20
11.999836708443439
 30
0.0
 11
1504.2611149496395
 21
36.999836708443425
 31
0.0
  0
LINE
  5
169
100
AcDbEntity
  8
IMPORTED
  6
CONTINUOUS
 62
              30
100
AcDbLine
 10
1518.6948149496393
 20
-37.999863291556565
 30
0.0
 11
1504.2610149496395
 21
-63.000063291556557
 31
0.0
  0
LINE
  5
16A
100
AcDbEntity
  8
IMPORTED
  6
CONTINUOUS
 62
              30
100
AcDbLine
 10
1449.1286149496393
 20
-63.000063291556557
 30
0.0
 11
1391.3936149496394
 21
36.999936708443428
 31
0.0
  0
LINE
  5
16B
100
AcDbEntity
  8
IMPORTED
  6
CONTINUOUS
 62
              30
100
AcDbLine
 10
1405.8273149496395
 20
11.999836708443439
 30
0.0
 11
1420.2611149496395
 21
36.999836708443425
 31
0.0
  0
LINE
  5
16C
100
AcDbEntity
  8
IMPORTED
  6
CONTINUOUS
 62
              30
100
AcDbLine
 10
1434.6948149496395
 20
-37.999863291556565
 30
0.0
 11
1420.2610149496395
 21
-63.000063291556557
 31
0.0
  0
LINE
  5
16D
100
AcDbEntity
  8
IMPORTED
  6
CONTINUOUS
 62
              30
100
AcDbLine
 10
2159.9999149496393
 20
486.99983670844341
 30
0.0
 11
899.99991494963967
 21
486.99983670844341
 31
0.0
  0
LINE
  5
16E
100
AcDbEntity
  8
IMPORTED
  6
CONTINUOUS
 62
              30
100
AcDbLine
 10
-339.99988505036038
 20
486.99983670844341
 30
0.0
 11
-2489.9998850503603
 21
486.99983670844341
 31
0.0
  0
MTEXT
  5
16F
100
AcDbEntity
  8
IMPORTED
 62
              30
100
AcDbMText
 10
-2410.8554850503601
 20
561.67365977094323
 30
0.0
 40
54.2947390625
 41
0.0
 71
               1
 72
               1
  1
▽GL
  7
_______
  0
MTEXT
  5
170
100
AcDbEntity
  8
IMPORTED
 62
              30
100
AcDbMText
 10
-1435.9133850503604
 20
-511.13462016985977
 30
0.0
 40
65.153671484374996
 41
0.0
 71
               1
 72
               1
  1
正面図
  7
_______
  0
POLYLINE
  5
171
100
AcDbEntity
  8
IMPORTED
  6
CONTINUOUS
 62
              30
100
AcDb2dPolyline
 66
               1
 10
0.0
 20
0.0
 30
0.0
 70
             129
  0
VERTEX
  5
172
100
AcDbEntity
  8
IMPORTED
  6
CONTINUOUS
 62
              30
100
AcDbVertex
100
AcDb2dVertex
 10
-1480.9956850503604
 20
-492.34616329155654
 30
0.0
  0
VERTEX
  5
173
100
AcDbEntity
  8
IMPORTED
  6
CONTINUOUS
 62
              30
100
AcDbVertex
100
AcDb2dVertex
 10
-1130.9956850503604
 20
-492.34616329155654
 30
0.0
  0
VERTEX
  5
174
100
AcDbEntity
  8
IMPORTED
  6
CONTINUOUS
 62
              30
100
AcDbVertex
100
AcDb2dVertex
 10
-1130.9956850503604
 20
-592.34616329155642
 30
0.0
  0
VERTEX
  5
175
100
AcDbEntity
  8
IMPORTED
  6
CONTINUOUS
 62
              30
100
AcDbVertex
100
AcDb2dVertex
 10
-1480.9956850503604
 20
-592.34616329155642
 30
0.0
  0
VERTEX
  5
176
100
AcDbEntity
  8
IMPORTED
  6
CONTINUOUS
 62
              30
100
AcDbVertex
100
AcDb2dVertex
 10
-1480.9956850503604
 20
-492.34616329155654
 30
0.0
  0
VERTEX
  5
177
100
AcDbEntity
  8
IMPORTED
  6
CONTINUOUS
 62
              30
100
AcDbVertex
100
AcDb2dVertex
 10
-1480.9956850503604
 20
-492.34616329155654
 30
0.0
  0
SEQEND
  5
178
100
AcDbEntity
  8
IMPORTED
  6
CONTINUOUS
 62
              30
  0
MTEXT
  5
179
100
AcDbEntity
  8
IMPORTED
 62
              30
100
AcDbMText
 10
-1435.9133850503604
 20
-1950.4679201698596
 30
0.0
 40
65.153671484374996
 41
0.0
 71
               1
 72
               1
  1
平面図
  7
_______
  0
POLYLINE
  5
17A
100
AcDbEntity
  8
IMPORTED
  6
CONTINUOUS
 62
              30
100
AcDb2dPolyline
 66
               1
 10
0.0
 20
0.0
 30
0.0
 70
             129
  0
VERTEX
  5
17B
100
AcDbEntity
  8
IMPORTED
  6
CONTINUOUS
 62
              30
100
AcDbVertex
100
AcDb2dVertex
 10
-1480.9956850503604
 20
-1931.6794632915564
 30
0.0
  0
VERTEX
  5
17C
100
AcDbEntity
  8
IMPORTED
  6
CONTINUOUS
 62
              30
100
AcDbVertex
100
AcDb2dVertex
 10
-1130.9956850503604
 20
-1931.6794632915564
 30
0.0
  0
VERTEX
  5
17D
100
AcDbEntity
  8
IMPORTED
  6
CONTINUOUS
 62
              30
100
AcDbVertex
100
AcDb2dVertex
 10
-1130.9956850503604
 20
-2031.6794632915564
 30
0.0
  0
VERTEX
  5
17E
100
AcDbEntity
  8
IMPORTED
  6
CONTINUOUS
 62
              30
100
AcDbVertex
100
AcDb2dVertex
 10
-1480.9956850503604
 20
-2031.6794632915564
 30
0.0
  0
VERTEX
  5
17F
100
AcDbEntity
  8
IMPORTED
  6
CONTINUOUS
 62
              30
100
AcDbVertex
100
AcDb2dVertex
 10
-1480.9956850503604
 20
-1931.6794632915564
 30
0.0
  0
VERTEX
  5
180
100
AcDbEntity
  8
IMPORTED
  6
CONTINUOUS
 62
              30
100
AcDbVertex
100
AcDb2dVertex
 10
-1480.9956850503604
 20
-1931.6794632915564
 30
0.0
  0
SEQEND
  5
181
100
AcDbEntity
  8
IMPORTED
  6
CONTINUOUS
 62
              30
  0
POLYLINE
  5
182
100
AcDbEntity
  8
IMPORTED
  6
STYLE_02
 62
              30
100
AcDb2dPolyline
 66
               1
 10
0.0
 20
0.0
 30
0.0
 70
             129
  0
VERTEX
  5
183
100
AcDbEntity
  8
IMPORTED
  6
STYLE_02
 62
              30
100
AcDbVertex
100
AcDb2dVertex
 10
-2214.9998850503603
 20
-1284.9999632915565
 30
0.0
  0
VERTEX
  5
184
100
AcDbEntity
  8
IMPORTED
  6
STYLE_02
 62
              30
100
AcDbVertex
100
AcDb2dVertex
 10
-1864.9998850503603
 20
-1284.9999632915565
 30
0.0
  0
VERTEX
  5
185
100
AcDbEntity
  8
IMPORTED
  6
STYLE_02
 62
              30
100
AcDbVertex
100
AcDb2dVertex
 10
-1864.9998850503603
 20
-1634.9999632915565
 30
0.0
  0
VERTEX
  5
186
100
AcDbEntity
  8
IMPORTED
  6
STYLE_02
 62
              30
100
AcDbVertex
100
AcDb2dVertex
 10
-2214.9998850503603
 20
-1634.9999632915565
 30
0.0
  0
VERTEX
  5
187
100
AcDbEntity
  8
IMPORTED
  6
STYLE_02
 62
              30
100
AcDbVertex
100
AcDb2dVertex
 10
-2214.9998850503603
 20
-1284.9999632915565
 30
0.0
  0
VERTEX
  5
188
100
AcDbEntity
  8
IMPORTED
  6
STYLE_02
 62
              30
100
AcDbVertex
100
AcDb2dVertex
 10
-2214.9998850503603
 20
-1284.9999632915565
 30
0.0
  0
SEQEND
  5
189
100
AcDbEntity
  8
IMPORTED
  6
STYLE_02
 62
              30
  0
POLYLINE
  5
18A
100
AcDbEntity
  8
IMPORTED
  6
STYLE_02
 62
              30
100
AcDb2dPolyline
 66
               1
 10
0.0
 20
0.0
 30
0.0
 70
             129
  0
VERTEX
  5
18B
100
AcDbEntity
  8
IMPORTED
  6
STYLE_02
 62
              30
100
AcDbVertex
100
AcDb2dVertex
 10
-2264.9998850503603
 20
-1234.9999632915565
 30
0.0
  0
VERTEX
  5
18C
100
AcDbEntity
  8
IMPORTED
  6
STYLE_02
 62
              30
100
AcDbVertex
100
AcDb2dVertex
 10
-1814.9998850503603
 20
-1234.9999632915565
 30
0.0
  0
VERTEX
  5
18D
100
AcDbEntity
  8
IMPORTED
  6
STYLE_02
 62
              30
100
AcDbVertex
100
AcDb2dVertex
 10
-1814.9998850503603
 20
-1684.9999632915565
 30
0.0
  0
VERTEX
  5
18E
100
AcDbEntity
  8
IMPORTED
  6
STYLE_02
 62
              30
100
AcDbVertex
100
AcDb2dVertex
 10
-2264.9998850503603
 20
-1684.9999632915565
 30
0.0
  0
VERTEX
  5
18F
100
AcDbEntity
  8
IMPORTED
  6
STYLE_02
 62
              30
100
AcDbVertex
100
AcDb2dVertex
 10
-2264.9998850503603
 20
-1234.9999632915565
 30
0.0
  0
VERTEX
  5
190
100
AcDbEntity
  8
IMPORTED
  6
STYLE_02
 62
              30
100
AcDbVertex
100
AcDb2dVertex
 10
-2264.9998850503603
 20
-1234.9999632915565
 30
0.0
  0
SEQEND
  5
191
100
AcDbEntity
  8
IMPORTED
  6
STYLE_02
 62
              30
  0
POLYLINE
  5
192
100
AcDbEntity
  8
IMPORTED
  6
CONTINUOUS
 62
              30
100
AcDb2dPolyline
 66
               1
 10
0.0
 20
0.0
 30
0.0
 70
             129
  0
VERTEX
  5
193
100
AcDbEntity
  8
IMPORTED
  6
CONTINUOUS
 62
              30
100
AcDbVertex
100
AcDb2dVertex
 10
1551.7499149496393
 20
1386.9998367084434
 30
0.0
  0
VERTEX
  5
194
100
AcDbEntity
  8
IMPORTED
  6
CONTINUOUS
 62
              30
100
AcDbVertex
100
AcDb2dVertex
 10
1628.2499149496393
 20
1386.9998367084434
 30
0.0
  0
VERTEX
  5
195
100
AcDbEntity
  8
IMPORTED
  6
CONTINUOUS
 62
              30
100
AcDbVertex
100
AcDb2dVertex
 10
1632.4999149496393
 20
1381.3476367084434
 30
0.0
  0
VERTEX
  5
196
100
AcDbEntity
  8
IMPORTED
  6
CONTINUOUS
 62
              30
100
AcDbVertex
100
AcDb2dVertex
 10
1632.4999149496393
 20
86.999836708443439
 30
0.0
  0
VERTEX
  5
197
100
AcDbEntity
  8
IMPORTED
  6
CONTINUOUS
 62
              30
100
AcDbVertex
100
AcDb2dVertex
 10
1547.4999149496393
 20
86.999836708443439
 30
0.0
  0
VERTEX
  5
198
100
AcDbEntity
  8
IMPORTED
  6
CONTINUOUS
 62
              30
100
AcDbVertex
100
AcDb2dVertex
 10
1547.4999149496393
 20
1381.3476367084434
 30
0.0
  0
VERTEX
  5
199
100
AcDbEntity
  8
IMPORTED
  6
CONTINUOUS
 62
              30
100
AcDbVertex
100
AcDb2dVertex
 10
1551.7499149496393
 20
1386.9998367084434
 30
0.0
  0
SEQEND
  5
19A
100
AcDbEntity
  8
IMPORTED
  6
CONTINUOUS
 62
              30
  0
MTEXT
  5
19B
100
AcDbEntity
  8
IMPORTED
 62
              30
100
AcDbMText
 10
1461.8175149496394
 20
-511.24472016985982
 30
0.0
 40
65.153671484374996
 41
0.0
 71
               1
 72
               1
  1
側面図
  7
_______
  0
POLYLINE
  5
19C
100
AcDbEntity
  8
IMPORTED
  6
CONTINUOUS
 62
              30
100
AcDb2dPolyline
 66
               1
 10
0.0
 20
0.0
 30
0.0
 70
             129
  0
VERTEX
  5
19D
100
AcDbEntity
  8
IMPORTED
  6
CONTINUOUS
 62
              30
100
AcDbVertex
100
AcDb2dVertex
 10
1416.7350149496394
 20
-492.45626329155652
 30
0.0
  0
VERTEX
  5
19E
100
AcDbEntity
  8
IMPORTED
  6
CONTINUOUS
 62
              30
100
AcDbVertex
100
AcDb2dVertex
 10
1766.7350149496394
 20
-492.45626329155652
 30
0.0
  0
VERTEX
  5
19F
100
AcDbEntity
  8
IMPORTED
  6
CONTINUOUS
 62
              30
100
AcDbVertex
100
AcDb2dVertex
 10
1766.7350149496394
 20
-592.45626329155652
 30
0.0
  0
VERTEX
  5
1A0
100
AcDbEntity
  8
IMPORTED
  6
CONTINUOUS
 62
              30
100
AcDbVertex
100
AcDb2dVertex
 10
1416.7350149496394
 20
-592.45626329155652
 30
0.0
  0
VERTEX
  5
1A1
100
AcDbEntity
  8
IMPORTED
  6
CONTINUOUS
 62
              30
100
AcDbVertex
100
AcDb2dVertex
 10
1416.7350149496394
 20
-492.45626329155652
 30
0.0
  0
VERTEX
  5
1A2
100
AcDbEntity
  8
IMPORTED
  6
CONTINUOUS
 62
              30
100
AcDbVertex
100
AcDb2dVertex
 10
1416.7350149496394
 20
-492.45626329155652
 30
0.0
  0
SEQEND
  5
1A3
100
AcDbEntity
  8
IMPORTED
  6
CONTINUOUS
 62
              30
  0
LINE
  5
1A4
100
AcDbEntity
  8
IMPORTED
  6
CONTINUOUS
 62
              30
100
AcDbLine
 10
-2311.0000850503602
 20
-1459.9999632915565
 30
0.0
 11
-2082.4998850503603
 21
-1459.9999632915565
 31
0.0
  0
LINE
  5
1A5
100
AcDbEntity
  8
IMPORTED
  6
CONTINUOUS
 62
              30
100
AcDbLine
 10
-1997.4998850503603
 20
-1459.9999632915565
 30
0.0
 11
-582.49988505036038
 21
-1459.9999632915565
 31
0.0
  0
LINE
  5
1A6
100
AcDbEntity
  8
IMPORTED
  6
CONTINUOUS
 62
              30
100
AcDbLine
 10
-497.49988505036038
 20
-1459.9999632915565
 30
0.0
 11
-270.00008505036033
 21
-1459.9999632915565
 31
0.0
  0
MTEXT
  5
1A7
100
AcDbEntity
  8
IMPORTED
 62
              30
100
AcDbMText
 10
989.14451494963953
 20
561.67365977094323
 30
0.0
 40
54.2947390625
 41
0.0
 71
               1
 72
               1
  1
▽GL
  7
_______
  0
MTEXT
  5
1A8
100
AcDbEntity
  8
IMPORTED
 62
              30
100
AcDbMText
 10
2293.7361149496392
 20
2268.7390597709432
 30
0.0
 40
54.2947390625
 41
0.0
 71
               1
 72
               1
  1
記　　号
  7
_______
  0
MTEXT
  5
1A9
100
AcDbEntity
  8
IMPORTED
 62
              30
100
AcDbMText
 10
3040.4191149496392
 20
2272.6170597709433
 30
0.0
 40
54.2947390625
 41
0.0
 71
               1
 72
               1
  1
F-113
  7
_______
  0
MTEXT
  5
1AA
100
AcDbEntity
  8
IMPORTED
 62
              30
100
AcDbMText
 10
2293.7361149496392
 20
1910.6780597709435
 30
0.0
 40
54.2947390625
 41
0.0
 71
               1
 72
               1
  1
縮　　尺
  7
_______
  0
MTEXT
  5
1AB
100
AcDbEntity
  8
IMPORTED
 62
              30
100
AcDbMText
 10
2293.7361149496392
 20
2448.7390597709432
 30
0.0
 40
54.2947390625
 41
0.0
 71
               1
 72
               1
  1
仕　　様
  7
_______
  0
MTEXT
  5
1AC
100
AcDbEntity
  8
IMPORTED
 62
              30
100
AcDbMText
 10
2293.7361149496392
 20
2630.678059770943
 30
0.0
 40
54.2947390625
 41
0.0
 71
               1
 72
               1
  1
品　　名
  7
_______
  0
MTEXT
  5
1AD
100
AcDbEntity
  8
IMPORTED
 62
              30
100
AcDbMText
 10
2898.4991149496391
 20
2628.7390597709432
 30
0.0
 40
54.2947390625
 41
0.0
 71
               1
 72
               1
  1
ＥＳＷフェンス
  7
_______
  0
MTEXT
  5
1AE
100
AcDbEntity
  8
IMPORTED
 62
              30
100
AcDbMText
 10
2793.9271149496394
 20
2449.332059770943
 30
0.0
 40
54.2947390625
 41
0.0
 71
               1
 72
               1
  1
ＥＩＮスーパーウッド
  7
_______
  0
LINE
  5
1AF
100
AcDbEntity
  8
IMPORTED
  6
CONTINUOUS
 62
              30
100
AcDbLine
 10
3751.0000149496391
 20
2508.9999367084429
 30
0.0
 11
2251.0000149496395
 21
2508.9999367084429
 31
0.0
  0
LINE
  5
1B0
100
AcDbEntity
  8
IMPORTED
  6
CONTINUOUS
 62
              30
100
AcDbLine
 10
3751.0000149496391
 20
2328.9999367084429
 30
0.0
 11
2251.0000149496395
 21
2328.9999367084429
 31
0.0
  0
LINE
  5
1B1
100
AcDbEntity
  8
IMPORTED
  6
CONTINUOUS
 62
              30
100
AcDbLine
 10
3751.0000149496391
 20
2148.9999367084429
 30
0.0
 11
2251.0000149496395
 21
2148.9999367084429
 31
0.0
  0
LINE
  5
1B2
100
AcDbEntity
  8
IMPORTED
  6
CONTINUOUS
 62
              30
100
AcDbLine
 10
3751.0000149496391
 20
1968.9999367084433
 30
0.0
 11
2251.0000149496395
 21
1968.9999367084433
 31
0.0
  0
LINE
  5
1B3
100
AcDbEntity
  8
IMPORTED
  6
CONTINUOUS
 62
              30
100
AcDbLine
 10
3751.0000149496391
 20
1788.9999367084433
 30
0.0
 11
2251.0000149496395
 21
1788.9999367084433
 31
0.0
  0
LINE
  5
1B4
100
AcDbEntity
  8
IMPORTED
  6
CONTINUOUS
 62
              30
100
AcDbLine
 10
2651.0000149496391
 20
2688.9999367084429
 30
0.0
 11
2651.0000149496391
 21
1788.9999367084433
 31
0.0
  0
LINE
  5
1B5
100
AcDbEntity
  8
IMPORTED
  6
CONTINUOUS
 62
              30
100
AcDbLine
 10
2251.0000149496395
 20
2688.9999367084429
 30
0.0
 11
2251.0000149496395
 21
1788.9999367084433
 31
0.0
  0
MTEXT
  5
1B6
100
AcDbEntity
  8
IMPORTED
 62
              30
100
AcDbMText
 10
2900.9891149496393
 20
2092.6170597709433
 30
0.0
 40
54.2947390625
 41
0.0
 71
               1
 72
               1
  1
H750×L1500
  7
_______
  0
MTEXT
  5
1B7
100
AcDbEntity
  8
IMPORTED
 62
              30
100
AcDbMText
 10
2293.7361149496392
 20
2088.7390597709432
 30
0.0
 40
54.2947390625
 41
0.0
 71
               1
 72
               1
  1
規格寸法
  7
_______
  0
MTEXT
  5
1B8
100
AcDbEntity
  8
IMPORTED
 62
              30
100
AcDbMText
 10
2969.4691149496393
 20
1908.7390597709434
 30
0.0
 40
54.2947390625
 41
0.0
 71
               1
 72
               1
  1
1：20(A3)
  7
_______
  0
LINE
  5
1B9
100
AcDbEntity
  8
IMPORTED
  6
CONTINUOUS
 62
              30
100
AcDbLine
 10
1547.4999149496393
 20
1381.9998367084434
 30
0.0
 11
1632.4999149496393
 21
1381.9998367084434
 31
0.0
  0
LINE
  5
1BA
100
AcDbEntity
  8
IMPORTED
  6
CONTINUOUS
 62
              30
100
AcDbLine
 10
1627.4999149496393
 20
1386.9998367084434
 30
0.0
 11
1627.4999149496393
 21
86.999836708443439
 31
0.0
  0
LINE
  5
1BB
100
AcDbEntity
  8
IMPORTED
  6
CONTINUOUS
 62
              30
100
AcDbLine
 10
1552.4999149496393
 20
86.999836708443439
 30
0.0
 11
1552.4999149496393
 21
1386.9998367084434
 31
0.0
  0
LINE
  5
1BC
100
AcDbEntity
  8
IMPORTED
  6
CONTINUOUS
 62
              30
100
AcDbLine
 10
-577.49988505036038
 20
86.999836708443439
 30
0.0
 11
-577.49988505036038
 21
1386.9998367084434
 31
0.0
  0
LINE
  5
1BD
100
AcDbEntity
  8
IMPORTED
  6
CONTINUOUS
 62
              30
100
AcDbLine
 10
-502.49988505036038
 20
1386.9998367084434
 30
0.0
 11
-502.49988505036038
 21
86.999836708443439
 31
0.0
  0
POLYLINE
  5
1BE
100
AcDbEntity
  8
IMPORTED
  6
CONTINUOUS
 62
              30
100
AcDb2dPolyline
 66
               1
 10
0.0
 20
0.0
 30
0.0
 70
             129
  0
VERTEX
  5
1BF
100
AcDbEntity
  8
IMPORTED
  6
CONTINUOUS
 62
              30
100
AcDbVertex
100
AcDb2dVertex
 10
-578.24988505036038
 20
1386.9998367084434
 30
0.0
  0
VERTEX
  5
1C0
100
AcDbEntity
  8
IMPORTED
  6
CONTINUOUS
 62
              30
100
AcDbVertex
100
AcDb2dVertex
 10
-501.74988505036038
 20
1386.9998367084434
 30
0.0
  0
VERTEX
  5
1C1
100
AcDbEntity
  8
IMPORTED
  6
CONTINUOUS
 62
              30
100
AcDbVertex
100
AcDb2dVertex
 10
-497.49988505036038
 20
1381.3476367084434
 30
0.0
  0
VERTEX
  5
1C2
100
AcDbEntity
  8
IMPORTED
  6
CONTINUOUS
 62
              30
100
AcDbVertex
100
AcDb2dVertex
 10
-497.49988505036038
 20
86.999836708443439
 30
0.0
  0
VERTEX
  5
1C3
100
AcDbEntity
  8
IMPORTED
  6
CONTINUOUS
 62
              30
100
AcDbVertex
100
AcDb2dVertex
 10
-582.49988505036038
 20
86.999836708443439
 30
0.0
  0
VERTEX
  5
1C4
100
AcDbEntity
  8
IMPORTED
  6
CONTINUOUS
 62
              30
100
AcDbVertex
100
AcDb2dVertex
 10
-582.49988505036038
 20
1381.3476367084434
 30
0.0
  0
VERTEX
  5
1C5
100
AcDbEntity
  8
IMPORTED
  6
CONTINUOUS
 62
              30
100
AcDbVertex
100
AcDb2dVertex
 10
-578.24988505036038
 20
1386.9998367084434
 30
0.0
  0
SEQEND
  5
1C6
100
AcDbEntity
  8
IMPORTED
  6
CONTINUOUS
 62
              30
  0
LINE
  5
1C7
100
AcDbEntity
  8
IMPORTED
  6
CONTINUOUS
 62
              30
100
AcDbLine
 10
-582.49988505036038
 20
1381.9998367084434
 30
0.0
 11
-497.49988505036038
 21
1381.9998367084434
 31
0.0
  0
LINE
  5
1C8
100
AcDbEntity
  8
IMPORTED
  6
CONTINUOUS
 62
              30
100
AcDbLine
 10
-2077.4998850503603
 20
86.999836708443439
 30
0.0
 11
-2077.4998850503603
 21
1386.9998367084434
 31
0.0
  0
LINE
  5
1C9
100
AcDbEntity
  8
IMPORTED
  6
CONTINUOUS
 62
              30
100
AcDbLine
 10
-2002.4998850503603
 20
1386.9998367084434
 30
0.0
 11
-2002.4998850503603
 21
86.999836708443439
 31
0.0
  0
POLYLINE
  5
1CA
100
AcDbEntity
  8
IMPORTED
  6
CONTINUOUS
 62
              30
100
AcDb2dPolyline
 66
               1
 10
0.0
 20
0.0
 30
0.0
 70
             129
  0
VERTEX
  5
1CB
100
AcDbEntity
  8
IMPORTED
  6
CONTINUOUS
 62
              30
100
AcDbVertex
100
AcDb2dVertex
 10
-2078.2498850503603
 20
1386.9998367084434
 30
0.0
  0
VERTEX
  5
1CC
100
AcDbEntity
  8
IMPORTED
  6
CONTINUOUS
 62
              30
100
AcDbVertex
100
AcDb2dVertex
 10
-2001.7498850503603
 20
1386.9998367084434
 30
0.0
  0
VERTEX
  5
1CD
100
AcDbEntity
  8
IMPORTED
  6
CONTINUOUS
 62
              30
100
AcDbVertex
100
AcDb2dVertex
 10
-1997.4998850503603
 20
1381.3476367084434
 30
0.0
  0
VERTEX
  5
1CE
100
AcDbEntity
  8
IMPORTED
  6
CONTINUOUS
 62
              30
100
AcDbVertex
100
AcDb2dVertex
 10
-1997.4998850503603
 20
86.999836708443439
 30
0.0
  0
VERTEX
  5
1CF
100
AcDbEntity
  8
IMPORTED
  6
CONTINUOUS
 62
              30
100
AcDbVertex
100
AcDb2dVertex
 10
-2082.4998850503603
 20
86.999836708443439
 30
0.0
  0
VERTEX
  5
1D0
100
AcDbEntity
  8
IMPORTED
  6
CONTINUOUS
 62
              30
100
AcDbVertex
100
AcDb2dVertex
 10
-2082.4998850503603
 20
1381.3476367084434
 30
0.0
  0
VERTEX
  5
1D1
100
AcDbEntity
  8
IMPORTED
  6
CONTINUOUS
 62
              30
100
AcDbVertex
100
AcDb2dVertex
 10
-2078.2498850503603
 20
1386.9998367084434
 30
0.0
  0
SEQEND
  5
1D2
100
AcDbEntity
  8
IMPORTED
  6
CONTINUOUS
 62
              30
  0
LINE
  5
1D3
100
AcDbEntity
  8
IMPORTED
  6
CONTINUOUS
 62
              30
100
AcDbLine
 10
-2082.4998850503603
 20
1381.9998367084434
 30
0.0
 11
-1997.4998850503603
 21
1381.9998367084434
 31
0.0
  0
MTEXT
  5
1D4
100
AcDbEntity
  8
IMPORTED
 62
              30
100
AcDbMText
 10
2185.7456149496393
 20
-2608.6504945415563
 30
0.0
 40
97.73046875
 41
0.0
 71
               1
 72
               1
  1
イー・トップ株式会社
  7
_______
  0
LINE
  5
1D5
100
AcDbEntity
  8
IMPORTED
  6
CONTINUOUS
 62
              30
100
AcDbLine
 10
-4048.9998850503603
 20
-2510.9999632915565
 30
0.0
 11
3751.0001149496393
 21
-2510.9999632915565
 31
0.0
  0
POLYLINE
  5
1D6
100
AcDbEntity
  8
IMPORTED
  6
CONTINUOUS
 62
              30
100
AcDb2dPolyline
 66
               1
 10
0.0
 20
0.0
 30
0.0
 70
             129
  0
VERTEX
  5
1D7
100
AcDbEntity
  8
IMPORTED
  6
CONTINUOUS
 62
              30
100
AcDbVertex
100
AcDb2dVertex
 10
-4048.9998850503603
 20
2688.9999367084429
 30
0.0
  0
VERTEX
  5
1D8
100
AcDbEntity
  8
IMPORTED
  6
CONTINUOUS
 62
              30
100
AcDbVertex
100
AcDb2dVertex
 10
3751.0001149496393
 20
2688.9999367084429
 30
0.0
  0
VERTEX
  5
1D9
100
AcDbEntity
  8
IMPORTED
  6
CONTINUOUS
 62
              30
100
AcDbVertex
100
AcDb2dVertex
 10
3751.0001149496393
 20
-2811.0000632915567
 30
0.0
  0
VERTEX
  5
1DA
100
AcDbEntity
  8
IMPORTED
  6
CONTINUOUS
 62
              30
100
AcDbVertex
100
AcDb2dVertex
 10
-4048.9998850503603
 20
-2811.0000632915567
 30
0.0
  0
VERTEX
  5
1DB
100
AcDbEntity
  8
IMPORTED
  6
CONTINUOUS
 62
              30
100
AcDbVertex
100
AcDb2dVertex
 10
-4048.9998850503603
 20
2688.9999367084429
 30
0.0
  0
SEQEND
  5
1DC
100
AcDbEntity
  8
IMPORTED
  6
CONTINUOUS
 62
              30
  0
CIRCLE
  5
1DD
100
AcDbEntity
  8
IMPORTED
  6
CONTINUOUS
 62
              30
100
AcDbCircle
 10
1589.9999149496393
 20
1236.9998367084434
 30
0.0
 40
6.0
  0
POLYLINE
  5
1DE
100
AcDbEntity
  8
IMPORTED
  6
CONTINUOUS
 62
              30
100
AcDb2dPolyline
 66
               1
 10
0.0
 20
0.0
 30
0.0
 70
             129
  0
VERTEX
  5
1DF
100
AcDbEntity
  8
IMPORTED
  6
CONTINUOUS
 62
              30
100
AcDbVertex
100
AcDb2dVertex
 10
-714.99988505036026
 20
436.99983670844341
 30
0.0
  0
VERTEX
  5
1E0
100
AcDbEntity
  8
IMPORTED
  6
CONTINUOUS
 62
              30
100
AcDbVertex
100
AcDb2dVertex
 10
-364.99988505036038
 20
436.99983670844341
 30
0.0
  0
VERTEX
  5
1E1
100
AcDbEntity
  8
IMPORTED
  6
CONTINUOUS
 62
              30
100
AcDbVertex
100
AcDb2dVertex
 10
-364.99988505036038
 20
86.999836708443439
 30
0.0
  0
VERTEX
  5
1E2
100
AcDbEntity
  8
IMPORTED
  6
CONTINUOUS
 62
              30
100
AcDbVertex
100
AcDb2dVertex
 10
-714.99988505036026
 20
86.999836708443439
 30
0.0
  0
VERTEX
  5
1E3
100
AcDbEntity
  8
IMPORTED
  6
CONTINUOUS
 62
              30
100
AcDbVertex
100
AcDb2dVertex
 10
-714.99988505036026
 20
436.99983670844341
 30
0.0
  0
VERTEX
  5
1E4
100
AcDbEntity
  8
IMPORTED
  6
CONTINUOUS
 62
              30
100
AcDbVertex
100
AcDb2dVertex
 10
-714.99988505036026
 20
436.99983670844341
 30
0.0
  0
SEQEND
  5
1E5
100
AcDbEntity
  8
IMPORTED
  6
CONTINUOUS
 62
              30
  0
LINE
  5
1E6
100
AcDbEntity
  8
IMPORTED
  6
CONTINUOUS
 62
              30
100
AcDbLine
 10
-714.99988505036026
 20
280.1074367084434
 30
0.0
 11
-558.10748505036031
 21
436.99983670844341
 31
0.0
  0
LINE
  5
1E7
100
AcDbEntity
  8
IMPORTED
  6
CONTINUOUS
 62
              30
100
AcDbLine
 10
-714.99988505036026
 20
110.40183670844343
 30
0.0
 11
-388.40188505036031
 21
436.99983670844341
 31
0.0
  0
LINE
  5
1E8
100
AcDbEntity
  8
IMPORTED
  6
CONTINUOUS
 62
              30
100
AcDbLine
 10
-568.6962850503603
 20
86.999836708443439
 30
0.0
 11
-364.99988505036038
 21
290.69623670844339
 31
0.0
  0
LINE
  5
1E9
100
AcDbEntity
  8
IMPORTED
  6
CONTINUOUS
 62
              30
100
AcDbLine
 10
-398.9906850503603
 20
86.999836708443439
 30
0.0
 11
-364.99988505036038
 21
120.99063670844342
 31
0.0
  0
LINE
  5
1EA
100
AcDbEntity
  8
IMPORTED
  6
CONTINUOUS
 62
              30
100
AcDbLine
 10
-714.99988505036026
 20
299.90643670844338
 30
0.0
 11
-577.90648505036029
 21
436.99983670844341
 31
0.0
  0
LINE
  5
1EB
100
AcDbEntity
  8
IMPORTED
  6
CONTINUOUS
 62
              30
100
AcDbLine
 10
-714.99988505036026
 20
130.20083670844343
 30
0.0
 11
-408.20088505036028
 21
436.99983670844341
 31
0.0
  0
LINE
  5
1EC
100
AcDbEntity
  8
IMPORTED
  6
CONTINUOUS
 62
              30
100
AcDbLine
 10
-588.49528505036028
 20
86.999836708443439
 30
0.0
 11
-364.99988505036038
 21
310.49523670844343
 31
0.0
  0
LINE
  5
1ED
100
AcDbEntity
  8
IMPORTED
  6
CONTINUOUS
 62
              30
100
AcDbLine
 10
-418.78968505036039
 20
86.999836708443439
 30
0.0
 11
-364.99988505036038
 21
140.78963670844342
 31
0.0
  0
LINE
  5
1EE
100
AcDbEntity
  8
IMPORTED
  6
CONTINUOUS
 62
              30
100
AcDbLine
 10
-714.99988505036026
 20
319.70543670844341
 30
0.0
 11
-597.70548505036027
 21
436.99983670844341
 31
0.0
  0
LINE
  5
1EF
100
AcDbEntity
  8
IMPORTED
  6
CONTINUOUS
 62
              30
100
AcDbLine
 10
-714.99988505036026
 20
149.99983670844341
 30
0.0
 11
-427.99988505036038
 21
436.99983670844341
 31
0.0
  0
LINE
  5
1F0
100
AcDbEntity
  8
IMPORTED
  6
CONTINUOUS
 62
              30
100
AcDbLine
 10
-608.29428505036037
 20
86.999836708443439
 30
0.0
 11
-364.99988505036038
 21
330.29423670844341
 31
0.0
  0
LINE
  5
1F1
100
AcDbEntity
  8
IMPORTED
  6
CONTINUOUS
 62
              30
100
AcDbLine
 10
-438.58868505036037
 20
86.999836708443439
 30
0.0
 11
-364.99988505036038
 21
160.58863670844343
 31
0.0
  0
POLYLINE
  5
1F2
100
AcDbEntity
  8
IMPORTED
  6
CONTINUOUS
 62
              30
100
AcDb2dPolyline
 66
               1
 10
0.0
 20
0.0
 30
0.0
 70
             129
  0
VERTEX
  5
1F3
100
AcDbEntity
  8
IMPORTED
  6
CONTINUOUS
 62
              30
100
AcDbVertex
100
AcDb2dVertex
 10
-764.99988505036026
 20
36.999936708443428
 30
0.0
  0
VERTEX
  5
1F4
100
AcDbEntity
  8
IMPORTED
  6
CONTINUOUS
 62
              30
100
AcDbVertex
100
AcDb2dVertex
 10
-314.99988505036038
 20
36.999936708443428
 30
0.0
  0
VERTEX
  5
1F5
100
AcDbEntity
  8
IMPORTED
  6
CONTINUOUS
 62
              30
100
AcDbVertex
100
AcDb2dVertex
 10
-314.99988505036038
 20
-63.000063291556557
 30
0.0
  0
VERTEX
  5
1F6
100
AcDbEntity
  8
IMPORTED
  6
CONTINUOUS
 62
              30
100
AcDbVertex
100
AcDb2dVertex
 10
-764.99988505036026
 20
-63.000063291556557
 30
0.0
  0
VERTEX
  5
1F7
100
AcDbEntity
  8
IMPORTED
  6
CONTINUOUS
 62
              30
100
AcDbVertex
100
AcDb2dVertex
 10
-764.99988505036026
 20
36.999936708443428
 30
0.0
  0
VERTEX
  5
1F8
100
AcDbEntity
  8
IMPORTED
  6
CONTINUOUS
 62
              30
100
AcDbVertex
100
AcDb2dVertex
 10
-764.99988505036026
 20
36.999936708443428
 30
0.0
  0
SEQEND
  5
1F9
100
AcDbEntity
  8
IMPORTED
  6
CONTINUOUS
 62
              30
  0
POLYLINE
  5
1FA
100
AcDbEntity
  8
IMPORTED
  6
CONTINUOUS
 62
              30
100
AcDb2dPolyline
 66
               1
 10
0.0
 20
0.0
 30
0.0
 70
             129
  0
VERTEX
  5
1FB
100
AcDbEntity
  8
IMPORTED
  6
CONTINUOUS
 62
              30
100
AcDbVertex
100
AcDb2dVertex
 10
-764.99988505036026
 20
86.999836708443439
 30
0.0
  0
VERTEX
  5
1FC
100
AcDbEntity
  8
IMPORTED
  6
CONTINUOUS
 62
              30
100
AcDbVertex
100
AcDb2dVertex
 10
-314.99988505036038
 20
86.999836708443439
 30
0.0
  0
VERTEX
  5
1FD
100
AcDbEntity
  8
IMPORTED
  6
CONTINUOUS
 62
              30
100
AcDbVertex
100
AcDb2dVertex
 10
-314.99988505036038
 20
36.999836708443425
 30
0.0
  0
VERTEX
  5
1FE
100
AcDbEntity
  8
IMPORTED
  6
CONTINUOUS
 62
              30
100
AcDbVertex
100
AcDb2dVertex
 10
-764.99988505036026
 20
36.999836708443425
 30
0.0
  0
VERTEX
  5
1FF
100
AcDbEntity
  8
IMPORTED
  6
CONTINUOUS
 62
              30
100
AcDbVertex
100
AcDb2dVertex
 10
-764.99988505036026
 20
86.999836708443439
 30
0.0
  0
VERTEX
  5
200
100
AcDbEntity
  8
IMPORTED
  6
CONTINUOUS
 62
              30
100
AcDbVertex
100
AcDb2dVertex
 10
-764.99988505036026
 20
86.999836708443439
 30
0.0
  0
SEQEND
  5
201
100
AcDbEntity
  8
IMPORTED
  6
CONTINUOUS
 62
              30
  0
LINE
  5
202
100
AcDbEntity
  8
IMPORTED
  6
CONTINUOUS
 62
              30
100
AcDbLine
 10
-408.14208505036038
 20
86.999836708443439
 30
0.0
 11
-358.14208505036038
 21
36.999836708443425
 31
0.0
  0
LINE
  5
203
100
AcDbEntity
  8
IMPORTED
  6
CONTINUOUS
 62
              30
100
AcDbLine
 10
-393.99988505036038
 20
86.999836708443439
 30
0.0
 11
-343.99988505036038
 21
36.999836708443425
 31
0.0
  0
LINE
  5
204
100
AcDbEntity
  8
IMPORTED
  6
CONTINUOUS
 62
              30
100
AcDbLine
 10
-558.14208505036038
 20
86.999836708443439
 30
0.0
 11
-508.14208505036038
 21
36.999836708443425
 31
0.0
  0
LINE
  5
205
100
AcDbEntity
  8
IMPORTED
  6
CONTINUOUS
 62
              30
100
AcDbLine
 10
-543.99988505036038
 20
86.999836708443439
 30
0.0
 11
-493.99988505036038
 21
36.999836708443425
 31
0.0
  0
LINE
  5
206
100
AcDbEntity
  8
IMPORTED
  6
CONTINUOUS
 62
              30
100
AcDbLine
 10
-708.14208505036027
 20
86.999836708443439
 30
0.0
 11
-658.14208505036027
 21
36.999836708443425
 31
0.0
  0
LINE
  5
207
100
AcDbEntity
  8
IMPORTED
  6
CONTINUOUS
 62
              30
100
AcDbLine
 10
-693.99988505036026
 20
86.999836708443439
 30
0.0
 11
-643.99988505036026
 21
36.999836708443425
 31
0.0
  0
LINE
  5
208
100
AcDbEntity
  8
IMPORTED
  6
CONTINUOUS
 62
              30
100
AcDbLine
 10
-344.87118505036034
 20
-63.000063291556557
 30
0.0
 11
-402.6061850503603
 21
36.999936708443428
 31
0.0
  0
LINE
  5
209
100
AcDbEntity
  8
IMPORTED
  6
CONTINUOUS
 62
              30
100
AcDbLine
 10
-388.17248505036036
 20
11.999836708443439
 30
0.0
 11
-373.73868505036035
 21
36.999836708443425
 31
0.0
  0
LINE
  5
20A
100
AcDbEntity
  8
IMPORTED
  6
CONTINUOUS
 62
              30
100
AcDbLine
 10
-359.3049850503603
 20
-37.999863291556565
 30
0.0
 11
-373.73878505036032
 21
-63.000063291556557
 31
0.0
  0
LINE
  5
20B
100
AcDbEntity
  8
IMPORTED
  6
CONTINUOUS
 62
              30
100
AcDbLine
 10
-428.87118505036028
 20
-63.000063291556557
 30
0.0
 11
-486.6061850503603
 21
36.999936708443428
 31
0.0
  0
LINE
  5
20C
100
AcDbEntity
  8
IMPORTED
  6
CONTINUOUS
 62
              30
100
AcDbLine
 10
-472.17248505036036
 20
11.999836708443439
 30
0.0
 11
-457.73868505036035
 21
36.999836708443425
 31
0.0
  0
LINE
  5
20D
100
AcDbEntity
  8
IMPORTED
  6
CONTINUOUS
 62
              30
100
AcDbLine
 10
-443.3049850503603
 20
-37.999863291556565
 30
0.0
 11
-457.73878505036032
 21
-63.000063291556557
 31
0.0
  0
LINE
  5
20E
100
AcDbEntity
  8
IMPORTED
  6
CONTINUOUS
 62
              30
100
AcDbLine
 10
-512.87118505036028
 20
-63.000063291556557
 30
0.0
 11
-570.6061850503603
 21
36.999936708443428
 31
0.0
  0
LINE
  5
20F
100
AcDbEntity
  8
IMPORTED
  6
CONTINUOUS
 62
              30
100
AcDbLine
 10
-556.17248505036036
 20
11.999836708443439
 30
0.0
 11
-541.73868505036035
 21
36.999836708443425
 31
0.0
  0
LINE
  5
210
100
AcDbEntity
  8
IMPORTED
  6
CONTINUOUS
 62
              30
100
AcDbLine
 10
-527.3049850503603
 20
-37.999863291556565
 30
0.0
 11
-541.73878505036032
 21
-63.000063291556557
 31
0.0
  0
LINE
  5
211
100
AcDbEntity
  8
IMPORTED
  6
CONTINUOUS
 62
              30
100
AcDbLine
 10
-596.87118505036028
 20
-63.000063291556557
 30
0.0
 11
-654.6061850503603
 21
36.999936708443428
 31
0.0
  0
LINE
  5
212
100
AcDbEntity
  8
IMPORTED
  6
CONTINUOUS
 62
              30
100
AcDbLine
 10
-640.17248505036036
 20
11.999836708443439
 30
0.0
 11
-625.73868505036035
 21
36.999836708443425
 31
0.0
  0
LINE
  5
213
100
AcDbEntity
  8
IMPORTED
  6
CONTINUOUS
 62
              30
100
AcDbLine
 10
-611.3049850503603
 20
-37.999863291556565
 30
0.0
 11
-625.73878505036032
 21
-63.000063291556557
 31
0.0
  0
LINE
  5
214
100
AcDbEntity
  8
IMPORTED
  6
CONTINUOUS
 62
              30
100
AcDbLine
 10
-680.87118505036028
 20
-63.000063291556557
 30
0.0
 11
-738.6061850503603
 21
36.999936708443428
 31
0.0
  0
LINE
  5
215
100
AcDbEntity
  8
IMPORTED
  6
CONTINUOUS
 62
              30
100
AcDbLine
 10
-724.17248505036025
 20
11.999836708443439
 30
0.0
 11
-709.73868505036023
 21
36.999836708443425
 31
0.0
  0
LINE
  5
216
100
AcDbEntity
  8
IMPORTED
  6
CONTINUOUS
 62
              30
100
AcDbLine
 10
-695.3049850503603
 20
-37.999863291556565
 30
0.0
 11
-709.73878505036032
 21
-63.000063291556557
 31
0.0
  0
POLYLINE
  5
217
100
AcDbEntity
  8
IMPORTED
  6
CONTINUOUS
 62
              30
100
AcDb2dPolyline
 66
               1
 10
0.0
 20
0.0
 30
0.0
 70
             129
  0
VERTEX
  5
218
100
AcDbEntity
  8
IMPORTED
  6
CONTINUOUS
 62
              30
100
AcDbVertex
100
AcDb2dVertex
 10
-582.49988505036038
 20
436.99983670844341
 30
0.0
  0
VERTEX
  5
219
100
AcDbEntity
  8
IMPORTED
  6
CONTINUOUS
 62
              30
100
AcDbVertex
100
AcDb2dVertex
 10
-497.49988505036038
 20
436.99983670844341
 30
0.0
  0
VERTEX
  5
21A
100
AcDbEntity
  8
IMPORTED
  6
CONTINUOUS
 62
              30
100
AcDbVertex
100
AcDb2dVertex
 10
-497.49988505036038
 20
86.999836708443439
 30
0.0
  0
VERTEX
  5
21B
100
AcDbEntity
  8
IMPORTED
  6
CONTINUOUS
 62
              30
100
AcDbVertex
100
AcDb2dVertex
 10
-582.49988505036038
 20
86.999836708443439
 30
0.0
  0
VERTEX
  5
21C
100
AcDbEntity
  8
IMPORTED
  6
CONTINUOUS
 62
              30
100
AcDbVertex
100
AcDb2dVertex
 10
-582.49988505036038
 20
436.99983670844341
 30
0.0
  0
SEQEND
  5
21D
100
AcDbEntity
  8
IMPORTED
  6
CONTINUOUS
 62
              30
  0
LINE
  5
21E
100
AcDbEntity
  8
IMPORTED
  6
CONTINUOUS
 62
              30
100
AcDbLine
 10
-582.49978505036029
 20
429.06773670844342
 30
0.0
 11
-575.75758505036038
 21
436.99973670844338
 31
0.0
  0
LINE
  5
21F
100
AcDbEntity
  8
IMPORTED
  6
CONTINUOUS
 62
              30
100
AcDbLine
 10
-582.49978505036029
 20
384.8735367084434
 30
0.0
 11
-538.19248505036035
 21
436.99973670844338
 31
0.0
  0
LINE
  5
220
100
AcDbEntity
  8
IMPORTED
  6
CONTINUOUS
 62
              30
100
AcDbLine
 10
-582.49978505036029
 20
340.67933670844343
 30
0.0
 11
-500.62748505036029
 21
436.99973670844338
 31
0.0
  0
LINE
  5
221
100
AcDbEntity
  8
IMPORTED
  6
CONTINUOUS
 62
              30
100
AcDbLine
 10
-582.49988505036038
 20
296.48513670844341
 30
0.0
 11
-497.49988505036038
 21
396.48513670844341
 31
0.0
  0
LINE
  5
222
100
AcDbEntity
  8
IMPORTED
  6
CONTINUOUS
 62
              30
100
AcDbLine
 10
-582.49988505036038
 20
252.29103670844341
 30
0.0
 11
-497.49988505036038
 21
352.29103670844341
 31
0.0
  0
LINE
  5
223
100
AcDbEntity
  8
IMPORTED
  6
CONTINUOUS
 62
              30
100
AcDbLine
 10
-582.49988505036038
 20
208.09693670844342
 30
0.0
 11
-497.49988505036038
 21
308.09693670844342
 31
0.0
  0
LINE
  5
224
100
AcDbEntity
  8
IMPORTED
  6
CONTINUOUS
 62
              30
100
AcDbLine
 10
-582.49988505036038
 20
163.90273670844343
 30
0.0
 11
-497.49988505036038
 21
263.9027367084434
 31
0.0
  0
LINE
  5
225
100
AcDbEntity
  8
IMPORTED
  6
CONTINUOUS
 62
              30
100
AcDbLine
 10
-582.49988505036038
 20
119.70853670844343
 30
0.0
 11
-497.49988505036038
 21
219.70853670844343
 31
0.0
  0
LINE
  5
226
100
AcDbEntity
  8
IMPORTED
  6
CONTINUOUS
 62
              30
100
AcDbLine
 10
-572.73728505036036
 20
86.999836708443439
 30
0.0
 11
-497.49988505036038
 21
175.51443670844341
 31
0.0
  0
LINE
  5
227
100
AcDbEntity
  8
IMPORTED
  6
CONTINUOUS
 62
              30
100
AcDbLine
 10
-535.17218505036033
 20
86.999836708443439
 30
0.0
 11
-497.49988505036038
 21
131.32023670844342
 31
0.0
  0
LINE
  5
228
100
AcDbEntity
  8
IMPORTED
  6
CONTINUOUS
 62
              30
100
AcDbLine
 10
-497.60718505036039
 20
86.999836708443439
 30
0.0
 11
-497.49988505036038
 21
87.126036708443422
 31
0.0
  0
LINE
  5
229
100
AcDbEntity
  8
IMPORTED
  6
CONTINUOUS
 62
              30
100
AcDbLine
 10
-570.3769850503603
 20
86.999836708443439
 30
0.0
 11
-582.49988505036038
 21
101.26203670844342
 31
0.0
  0
LINE
  5
22A
100
AcDbEntity
  8
IMPORTED
  6
CONTINUOUS
 62
              30
100
AcDbLine
 10
-532.81198505036036
 20
86.999836708443439
 30
0.0
 11
-582.49988505036038
 21
145.45623670844341
 31
0.0
  0
LINE
  5
22B
100
AcDbEntity
  8
IMPORTED
  6
CONTINUOUS
 62
              30
100
AcDbLine
 10
-497.49988505036038
 20
89.650436708443436
 30
0.0
 11
-582.49988505036038
 21
189.65043670844341
 31
0.0
  0
LINE
  5
22C
100
AcDbEntity
  8
IMPORTED
  6
CONTINUOUS
 62
              30
100
AcDbLine
 10
-497.49988505036038
 20
133.84453670844343
 30
0.0
 11
-582.49988505036038
 21
233.8445367084434
 31
0.0
  0
LINE
  5
22D
100
AcDbEntity
  8
IMPORTED
  6
CONTINUOUS
 62
              30
100
AcDbLine
 10
-497.49988505036038
 20
178.03873670844342
 30
0.0
 11
-582.49988505036038
 21
278.03873670844342
 31
0.0
  0
LINE
  5
22E
100
AcDbEntity
  8
IMPORTED
  6
CONTINUOUS
 62
              30
100
AcDbLine
 10
-497.49988505036038
 20
222.23283670844341
 30
0.0
 11
-582.49988505036038
 21
322.23283670844341
 31
0.0
  0
LINE
  5
22F
100
AcDbEntity
  8
IMPORTED
  6
CONTINUOUS
 62
              30
100
AcDbLine
 10
-497.49988505036038
 20
266.42703670844344
 30
0.0
 11
-582.49988505036038
 21
366.42703670844338
 31
0.0
  0
LINE
  5
230
100
AcDbEntity
  8
IMPORTED
  6
CONTINUOUS
 62
              30
100
AcDbLine
 10
-497.49988505036038
 20
310.62113670844343
 30
0.0
 11
-582.49988505036038
 21
410.62113670844337
 31
0.0
  0
LINE
  5
231
100
AcDbEntity
  8
IMPORTED
  6
CONTINUOUS
 62
              30
100
AcDbLine
 10
-497.49998505036035
 20
354.8153367084434
 30
0.0
 11
-567.35668505036028
 21
436.99973670844338
 31
0.0
  0
LINE
  5
232
100
AcDbEntity
  8
IMPORTED
  6
CONTINUOUS
 62
              30
100
AcDbLine
 10
-497.49998505036035
 20
399.00953670844342
 30
0.0
 11
-529.79168505036034
 21
436.99973670844338
 31
0.0
  0
POLYLINE
  5
233
100
AcDbEntity
  8
IMPORTED
  6
CONTINUOUS
 62
              30
100
AcDb2dPolyline
 66
               1
 10
0.0
 20
0.0
 30
0.0
 70
             129
  0
VERTEX
  5
234
100
AcDbEntity
  8
IMPORTED
  6
CONTINUOUS
 62
              30
100
AcDbVertex
100
AcDb2dVertex
 10
-2214.9998850503603
 20
436.99983670844341
 30
0.0
  0
VERTEX
  5
235
100
AcDbEntity
  8
IMPORTED
  6
CONTINUOUS
 62
              30
100
AcDbVertex
100
AcDb2dVertex
 10
-1864.9998850503603
 20
436.99983670844341
 30
0.0
  0
VERTEX
  5
236
100
AcDbEntity
  8
IMPORTED
  6
CONTINUOUS
 62
              30
100
AcDbVertex
100
AcDb2dVertex
 10
-1864.9998850503603
 20
86.999836708443439
 30
0.0
  0
VERTEX
  5
237
100
AcDbEntity
  8
IMPORTED
  6
CONTINUOUS
 62
              30
100
AcDbVertex
100
AcDb2dVertex
 10
-2214.9998850503603
 20
86.999836708443439
 30
0.0
  0
VERTEX
  5
238
100
AcDbEntity
  8
IMPORTED
  6
CONTINUOUS
 62
              30
100
AcDbVertex
100
AcDb2dVertex
 10
-2214.9998850503603
 20
436.99983670844341
 30
0.0
  0
VERTEX
  5
239
100
AcDbEntity
  8
IMPORTED
  6
CONTINUOUS
 62
              30
100
AcDbVertex
100
AcDb2dVertex
 10
-2214.9998850503603
 20
436.99983670844341
 30
0.0
  0
SEQEND
  5
23A
100
AcDbEntity
  8
IMPORTED
  6
CONTINUOUS
 62
              30
  0
LINE
  5
23B
100
AcDbEntity
  8
IMPORTED
  6
CONTINUOUS
 62
              30
100
AcDbLine
 10
-2214.9998850503603
 20
280.1074367084434
 30
0.0
 11
-2058.1074850503601
 21
436.99983670844341
 31
0.0
  0
LINE
  5
23C
100
AcDbEntity
  8
IMPORTED
  6
CONTINUOUS
 62
              30
100
AcDbLine
 10
-2214.9998850503603
 20
110.40183670844343
 30
0.0
 11
-1888.4018850503603
 21
436.99983670844341
 31
0.0
  0
LINE
  5
23D
100
AcDbEntity
  8
IMPORTED
  6
CONTINUOUS
 62
              30
100
AcDbLine
 10
-2068.6962850503601
 20
86.999836708443439
 30
0.0
 11
-1864.9998850503603
 21
290.69623670844339
 31
0.0
  0
LINE
  5
23E
100
AcDbEntity
  8
IMPORTED
  6
CONTINUOUS
 62
              30
100
AcDbLine
 10
-1898.9906850503603
 20
86.999836708443439
 30
0.0
 11
-1864.9998850503603
 21
120.99063670844342
 31
0.0
  0
LINE
  5
23F
100
AcDbEntity
  8
IMPORTED
  6
CONTINUOUS
 62
              30
100
AcDbLine
 10
-2214.9998850503603
 20
299.90643670844338
 30
0.0
 11
-2077.9064850503601
 21
436.99983670844341
 31
0.0
  0
LINE
  5
240
100
AcDbEntity
  8
IMPORTED
  6
CONTINUOUS
 62
              30
100
AcDbLine
 10
-2214.9998850503603
 20
130.20083670844343
 30
0.0
 11
-1908.2008850503603
 21
436.99983670844341
 31
0.0
  0
LINE
  5
241
100
AcDbEntity
  8
IMPORTED
  6
CONTINUOUS
 62
              30
100
AcDbLine
 10
-2088.4952850503601
 20
86.999836708443439
 30
0.0
 11
-1864.9998850503603
 21
310.49523670844343
 31
0.0
  0
LINE
  5
242
100
AcDbEntity
  8
IMPORTED
  6
CONTINUOUS
 62
              30
100
AcDbLine
 10
-1918.7896850503603
 20
86.999836708443439
 30
0.0
 11
-1864.9998850503603
 21
140.78963670844342
 31
0.0
  0
LINE
  5
243
100
AcDbEntity
  8
IMPORTED
  6
CONTINUOUS
 62
              30
100
AcDbLine
 10
-2214.9998850503603
 20
319.70543670844341
 30
0.0
 11
-2097.70548505036
 21
436.99983670844341
 31
0.0
  0
LINE
  5
244
100
AcDbEntity
  8
IMPORTED
  6
CONTINUOUS
 62
              30
100
AcDbLine
 10
-2214.9998850503603
 20
149.99983670844341
 30
0.0
 11
-1927.9998850503603
 21
436.99983670844341
 31
0.0
  0
LINE
  5
245
100
AcDbEntity
  8
IMPORTED
  6
CONTINUOUS
 62
              30
100
AcDbLine
 10
-2108.29428505036
 20
86.999836708443439
 30
0.0
 11
-1864.9998850503603
 21
330.29423670844341
 31
0.0
  0
LINE
  5
246
100
AcDbEntity
  8
IMPORTED
  6
CONTINUOUS
 62
              30
100
AcDbLine
 10
-1938.5886850503603
 20
86.999836708443439
 30
0.0
 11
-1864.9998850503603
 21
160.58863670844343
 31
0.0
  0
POLYLINE
  5
247
100
AcDbEntity
  8
IMPORTED
  6
CONTINUOUS
 62
              30
100
AcDb2dPolyline
 66
               1
 10
0.0
 20
0.0
 30
0.0
 70
             129
  0
VERTEX
  5
248
100
AcDbEntity
  8
IMPORTED
  6
CONTINUOUS
 62
              30
100
AcDbVertex
100
AcDb2dVertex
 10
-2264.9998850503603
 20
36.999936708443428
 30
0.0
  0
VERTEX
  5
249
100
AcDbEntity
  8
IMPORTED
  6
CONTINUOUS
 62
              30
100
AcDbVertex
100
AcDb2dVertex
 10
-1814.9998850503603
 20
36.999936708443428
 30
0.0
  0
VERTEX
  5
24A
100
AcDbEntity
  8
IMPORTED
  6
CONTINUOUS
 62
              30
100
AcDbVertex
100
AcDb2dVertex
 10
-1814.9998850503603
 20
-63.000063291556557
 30
0.0
  0
VERTEX
  5
24B
100
AcDbEntity
  8
IMPORTED
  6
CONTINUOUS
 62
              30
100
AcDbVertex
100
AcDb2dVertex
 10
-2264.9998850503603
 20
-63.000063291556557
 30
0.0
  0
VERTEX
  5
24C
100
AcDbEntity
  8
IMPORTED
  6
CONTINUOUS
 62
              30
100
AcDbVertex
100
AcDb2dVertex
 10
-2264.9998850503603
 20
36.999936708443428
 30
0.0
  0
VERTEX
  5
24D
100
AcDbEntity
  8
IMPORTED
  6
CONTINUOUS
 62
              30
100
AcDbVertex
100
AcDb2dVertex
 10
-2264.9998850503603
 20
36.999936708443428
 30
0.0
  0
SEQEND
  5
24E
100
AcDbEntity
  8
IMPORTED
  6
CONTINUOUS
 62
              30
  0
POLYLINE
  5
24F
100
AcDbEntity
  8
IMPORTED
  6
CONTINUOUS
 62
              30
100
AcDb2dPolyline
 66
               1
 10
0.0
 20
0.0
 30
0.0
 70
             129
  0
VERTEX
  5
250
100
AcDbEntity
  8
IMPORTED
  6
CONTINUOUS
 62
              30
100
AcDbVertex
100
AcDb2dVertex
 10
-2264.9998850503603
 20
86.999836708443439
 30
0.0
  0
VERTEX
  5
251
100
AcDbEntity
  8
IMPORTED
  6
CONTINUOUS
 62
              30
100
AcDbVertex
100
AcDb2dVertex
 10
-1814.9998850503603
 20
86.999836708443439
 30
0.0
  0
VERTEX
  5
252
100
AcDbEntity
  8
IMPORTED
  6
CONTINUOUS
 62
              30
100
AcDbVertex
100
AcDb2dVertex
 10
-1814.9998850503603
 20
36.999836708443425
 30
0.0
  0
VERTEX
  5
253
100
AcDbEntity
  8
IMPORTED
  6
CONTINUOUS
 62
              30
100
AcDbVertex
100
AcDb2dVertex
 10
-2264.9998850503603
 20
36.999836708443425
 30
0.0
  0
VERTEX
  5
254
100
AcDbEntity
  8
IMPORTED
  6
CONTINUOUS
 62
              30
100
AcDbVertex
100
AcDb2dVertex
 10
-2264.9998850503603
 20
86.999836708443439
 30
0.0
  0
VERTEX
  5
255
100
AcDbEntity
  8
IMPORTED
  6
CONTINUOUS
 62
              30
100
AcDbVertex
100
AcDb2dVertex
 10
-2264.9998850503603
 20
86.999836708443439
 30
0.0
  0
SEQEND
  5
256
100
AcDbEntity
  8
IMPORTED
  6
CONTINUOUS
 62
              30
  0
LINE
  5
257
100
AcDbEntity
  8
IMPORTED
  6
CONTINUOUS
 62
              30
100
AcDbLine
 10
-1908.1420850503603
 20
86.999836708443439
 30
0.0
 11
-1858.1420850503603
 21
36.999836708443425
 31
0.0
  0
LINE
  5
258
100
AcDbEntity
  8
IMPORTED
  6
CONTINUOUS
 62
              30
100
AcDbLine
 10
-1893.9998850503603
 20
86.999836708443439
 30
0.0
 11
-1843.9998850503603
 21
36.999836708443425
 31
0.0
  0
LINE
  5
259
100
AcDbEntity
  8
IMPORTED
  6
CONTINUOUS
 62
              30
100
AcDbLine
 10
-2058.14208505036
 20
86.999836708443439
 30
0.0
 11
-2008.1420850503603
 21
36.999836708443425
 31
0.0
  0
LINE
  5
25A
100
AcDbEntity
  8
IMPORTED
  6
CONTINUOUS
 62
              30
100
AcDbLine
 10
-2043.9998850503603
 20
86.999836708443439
 30
0.0
 11
-1993.9998850503603
 21
36.999836708443425
 31
0.0
  0
LINE
  5
25B
100
AcDbEntity
  8
IMPORTED
  6
CONTINUOUS
 62
              30
100
AcDbLine
 10
-2208.1420850503605
 20
86.999836708443439
 30
0.0
 11
-2158.14208505036
 21
36.999836708443425
 31
0.0
  0
LINE
  5
25C
100
AcDbEntity
  8
IMPORTED
  6
CONTINUOUS
 62
              30
100
AcDbLine
 10
-2193.9998850503603
 20
86.999836708443439
 30
0.0
 11
-2143.9998850503603
 21
36.999836708443425
 31
0.0
  0
LINE
  5
25D
100
AcDbEntity
  8
IMPORTED
  6
CONTINUOUS
 62
              30
100
AcDbLine
 10
-1844.8711850503603
 20
-63.000063291556557
 30
0.0
 11
-1902.6061850503602
 21
36.999936708443428
 31
0.0
  0
LINE
  5
25E
100
AcDbEntity
  8
IMPORTED
  6
CONTINUOUS
 62
              30
100
AcDbLine
 10
-1888.1724850503604
 20
11.999836708443439
 30
0.0
 11
-1873.7386850503603
 21
36.999836708443425
 31
0.0
  0
LINE
  5
25F
100
AcDbEntity
  8
IMPORTED
  6
CONTINUOUS
 62
              30
100
AcDbLine
 10
-1859.3049850503603
 20
-37.999863291556565
 30
0.0
 11
-1873.7387850503603
 21
-63.000063291556557
 31
0.0
  0
LINE
  5
260
100
AcDbEntity
  8
IMPORTED
  6
CONTINUOUS
 62
              30
100
AcDbLine
 10
-1928.8711850503603
 20
-63.000063291556557
 30
0.0
 11
-1986.6061850503602
 21
36.999936708443428
 31
0.0
  0
LINE
  5
261
100
AcDbEntity
  8
IMPORTED
  6
CONTINUOUS
 62
              30
100
AcDbLine
 10
-1972.1724850503604
 20
11.999836708443439
 30
0.0
 11
-1957.7386850503603
 21
36.999836708443425
 31
0.0
  0
LINE
  5
262
100
AcDbEntity
  8
IMPORTED
  6
CONTINUOUS
 62
              30
100
AcDbLine
 10
-1943.3049850503603
 20
-37.999863291556565
 30
0.0
 11
-1957.7387850503603
 21
-63.000063291556557
 31
0.0
  0
LINE
  5
263
100
AcDbEntity
  8
IMPORTED
  6
CONTINUOUS
 62
              30
100
AcDbLine
 10
-2012.8711850503603
 20
-63.000063291556557
 30
0.0
 11
-2070.6061850503602
 21
36.999936708443428
 31
0.0
  0
LINE
  5
264
100
AcDbEntity
  8
IMPORTED
  6
CONTINUOUS
 62
              30
100
AcDbLine
 10
-2056.1724850503601
 20
11.999836708443439
 30
0.0
 11
-2041.7386850503603
 21
36.999836708443425
 31
0.0
  0
LINE
  5
265
100
AcDbEntity
  8
IMPORTED
  6
CONTINUOUS
 62
              30
100
AcDbLine
 10
-2027.3049850503603
 20
-37.999863291556565
 30
0.0
 11
-2041.7387850503603
 21
-63.000063291556557
 31
0.0
  0
LINE
  5
266
100
AcDbEntity
  8
IMPORTED
  6
CONTINUOUS
 62
              30
100
AcDbLine
 10
-2096.8711850503601
 20
-63.000063291556557
 30
0.0
 11
-2154.6061850503602
 21
36.999936708443428
 31
0.0
  0
LINE
  5
267
100
AcDbEntity
  8
IMPORTED
  6
CONTINUOUS
 62
              30
100
AcDbLine
 10
-2140.1724850503601
 20
11.999836708443439
 30
0.0
 11
-2125.7386850503603
 21
36.999836708443425
 31
0.0
  0
LINE
  5
268
100
AcDbEntity
  8
IMPORTED
  6
CONTINUOUS
 62
              30
100
AcDbLine
 10
-2111.3049850503603
 20
-37.999863291556565
 30
0.0
 11
-2125.7387850503601
 21
-63.000063291556557
 31
0.0
  0
LINE
  5
269
100
AcDbEntity
  8
IMPORTED
  6
CONTINUOUS
 62
              30
100
AcDbLine
 10
-2180.8711850503601
 20
-63.000063291556557
 30
0.0
 11
-2238.6061850503602
 21
36.999936708443428
 31
0.0
  0
LINE
  5
26A
100
AcDbEntity
  8
IMPORTED
  6
CONTINUOUS
 62
              30
100
AcDbLine
 10
-2224.1724850503601
 20
11.999836708443439
 30
0.0
 11
-2209.7386850503603
 21
36.999836708443425
 31
0.0
  0
LINE
  5
26B
100
AcDbEntity
  8
IMPORTED
  6
CONTINUOUS
 62
              30
100
AcDbLine
 10
-2195.3049850503603
 20
-37.999863291556565
 30
0.0
 11
-2209.7387850503601
 21
-63.000063291556557
 31
0.0
  0
POLYLINE
  5
26C
100
AcDbEntity
  8
IMPORTED
  6
CONTINUOUS
 62
              30
100
AcDb2dPolyline
 66
               1
 10
0.0
 20
0.0
 30
0.0
 70
             129
  0
VERTEX
  5
26D
100
AcDbEntity
  8
IMPORTED
  6
CONTINUOUS
 62
              30
100
AcDbVertex
100
AcDb2dVertex
 10
-2082.4998850503603
 20
436.99983670844341
 30
0.0
  0
VERTEX
  5
26E
100
AcDbEntity
  8
IMPORTED
  6
CONTINUOUS
 62
              30
100
AcDbVertex
100
AcDb2dVertex
 10
-1997.4998850503603
 20
436.99983670844341
 30
0.0
  0
VERTEX
  5
26F
100
AcDbEntity
  8
IMPORTED
  6
CONTINUOUS
 62
              30
100
AcDbVertex
100
AcDb2dVertex
 10
-1997.4998850503603
 20
86.999836708443439
 30
0.0
  0
VERTEX
  5
270
100
AcDbEntity
  8
IMPORTED
  6
CONTINUOUS
 62
              30
100
AcDbVertex
100
AcDb2dVertex
 10
-2082.4998850503603
 20
86.999836708443439
 30
0.0
  0
VERTEX
  5
271
100
AcDbEntity
  8
IMPORTED
  6
CONTINUOUS
 62
              30
100
AcDbVertex
100
AcDb2dVertex
 10
-2082.4998850503603
 20
436.99983670844341
 30
0.0
  0
SEQEND
  5
272
100
AcDbEntity
  8
IMPORTED
  6
CONTINUOUS
 62
              30
  0
LINE
  5
273
100
AcDbEntity
  8
IMPORTED
  6
CONTINUOUS
 62
              30
100
AcDbLine
 10
-2082.4997850503601
 20
429.06773670844342
 30
0.0
 11
-2075.7575850503604
 21
436.99973670844338
 31
0.0
  0
LINE
  5
274
100
AcDbEntity
  8
IMPORTED
  6
CONTINUOUS
 62
              30
100
AcDbLine
 10
-2082.4997850503601
 20
384.8735367084434
 30
0.0
 11
-2038.1924850503603
 21
436.99973670844338
 31
0.0
  0
LINE
  5
275
100
AcDbEntity
  8
IMPORTED
  6
CONTINUOUS
 62
              30
100
AcDbLine
 10
-2082.4997850503601
 20
340.67933670844343
 30
0.0
 11
-2000.6274850503603
 21
436.99973670844338
 31
0.0
  0
LINE
  5
276
100
AcDbEntity
  8
IMPORTED
  6
CONTINUOUS
 62
              30
100
AcDbLine
 10
-2082.4998850503603
 20
296.48513670844341
 30
0.0
 11
-1997.4998850503603
 21
396.48513670844341
 31
0.0
  0
LINE
  5
277
100
AcDbEntity
  8
IMPORTED
  6
CONTINUOUS
 62
              30
100
AcDbLine
 10
-2082.4998850503603
 20
252.29103670844341
 30
0.0
 11
-1997.4998850503603
 21
352.29103670844341
 31
0.0
  0
LINE
  5
278
100
AcDbEntity
  8
IMPORTED
  6
CONTINUOUS
 62
              30
100
AcDbLine
 10
-2082.4998850503603
 20
208.09693670844342
 30
0.0
 11
-1997.4998850503603
 21
308.09693670844342
 31
0.0
  0
LINE
  5
279
100
AcDbEntity
  8
IMPORTED
  6
CONTINUOUS
 62
              30
100
AcDbLine
 10
-2082.4998850503603
 20
163.90273670844343
 30
0.0
 11
-1997.4998850503603
 21
263.9027367084434
 31
0.0
  0
LINE
  5
27A
100
AcDbEntity
  8
IMPORTED
  6
CONTINUOUS
 62
              30
100
AcDbLine
 10
-2082.4998850503603
 20
119.70853670844343
 30
0.0
 11
-1997.4998850503603
 21
219.70853670844343
 31
0.0
  0
LINE
  5
27B
100
AcDbEntity
  8
IMPORTED
  6
CONTINUOUS
 62
              30
100
AcDbLine
 10
-2072.7372850503602
 20
86.999836708443439
 30
0.0
 11
-1997.4998850503603
 21
175.51443670844341
 31
0.0
  0
LINE
  5
27C
100
AcDbEntity
  8
IMPORTED
  6
CONTINUOUS
 62
              30
100
AcDbLine
 10
-2035.1721850503602
 20
86.999836708443439
 30
0.0
 11
-1997.4998850503603
 21
131.32023670844342
 31
0.0
  0
LINE
  5
27D
100
AcDbEntity
  8
IMPORTED
  6
CONTINUOUS
 62
              30
100
AcDbLine
 10
-1997.6071850503604
 20
86.999836708443439
 30
0.0
 11
-1997.4998850503603
 21
87.126036708443422
 31
0.0
  0
LINE
  5
27E
100
AcDbEntity
  8
IMPORTED
  6
CONTINUOUS
 62
              30
100
AcDbLine
 10
-2070.37698505036
 20
86.999836708443439
 30
0.0
 11
-2082.4998850503603
 21
101.26203670844342
 31
0.0
  0
LINE
  5
27F
100
AcDbEntity
  8
IMPORTED
  6
CONTINUOUS
 62
              30
100
AcDbLine
 10
-2032.8119850503604
 20
86.999836708443439
 30
0.0
 11
-2082.4998850503603
 21
145.45623670844341
 31
0.0
  0
LINE
  5
280
100
AcDbEntity
  8
IMPORTED
  6
CONTINUOUS
 62
              30
100
AcDbLine
 10
-1997.4998850503603
 20
89.650436708443436
 30
0.0
 11
-2082.4998850503603
 21
189.65043670844341
 31
0.0
  0
LINE
  5
281
100
AcDbEntity
  8
IMPORTED
  6
CONTINUOUS
 62
              30
100
AcDbLine
 10
-1997.4998850503603
 20
133.84453670844343
 30
0.0
 11
-2082.4998850503603
 21
233.8445367084434
 31
0.0
  0
LINE
  5
282
100
AcDbEntity
  8
IMPORTED
  6
CONTINUOUS
 62
              30
100
AcDbLine
 10
-1997.4998850503603
 20
178.03873670844342
 30
0.0
 11
-2082.4998850503603
 21
278.03873670844342
 31
0.0
  0
LINE
  5
283
100
AcDbEntity
  8
IMPORTED
  6
CONTINUOUS
 62
              30
100
AcDbLine
 10
-1997.4998850503603
 20
222.23283670844341
 30
0.0
 11
-2082.4998850503603
 21
322.23283670844341
 31
0.0
  0
LINE
  5
284
100
AcDbEntity
  8
IMPORTED
  6
CONTINUOUS
 62
              30
100
AcDbLine
 10
-1997.4998850503603
 20
266.42703670844344
 30
0.0
 11
-2082.4998850503603
 21
366.42703670844338
 31
0.0
  0
LINE
  5
285
100
AcDbEntity
  8
IMPORTED
  6
CONTINUOUS
 62
              30
100
AcDbLine
 10
-1997.4998850503603
 20
310.62113670844343
 30
0.0
 11
-2082.4998850503603
 21
410.62113670844337
 31
0.0
  0
LINE
  5
286
100
AcDbEntity
  8
IMPORTED
  6
CONTINUOUS
 62
              30
100
AcDbLine
 10
-1997.4999850503602
 20
354.8153367084434
 30
0.0
 11
-2067.3566850503603
 21
436.99973670844338
 31
0.0
  0
LINE
  5
287
100
AcDbEntity
  8
IMPORTED
  6
CONTINUOUS
 62
              30
100
AcDbLine
 10
-1997.4999850503602
 20
399.00953670844342
 30
0.0
 11
-2029.7916850503602
 21
436.99973670844338
 31
0.0
  0
LINE
  5
288
100
AcDbEntity
  8
IMPORTED
  6
CONTINUOUS
 62
              30
100
AcDbLine
 10
1547.5000149496393
 20
429.06773670844342
 30
0.0
 11
1554.2422149496394
 21
436.99973670844338
 31
0.0
  0
LINE
  5
289
100
AcDbEntity
  8
IMPORTED
  6
CONTINUOUS
 62
              30
100
AcDbLine
 10
1547.5000149496393
 20
384.8735367084434
 30
0.0
 11
1591.8073149496395
 21
436.99973670844338
 31
0.0
  0
LINE
  5
28A
100
AcDbEntity
  8
IMPORTED
  6
CONTINUOUS
 62
              30
100
AcDbLine
 10
1547.5000149496393
 20
340.67933670844343
 30
0.0
 11
1629.3723149496393
 21
436.99973670844338
 31
0.0
  0
LINE
  5
28B
100
AcDbEntity
  8
IMPORTED
  6
CONTINUOUS
 62
              30
100
AcDbLine
 10
1547.4999149496393
 20
296.48513670844341
 30
0.0
 11
1632.4999149496393
 21
396.48513670844341
 31
0.0
  0
LINE
  5
28C
100
AcDbEntity
  8
IMPORTED
  6
CONTINUOUS
 62
              30
100
AcDbLine
 10
1547.4999149496393
 20
252.29103670844341
 30
0.0
 11
1632.4999149496393
 21
352.29103670844341
 31
0.0
  0
LINE
  5
28D
100
AcDbEntity
  8
IMPORTED
  6
CONTINUOUS
 62
              30
100
AcDbLine
 10
1547.4999149496393
 20
208.09693670844342
 30
0.0
 11
1632.4999149496393
 21
308.09693670844342
 31
0.0
  0
LINE
  5
28E
100
AcDbEntity
  8
IMPORTED
  6
CONTINUOUS
 62
              30
100
AcDbLine
 10
1547.4999149496393
 20
163.90273670844343
 30
0.0
 11
1632.4999149496393
 21
263.9027367084434
 31
0.0
  0
LINE
  5
28F
100
AcDbEntity
  8
IMPORTED
  6
CONTINUOUS
 62
              30
100
AcDbLine
 10
1547.4999149496393
 20
119.70853670844343
 30
0.0
 11
1632.4999149496393
 21
219.70853670844343
 31
0.0
  0
LINE
  5
290
100
AcDbEntity
  8
IMPORTED
  6
CONTINUOUS
 62
              30
100
AcDbLine
 10
1557.2625149496394
 20
86.999836708443439
 30
0.0
 11
1632.4999149496393
 21
175.51443670844341
 31
0.0
  0
LINE
  5
291
100
AcDbEntity
  8
IMPORTED
  6
CONTINUOUS
 62
              30
100
AcDbLine
 10
1594.8276149496394
 20
86.999836708443439
 30
0.0
 11
1632.4999149496393
 21
131.32023670844342
 31
0.0
  0
LINE
  5
292
100
AcDbEntity
  8
IMPORTED
  6
CONTINUOUS
 62
              30
100
AcDbLine
 10
1632.3926149496394
 20
86.999836708443439
 30
0.0
 11
1632.4999149496393
 21
87.126036708443422
 31
0.0
  0
LINE
  5
293
100
AcDbEntity
  8
IMPORTED
  6
CONTINUOUS
 62
              30
100
AcDbLine
 10
1559.6228149496394
 20
86.999836708443439
 30
0.0
 11
1547.4999149496393
 21
101.26203670844342
 31
0.0
  0
LINE
  5
294
100
AcDbEntity
  8
IMPORTED
  6
CONTINUOUS
 62
              30
100
AcDbLine
 10
1597.1878149496395
 20
86.999836708443439
 30
0.0
 11
1547.4999149496393
 21
145.45623670844341
 31
0.0
  0
LINE
  5
295
100
AcDbEntity
  8
IMPORTED
  6
CONTINUOUS
 62
              30
100
AcDbLine
 10
1632.4999149496393
 20
89.650436708443436
 30
0.0
 11
1547.4999149496393
 21
189.65043670844341
 31
0.0
  0
LINE
  5
296
100
AcDbEntity
  8
IMPORTED
  6
CONTINUOUS
 62
              30
100
AcDbLine
 10
1632.4999149496393
 20
133.84453670844343
 30
0.0
 11
1547.4999149496393
 21
233.8445367084434
 31
0.0
  0
LINE
  5
297
100
AcDbEntity
  8
IMPORTED
  6
CONTINUOUS
 62
              30
100
AcDbLine
 10
1632.4999149496393
 20
178.03873670844342
 30
0.0
 11
1547.4999149496393
 21
278.03873670844342
 31
0.0
  0
LINE
  5
298
100
AcDbEntity
  8
IMPORTED
  6
CONTINUOUS
 62
              30
100
AcDbLine
 10
1632.4999149496393
 20
222.23283670844341
 30
0.0
 11
1547.4999149496393
 21
322.23283670844341
 31
0.0
  0
LINE
  5
299
100
AcDbEntity
  8
IMPORTED
  6
CONTINUOUS
 62
              30
100
AcDbLine
 10
1632.4999149496393
 20
266.42703670844344
 30
0.0
 11
1547.4999149496393
 21
366.42703670844338
 31
0.0
  0
LINE
  5
29A
100
AcDbEntity
  8
IMPORTED
  6
CONTINUOUS
 62
              30
100
AcDbLine
 10
1632.4999149496393
 20
310.62113670844343
 30
0.0
 11
1547.4999149496393
 21
410.62113670844337
 31
0.0
  0
LINE
  5
29B
100
AcDbEntity
  8
IMPORTED
  6
CONTINUOUS
 62
              30
100
AcDbLine
 10
1632.4998149496394
 20
354.8153367084434
 30
0.0
 11
1562.6431149496393
 21
436.99973670844338
 31
0.0
  0
LINE
  5
29C
100
AcDbEntity
  8
IMPORTED
  6
CONTINUOUS
 62
              30
100
AcDbLine
 10
1632.4998149496394
 20
399.00953670844342
 30
0.0
 11
1600.2081149496394
 21
436.99973670844338
 31
0.0
  0
LINE
  5
29D
100
AcDbEntity
  8
IMPORTED
  6
CONTINUOUS
 62
              30
100
AcDbLine
 10
-1997.4998850503603
 20
1236.9998367084434
 30
0.0
 11
-1793.1269850503602
 21
1198.0063367084433
 31
0.0
  0
LINE
  5
29E
100
AcDbEntity
  8
IMPORTED
  6
CONTINUOUS
 62
              30
100
AcDbLine
 10
-1793.1269850503602
 20
1198.0064367084433
 30
0.0
 11
-1626.2519850503604
 21
1167.0912367084434
 31
0.0
  0
LINE
  5
29F
100
AcDbEntity
  8
IMPORTED
  6
CONTINUOUS
 62
              30
100
AcDbLine
 10
-1626.2518850503602
 20
1167.0912367084434
 30
0.0
 11
-1459.3767850503602
 21
1148.5418367084435
 31
0.0
  0
LINE
  5
2A0
100
AcDbEntity
  8
IMPORTED
  6
CONTINUOUS
 62
              30
100
AcDbLine
 10
-1459.3767850503602
 20
1148.5417367084433
 30
0.0
 11
-1292.5014850503603
 21
1142.3579367084435
 31
0.0
  0
LINE
  5
2A1
100
AcDbEntity
  8
IMPORTED
  6
CONTINUOUS
 62
              30
100
AcDbLine
 10
-1292.5015850503603
 20
1142.3580367084435
 30
0.0
 11
-1125.6263850503603
 21
1148.5396367084434
 31
0.0
  0
LINE
  5
2A2
100
AcDbEntity
  8
IMPORTED
  6
CONTINUOUS
 62
              30
100
AcDbLine
 10
-1125.6263850503603
 20
1148.5396367084434
 30
0.0
 11
-958.75098505036021
 21
1167.0870367084433
 31
0.0
  0
LINE
  5
2A3
100
AcDbEntity
  8
IMPORTED
  6
CONTINUOUS
 62
              30
100
AcDbLine
 10
-958.7510850503603
 20
1167.0870367084433
 30
0.0
 11
-791.87548505036023
 21
1198.0000367084433
 31
0.0
  0
LINE
  5
2A4
100
AcDbEntity
  8
IMPORTED
  6
CONTINUOUS
 62
              30
100
AcDbLine
 10
-791.87548505036023
 20
1198.0000367084433
 30
0.0
 11
-582.49988505036038
 21
1236.9998367084434
 31
0.0
  0
LINE
  5
2A5
100
AcDbEntity
  8
IMPORTED
  6
CONTINUOUS
 62
              30
100
AcDbLine
 10
-2082.4998850503603
 20
1236.9998367084434
 30
0.0
 11
-2286.8728850503603
 21
1198.0063367084433
 31
0.0
  0
LINE
  5
2A6
100
AcDbEntity
  8
IMPORTED
  6
CONTINUOUS
 62
              30
100
AcDbLine
 10
-497.49988505036038
 20
1236.9998367084434
 30
0.0
 11
-293.12688505036033
 21
1198.0063367084433
 31
0.0
  0
LINE
  5
2A7
100
AcDbEntity
  8
IMPORTED
  6
CONTINUOUS
 62
              30
100
AcDbLine
 10
-1997.4998850503603
 20
936.99983670844335
 30
0.0
 11
-1793.1269850503602
 21
898.00633670844331
 31
0.0
  0
LINE
  5
2A8
100
AcDbEntity
  8
IMPORTED
  6
CONTINUOUS
 62
              30
100
AcDbLine
 10
-1793.1269850503602
 20
898.00643670844329
 30
0.0
 11
-1626.2519850503604
 21
867.09123670844338
 31
0.0
  0
LINE
  5
2A9
100
AcDbEntity
  8
IMPORTED
  6
CONTINUOUS
 62
              30
100
AcDbLine
 10
-1626.2518850503602
 20
867.09123670844338
 30
0.0
 11
-1459.3767850503602
 21
848.54183670844327
 31
0.0
  0
LINE
  5
2AA
100
AcDbEntity
  8
IMPORTED
  6
CONTINUOUS
 62
              30
100
AcDbLine
 10
-1459.3767850503602
 20
848.5417367084433
 30
0.0
 11
-1292.5014850503603
 21
842.35793670844328
 31
0.0
  0
LINE
  5
2AB
100
AcDbEntity
  8
IMPORTED
  6
CONTINUOUS
 62
              30
100
AcDbLine
 10
-1292.5015850503603
 20
842.35803670844325
 30
0.0
 11
-1125.6263850503603
 21
848.53963670844337
 31
0.0
  0
LINE
  5
2AC
100
AcDbEntity
  8
IMPORTED
  6
CONTINUOUS
 62
              30
100
AcDbLine
 10
-1125.6263850503603
 20
848.53963670844337
 30
0.0
 11
-958.75098505036021
 21
867.08703670844329
 31
0.0
  0
LINE
  5
2AD
100
AcDbEntity
  8
IMPORTED
  6
CONTINUOUS
 62
              30
100
AcDbLine
 10
-958.7510850503603
 20
867.08703670844329
 30
0.0
 11
-791.87548505036023
 21
898.0000367084433
 31
0.0
  0
LINE
  5
2AE
100
AcDbEntity
  8
IMPORTED
  6
CONTINUOUS
 62
              30
100
AcDbLine
 10
-791.87548505036023
 20
898.0000367084433
 30
0.0
 11
-582.49988505036038
 21
936.99983670844335
 31
0.0
  0
LINE
  5
2AF
100
AcDbEntity
  8
IMPORTED
  6
CONTINUOUS
 62
              30
100
AcDbLine
 10
-2082.4998850503603
 20
936.99983670844335
 30
0.0
 11
-2286.8728850503603
 21
898.00633670844331
 31
0.0
  0
LINE
  5
2B0
100
AcDbEntity
  8
IMPORTED
  6
CONTINUOUS
 62
              30
100
AcDbLine
 10
-497.49988505036038
 20
936.99983670844335
 30
0.0
 11
-293.12688505036033
 21
898.00633670844331
 31
0.0
  0
CIRCLE
  5
2B1
100
AcDbEntity
  8
IMPORTED
  6
CONTINUOUS
 62
              30
100
AcDbCircle
 10
1589.9999149496393
 20
936.99983670844335
 30
0.0
 40
6.0
  0
POLYLINE
  5
2B2
100
AcDbEntity
  8
IMPORTED
  6
CONTINUOUS
 62
              30
100
AcDb2dPolyline
 66
               1
 10
0.0
 20
0.0
 30
0.0
 70
               1
 75
               5
  0
VERTEX
  5
2B3
100
AcDbEntity
  8
IMPORTED
  6
CONTINUOUS
 62
              30
100
AcDbVertex
100
AcDb2dVertex
 10
-582.49988505036038
 20
-1422.4999632915565
 30
0.0
  0
VERTEX
  5
2B4
100
AcDbEntity
  8
IMPORTED
  6
CONTINUOUS
 62
              30
100
AcDbVertex
100
AcDb2dVertex
 10
-577.49988505036038
 20
-1417.4999632915565
 30
0.0
  0
VERTEX
  5
2B5
100
AcDbEntity
  8
IMPORTED
  6
CONTINUOUS
 62
              30
100
AcDbVertex
100
AcDb2dVertex
 10
-502.49988505036038
 20
-1417.4999632915565
 30
0.0
  0
VERTEX
  5
2B6
100
AcDbEntity
  8
IMPORTED
  6
CONTINUOUS
 62
              30
100
AcDbVertex
100
AcDb2dVertex
 10
-497.49988505036038
 20
-1422.4999632915565
 30
0.0
  0
VERTEX
  5
2B7
100
AcDbEntity
  8
IMPORTED
  6
CONTINUOUS
 62
              30
100
AcDbVertex
100
AcDb2dVertex
 10
-497.49988505036038
 20
-1497.4999632915565
 30
0.0
  0
VERTEX
  5
2B8
100
AcDbEntity
  8
IMPORTED
  6
CONTINUOUS
 62
              30
100
AcDbVertex
100
AcDb2dVertex
 10
-502.49988505036038
 20
-1502.4999632915565
 30
0.0
  0
VERTEX
  5
2B9
100
AcDbEntity
  8
IMPORTED
  6
CONTINUOUS
 62
              30
100
AcDbVertex
100
AcDb2dVertex
 10
-577.49988505036038
 20
-1502.4999632915565
 30
0.0
  0
VERTEX
  5
2BA
100
AcDbEntity
  8
IMPORTED
  6
CONTINUOUS
 62
              30
100
AcDbVertex
100
AcDb2dVertex
 10
-582.49988505036038
 20
-1497.4999632915565
 30
0.0
  0
SEQEND
  5
2BB
100
AcDbEntity
  8
IMPORTED
  6
CONTINUOUS
 62
              30
  0
POLYLINE
  5
2BD
100
AcDbEntity
  8
IMPORTED
  6
STYLE_02
 62
              30
100
AcDb2dPolyline
 66
               1
 10
0.0
 20
0.0
 30
0.0
 70
               1
 75
               5
  0
VERTEX
  5
2BE
100
AcDbEntity
  8
IMPORTED
  6
STYLE_02
 62
              30
100
AcDbVertex
100
AcDb2dVertex
 10
-567.92238505036028
 20
-1427.4999632915565
 30
0.0
  0
VERTEX
  5
2BF
100
AcDbEntity
  8
IMPORTED
  6
STYLE_02
 62
              30
100
AcDbVertex
100
AcDb2dVertex
 10
-572.49988505036038
 20
-1432.0774632915563
 30
0.0
  0
VERTEX
  5
2C0
100
AcDbEntity
  8
IMPORTED
  6
STYLE_02
 62
              30
100
AcDbVertex
100
AcDb2dVertex
 10
-572.49988505036038
 20
-1487.9224632915564
 30
0.0
  0
VERTEX
  5
2C1
100
AcDbEntity
  8
IMPORTED
  6
STYLE_02
 62
              30
100
AcDbVertex
100
AcDb2dVertex
 10
-567.92238505036028
 20
-1492.4999632915565
 30
0.0
  0
VERTEX
  5
2C2
100
AcDbEntity
  8
IMPORTED
  6
STYLE_02
 62
              30
100
AcDbVertex
100
AcDb2dVertex
 10
-512.07738505036036
 20
-1492.4999632915565
 30
0.0
  0
VERTEX
  5
2C3
100
AcDbEntity
  8
IMPORTED
  6
STYLE_02
 62
              30
100
AcDbVertex
100
AcDb2dVertex
 10
-507.49988505036038
 20
-1487.9224632915564
 30
0.0
  0
VERTEX
  5
2C4
100
AcDbEntity
  8
IMPORTED
  6
STYLE_02
 62
              30
100
AcDbVertex
100
AcDb2dVertex
 10
-507.49988505036038
 20
-1432.0774632915563
 30
0.0
  0
VERTEX
  5
2C5
100
AcDbEntity
  8
IMPORTED
  6
STYLE_02
 62
              30
100
AcDbVertex
100
AcDb2dVertex
 10
-512.07738505036036
 20
-1427.4999632915565
 30
0.0
  0
SEQEND
  5
2C6
100
AcDbEntity
  8
IMPORTED
  6
STYLE_02
 62
              30
  0
POLYLINE
  5
2C8
100
AcDbEntity
  8
IMPORTED
  6
STYLE_02
 62
              30
100
AcDb2dPolyline
 66
               1
 10
0.0
 20
0.0
 30
0.0
 70
               1
 75
               5
  0
VERTEX
  5
2C9
100
AcDbEntity
  8
IMPORTED
  6
STYLE_02
 62
              30
100
AcDbVertex
100
AcDb2dVertex
 10
-575.49988505036038
 20
-1428.6764632915563
 30
0.0
  0
VERTEX
  5
2CA
100
AcDbEntity
  8
IMPORTED
  6
STYLE_02
 62
              30
100
AcDbVertex
100
AcDb2dVertex
 10
-571.32338505036034
 20
-1424.4999632915565
 30
0.0
  0
VERTEX
  5
2CB
100
AcDbEntity
  8
IMPORTED
  6
STYLE_02
 62
              30
100
AcDbVertex
100
AcDb2dVertex
 10
-508.6763850503603
 20
-1424.4999632915565
 30
0.0
  0
VERTEX
  5
2CC
100
AcDbEntity
  8
IMPORTED
  6
STYLE_02
 62
              30
100
AcDbVertex
100
AcDb2dVertex
 10
-504.49988505036038
 20
-1428.6764632915563
 30
0.0
  0
VERTEX
  5
2CD
100
AcDbEntity
  8
IMPORTED
  6
STYLE_02
 62
              30
100
AcDbVertex
100
AcDb2dVertex
 10
-504.49988505036038
 20
-1491.3234632915564
 30
0.0
  0
VERTEX
  5
2CE
100
AcDbEntity
  8
IMPORTED
  6
STYLE_02
 62
              30
100
AcDbVertex
100
AcDb2dVertex
 10
-508.6763850503603
 20
-1495.4999632915565
 30
0.0
  0
VERTEX
  5
2CF
100
AcDbEntity
  8
IMPORTED
  6
STYLE_02
 62
              30
100
AcDbVertex
100
AcDb2dVertex
 10
-571.32338505036034
 20
-1495.4999632915565
 30
0.0
  0
VERTEX
  5
2D0
100
AcDbEntity
  8
IMPORTED
  6
STYLE_02
 62
              30
100
AcDbVertex
100
AcDb2dVertex
 10
-575.49988505036038
 20
-1491.3234632915564
 30
0.0
  0
SEQEND
  5
2D1
100
AcDbEntity
  8
IMPORTED
  6
STYLE_02
 62
              30
  0
POLYLINE
  5
2D3
100
AcDbEntity
  8
IMPORTED
  6
STYLE_02
 62
              30
100
AcDb2dPolyline
 66
               1
 10
0.0
 20
0.0
 30
0.0
 70
             129
  0
VERTEX
  5
2D4
100
AcDbEntity
  8
IMPORTED
  6
STYLE_02
 62
              30
100
AcDbVertex
100
AcDb2dVertex
 10
-714.99988505036026
 20
-1284.9999632915565
 30
0.0
  0
VERTEX
  5
2D5
100
AcDbEntity
  8
IMPORTED
  6
STYLE_02
 62
              30
100
AcDbVertex
100
AcDb2dVertex
 10
-364.99988505036038
 20
-1284.9999632915565
 30
0.0
  0
VERTEX
  5
2D6
100
AcDbEntity
  8
IMPORTED
  6
STYLE_02
 62
              30
100
AcDbVertex
100
AcDb2dVertex
 10
-364.99988505036038
 20
-1634.9999632915565
 30
0.0
  0
VERTEX
  5
2D7
100
AcDbEntity
  8
IMPORTED
  6
STYLE_02
 62
              30
100
AcDbVertex
100
AcDb2dVertex
 10
-714.99988505036026
 20
-1634.9999632915565
 30
0.0
  0
VERTEX
  5
2D8
100
AcDbEntity
  8
IMPORTED
  6
STYLE_02
 62
              30
100
AcDbVertex
100
AcDb2dVertex
 10
-714.99988505036026
 20
-1284.9999632915565
 30
0.0
  0
VERTEX
  5
2D9
100
AcDbEntity
  8
IMPORTED
  6
STYLE_02
 62
              30
100
AcDbVertex
100
AcDb2dVertex
 10
-714.99988505036026
 20
-1284.9999632915565
 30
0.0
  0
SEQEND
  5
2DA
100
AcDbEntity
  8
IMPORTED
  6
STYLE_02
 62
              30
  0
POLYLINE
  5
2DB
100
AcDbEntity
  8
IMPORTED
  6
STYLE_02
 62
              30
100
AcDb2dPolyline
 66
               1
 10
0.0
 20
0.0
 30
0.0
 70
             129
  0
VERTEX
  5
2DC
100
AcDbEntity
  8
IMPORTED
  6
STYLE_02
 62
              30
100
AcDbVertex
100
AcDb2dVertex
 10
-764.99988505036026
 20
-1234.9999632915565
 30
0.0
  0
VERTEX
  5
2DD
100
AcDbEntity
  8
IMPORTED
  6
STYLE_02
 62
              30
100
AcDbVertex
100
AcDb2dVertex
 10
-314.99988505036038
 20
-1234.9999632915565
 30
0.0
  0
VERTEX
  5
2DE
100
AcDbEntity
  8
IMPORTED
  6
STYLE_02
 62
              30
100
AcDbVertex
100
AcDb2dVertex
 10
-314.99988505036038
 20
-1684.9999632915565
 30
0.0
  0
VERTEX
  5
2DF
100
AcDbEntity
  8
IMPORTED
  6
STYLE_02
 62
              30
100
AcDbVertex
100
AcDb2dVertex
 10
-764.99988505036026
 20
-1684.9999632915565
 30
0.0
  0
VERTEX
  5
2E0
100
AcDbEntity
  8
IMPORTED
  6
STYLE_02
 62
              30
100
AcDbVertex
100
AcDb2dVertex
 10
-764.99988505036026
 20
-1234.9999632915565
 30
0.0
  0
VERTEX
  5
2E1
100
AcDbEntity
  8
IMPORTED
  6
STYLE_02
 62
              30
100
AcDbVertex
100
AcDb2dVertex
 10
-764.99988505036026
 20
-1234.9999632915565
 30
0.0
  0
SEQEND
  5
2E2
100
AcDbEntity
  8
IMPORTED
  6
STYLE_02
 62
              30
  0
LINE
  5
2E3
100
AcDbEntity
  8
IMPORTED
  6
STYLE_02
 62
              30
100
AcDbLine
 10
-2082.4998850503603
 20
1236.9998367084434
 30
0.0
 11
-1997.4998850503603
 21
1236.9998367084434
 31
0.0
  0
LINE
  5
2E4
100
AcDbEntity
  8
IMPORTED
  6
STYLE_02
 62
              30
100
AcDbLine
 10
-2082.4998850503603
 20
936.99983670844335
 30
0.0
 11
-1997.4998850503603
 21
936.99983670844335
 31
0.0
  0
LINE
  5
2E5
100
AcDbEntity
  8
IMPORTED
  6
STYLE_02
 62
              30
100
AcDbLine
 10
-582.49988505036038
 20
1236.9998367084434
 30
0.0
 11
-497.49988505036038
 21
1236.9998367084434
 31
0.0
  0
LINE
  5
2E6
100
AcDbEntity
  8
IMPORTED
  6
STYLE_02
 62
              30
100
AcDbLine
 10
-582.49988505036038
 20
936.99983670844335
 30
0.0
 11
-497.49988505036038
 21
936.99983670844335
 31
0.0
  0
LINE
  5
2E7
100
AcDbEntity
  8
IMPORTED
  6
STYLE_02
 62
              30
100
AcDbLine
 10
-2082.4998850503603
 20
-1459.9999632915565
 30
0.0
 11
-1997.4998850503603
 21
-1459.9999632915565
 31
0.0
  0
LINE
  5
2E8
100
AcDbEntity
  8
IMPORTED
  6
STYLE_02
 62
              30
100
AcDbLine
 10
-582.49988505036038
 20
-1459.9999632915565
 30
0.0
 11
-497.49988505036038
 21
-1459.9999632915565
 31
0.0
  0
MTEXT
  5
2E9
100
AcDbEntity
  8
IMPORTED
 62
              30
100
AcDbMText
 10
1327.0318547110978
 20
-1929.2278615512791
 30
0.0
 40
54.294704861111114
 41
0.0
 71
               1
 72
               1
  1
※特記事項\P\P・ESWは、木粉50％以上、ポリプロピレン40％以上の配合で、\P  表面をサンディング加工した再生木材「EINスーパーウッド」の略称。
  7
_______
  0
ENDSEC
  0
SECTION
  2
OBJECTS
  0
DICTIONARY
  5
19
100
AcDbDictionary
  3
ACAD_GROUP
350
1A
  3
ACAD_MLINESTYLE
350
1B
  0
DICTIONARY
  5
1A
102
{ACAD_REACTORS
330
19
102
}
100
AcDbDictionary
  0
DICTIONARY
  5
1B
102
{ACAD_REACTORS
330
19
102
}
100
AcDbDictionary
  3
STANDARD
350
1C
  0
MLINESTYLE
  5
1C
102
{ACAD_REACTORS
330
1B
102
}
100
AcDbMlineStyle
  2
STANDARD
 70
               0
  3

 62
               0
 51
90.0
 52
90.0
 71
               2
 49
0.5
 62
             256
  6
BYLAYER
 49
-0.5
 62
             256
  6
BYLAYER
  0
ENDSEC
  0
EOF
