  0
SECTION
  2
HEADER
  9
$ACADVER
  1
AC1012
  9
$DWGCODEPAGE
  3
dos932
  9
$INSBASE
 10
0.0
 20
0.0
 30
0.0
  9
$EXTMIN
 10
-3893.9999191649099
 20
-2749.0000964723172
 30
0.0
  9
$EXTMAX
 10
3906.0000808350896
 20
2750.9999035276824
 30
0.0
  9
$LIMMIN
 10
0.0
 20
0.0
  9
$LIMMAX
 10
0.0
 20
0.0
  9
$ORTHOMODE
 70
               0
  9
$REGENMODE
 70
               1
  9
$FILLMODE
 70
               1
  9
$QTEXTMODE
 70
               0
  9
$MIRRTEXT
 70
               1
  9
$DRAGMODE
 70
               2
  9
$LTSCALE
 40
101.59999999999999
  9
$OSMODE
 70
               0
  9
$ATTMODE
 70
               1
  9
$TEXTSIZE
 40
0.2
  9
$TRACEWID
 40
1.0
  9
$TEXTSTYLE
  7
STANDARD
  9
$CLAYER
  8
IMPORTED
  9
$CELTYPE
  6
CONTINUOUS
  9
$CECOLOR
 62
             256
  9
$CELTSCALE
 40
1.0
  9
$DELOBJ
 70
               1
  9
$DISPSILH
 70
               0
  9
$DIMSCALE
 40
1.0
  9
$DIMASZ
 40
0.18
  9
$DIMEXO
 40
0.0625
  9
$DIMDLI
 40
0.38
  9
$DIMRND
 40
0.0
  9
$DIMDLE
 40
0.0
  9
$DIMEXE
 40
0.18
  9
$DIMTP
 40
0.0
  9
$DIMTM
 40
0.0
  9
$DIMTXT
 40
0.18
  9
$DIMCEN
 40
0.09
  9
$DIMTSZ
 40
0.0
  9
$DIMTOL
 70
               0
  9
$DIMLIM
 70
               0
  9
$DIMTIH
 70
               1
  9
$DIMTOH
 70
               1
  9
$DIMSE1
 70
               0
  9
$DIMSE2
 70
               0
  9
$DIMTAD
 70
               0
  9
$DIMZIN
 70
               0
  9
$DIMBLK
  1

  9
$DIMASO
 70
               1
  9
$DIMSHO
 70
               1
  9
$DIMPOST
  1

  9
$DIMAPOST
  1

  9
$DIMALT
 70
               0
  9
$DIMALTD
 70
               2
  9
$DIMALTF
 40
25.399999999999999
  9
$DIMLFAC
 40
1.0
  9
$DIMTOFL
 70
               0
  9
$DIMTVP
 40
0.0
  9
$DIMTIX
 70
               0
  9
$DIMSOXD
 70
               0
  9
$DIMSAH
 70
               0
  9
$DIMBLK1
  1

  9
$DIMBLK2
  1

  9
$DIMSTYLE
  2
STANDARD
  9
$DIMCLRD
 70
               0
  9
$DIMCLRE
 70
               0
  9
$DIMCLRT
 70
               0
  9
$DIMTFAC
 40
1.0
  9
$DIMGAP
 40
0.09
  9
$DIMJUST
 70
               0
  9
$DIMSD1
 70
               0
  9
$DIMSD2
 70
               0
  9
$DIMTOLJ
 70
               1
  9
$DIMTZIN
 70
               0
  9
$DIMALTZ
 70
               0
  9
$DIMALTTZ
 70
               0
  9
$DIMFIT
 70
               3
  9
$DIMUPT
 70
               0
  9
$DIMUNIT
 70
               2
  9
$DIMDEC
 70
               4
  9
$DIMTDEC
 70
               4
  9
$DIMALTU
 70
               2
  9
$DIMALTTD
 70
               2
  9
$DIMTXSTY
  7
STANDARD
  9
$DIMAUNIT
 70
               0
  9
$LUNITS
 70
               2
  9
$LUPREC
 70
               4
  9
$SKETCHINC
 40
0.1
  9
$FILLETRAD
 40
0.0
  9
$AUNITS
 70
               0
  9
$AUPREC
 70
               0
  9
$MENU
  1
acad
  9
$ELEVATION
 40
0.0
  9
$PELEVATION
 40
0.0
  9
$THICKNESS
 40
0.0
  9
$LIMCHECK
 70
               0
  9
$BLIPMODE
 70
               0
  9
$CHAMFERA
 40
0.0
  9
$CHAMFERB
 40
0.0
  9
$CHAMFERC
 40
0.0
  9
$CHAMFERD
 40
0.0
  9
$SKPOLY
 70
               0
  9
$TDCREATE
 40
2459227.611284722
  9
$TDUPDATE
 40
2459227.611284722
  9
$TDINDWG
 40
0.0000000000
  9
$TDUSRTIMER
 40
0.0000000000
  9
$USRTIMER
 70
               1
  9
$ANGBASE
 50
0.0
  9
$ANGDIR
 70
               0
  9
$PDMODE
 70
               1
  9
$PDSIZE
 40
-2.0
  9
$PLINEWID
 40
0.0
  9
$COORDS
 70
               0
  9
$SPLFRAME
 70
               0
  9
$SPLINETYPE
 70
               6
  9
$SPLINESEGS
 70
               8
  9
$ATTDIA
 70
               0
  9
$ATTREQ
 70
               1
  9
$HANDLING
 70
               1
  9
$HANDSEED
  5
4B0
  9
$SURFTAB1
 70
               6
  9
$SURFTAB2
 70
               6
  9
$SURFTYPE
 70
               6
  9
$SURFU
 70
               6
  9
$SURFV
 70
               6
  9
$UCSNAME
  2

  9
$UCSORG
 10
0.0
 20
0.0
 30
0.0
  9
$UCSXDIR
 10
1.0
 20
0.0
 30
0.0
  9
$UCSYDIR
 10
0.0
 20
1.0
 30
0.0
  9
$PUCSNAME
  2

  9
$PUCSORG
 10
0.0
 20
0.0
 30
0.0
  9
$PUCSXDIR
 10
1.0
 20
0.0
 30
0.0
  9
$PUCSYDIR
 10
0.0
 20
1.0
 30
0.0
  9
$USERI1
 70
               0
  9
$USERI2
 70
               0
  9
$USERI3
 70
               0
  9
$USERI4
 70
               0
  9
$USERI5
 70
               0
  9
$USERR1
 40
0.0
  9
$USERR2
 40
0.0
  9
$USERR3
 40
0.0
  9
$USERR4
 40
0.0
  9
$USERR5
 40
0.0
  9
$WORLDVIEW
 70
               1
  9
$SHADEDGE
 70
               3
  9
$SHADEDIF
 70
              70
  9
$TILEMODE
 70
               1
  9
$MAXACTVP
 70
              64
  9
$PINSBASE
 10
0.0
 20
0.0
 30
0.0
  9
$PLIMCHECK
 70
               0
  9
$PEXTMIN
 10
1.0000000000000000E+20
 20
1.0000000000000000E+20
 30
1.0000000000000000E+20
  9
$PEXTMAX
 10
-1.0000000000000000E+20
 20
-1.0000000000000000E+20
 30
-1.0000000000000000E+20
  9
$PLIMMIN
 10
0.0
 20
0.0
  9
$PLIMMAX
 10
12.0
 20
9.0
  9
$UNITMODE
 70
               0
  9
$VISRETAIN
 70
               0
  9
$PLINEGEN
 70
               1
  9
$PSLTSCALE
 70
               0
  9
$TREEDEPTH
 70
            3020
  9
$PICKSTYLE
 70
               1
  9
$CMLSTYLE
  2
STANDARD
  9
$CMLJUST
 70
               0
  9
$CMLSCALE
 40
1.0
  9
$SAVEIMAGES
 70
               0
  0
ENDSEC
  0
SECTION
  2
CLASSES
  0
CLASS
  1
LWPOLYLINE
  2
AcDbPolyline
  3
"AutoCAD"
 90
    32768
280
               0
281
               1
  0
CLASS
  1
IMAGE
  2
AcDbRasterImage
  3
ISM
 90
    32895
280
               0
281
               1
  0
CLASS
  1
OLE2FRAME
  2
AcDbOle2Frame
  3
""
 90
    32768
280
               0
281
               1
  0
CLASS
  1
HATCH
  2
AcDbHatch
  3
"ACAD_SEDONA"
 90
    32768
280
               0
281
               1
  0
CLASS
  1
DICTIONARYVAR
  2
AcDbDictionaryVar
  3
"AutoCAD"
 90
    32768
280
               0
281
               0
  0
CLASS
  1
RASTERVARIABLES
  2
AcDbRasterVariables
  3
ISM
 90
    32768
280
               0
281
               0
  0
CLASS
  1
IMAGEDEF
  2
AcDbRasterImageDef
  3
ISM
 90
    32768
280
               0
281
               0
  0
CLASS
  1
IMAGEDEF_REACTOR
  2
AcDbRasterImageDefReactor
  3
ISM
 90
    32769
280
               0
281
               0
  0
CLASS
  1
IDBUFFER
  2
AcDbIdBuffer
  3
"Acad"
 90
    32768
280
               0
281
               0
  0
CLASS
  1
SPATIAL_FILTER
  2
AcDbSpatialFilter
  3
"Acad"
 90
    32768
280
               0
281
               0
  0
CLASS
  1
XRECORD
  2
AcDbXrecord
  3
"<Built In>"
 90
    32768
280
               0
281
               0
  0
CLASS
  1
SORTENTSTABLE
  2
AcDbSortentsTable
  3
"AutoCAD"
 90
    32768
280
               0
281
               0
  0
CLASS
  1
LAYER_INDEX
  2
AcDbLayerIndex
  3
"Acad"
 90
    32768
280
               0
281
               0
  0
CLASS
  1
SPATIAL_INDEX
  2
AcDbSpatialIndex
  3
"Acad"
 90
    32768
280
               0
281
               0
  0
CLASS
  1
OBJECT_PTR
  2
CAseDLPNTableRecord
  3
"ASE-LPNTableRecord"
 90
    32769
280
               0
281
               0
  0
CLASS
  1
LAYOUT
  2
AcDbLayout
  3
"AutoCAD 2000"
 90
    32768
280
               0
281
               0
  0
CLASS
  1
PLOTSETTINGS
  2
AcDbPlotSettings
  3
"AutoCAD 2000"
 90
    32768
280
               0
281
               0
  0
CLASS
  1
ACDBDICTIONARYWDFLT
  2
AcDbDictionaryWithDefault
  3
"AutoCAD 2000"
 90
    32768
280
               0
281
               0
  0
CLASS
  1
ACDBPLACEHOLDER
  2
AcDbPlaceHolder
  3
"AutoCAD 2000"
 90
    32768
280
               0
281
               0
  0
ENDSEC
  0
SECTION
  2
TABLES
  0
TABLE
  2
VPORT
  5
7
100
AcDbSymbolTable
 70
               1
  0
VPORT
  5
15
100
AcDbSymbolTableRecord
100
AcDbViewportTableRecord
  2
*ACTIVE
 70
               0
 10
0.0
 20
0.0
 11
1.0
 21
1.0
 12
6.0000808350901025
 22
0.9999035276828181
 13
0.0
 23
0.0
 14
1.0
 24
1.0
 15
0.0
 25
0.0
 16
0.0
 26
0.0
 36
1.0
 17
0.0
 27
0.0
 37
0.0
 40
5500.0
 41
0.688564
 42
50.0
 43
0.0
 44
0.0
 50
0.0
 51
0.0
 71
               0
 72
            2000
 73
               1
 74
               1
 75
               0
 76
               0
 77
               0
 78
               0
  0
ENDTAB
  0
TABLE
  2
LTYPE
  5
4
100
AcDbSymbolTable
 70
              14
  0
LTYPE
  5
11
100
AcDbSymbolTableRecord
100
AcDbLinetypeTableRecord
  2
BYBLOCK
 70
              64
  3

 72
              65
 73
               0
 40
0.0
  0
LTYPE
  5
12
100
AcDbSymbolTableRecord
100
AcDbLinetypeTableRecord
  2
BYLAYER
 70
              64
  3

 72
              65
 73
               0
 40
0.0
  0
LTYPE
  5
13
100
AcDbSymbolTableRecord
100
AcDbLinetypeTableRecord
  2
CONTINUOUS
 70
              64
  3
Solid line
 72
              65
 73
               0
 40
0.0
  0
LTYPE
  5
1E
100
AcDbSymbolTableRecord
100
AcDbLinetypeTableRecord
  2
STYLE_01
 70
               0
  3

 72
              65
 73
               2
 40
0.4166412353515625
 49
0.208282470703125
 74
               0
 49
-0.2083587646484375
 74
               0
  0
LTYPE
  5
1F
100
AcDbSymbolTableRecord
100
AcDbLinetypeTableRecord
  2
STYLE_02
 70
               0
  3

 72
              65
 73
               2
 40
0.694427490234375
 49
0.4860687255859375
 74
               0
 49
-0.2083587646484375
 74
               0
  0
LTYPE
  5
20
100
AcDbSymbolTableRecord
100
AcDbLinetypeTableRecord
  2
STYLE_03
 70
               0
  3

 72
              65
 73
               2
 40
1.25
 49
1.0416412353515625
 74
               0
 49
-0.2083587646484375
 74
               0
  0
LTYPE
  5
21
100
AcDbSymbolTableRecord
100
AcDbLinetypeTableRecord
  2
STYLE_04
 70
               0
  3

 72
              65
 73
               2
 40
1.5277099609375
 49
1.319427490234375
 74
               0
 49
-0.208282470703125
 74
               0
  0
LTYPE
  5
22
100
AcDbSymbolTableRecord
100
AcDbLinetypeTableRecord
  2
STYLE_05
 70
               0
  3

 72
              65
 73
               2
 40
0.208282470703125
 49
0.069427490234375
 74
               0
 49
-0.13885498046875
 74
               0
  0
LTYPE
  5
23
100
AcDbSymbolTableRecord
100
AcDbLinetypeTableRecord
  2
STYLE_06
 70
               0
  3

 72
              65
 73
               4
 40
1.0416412353515625
 49
0.625
 74
               0
 49
-0.208282470703125
 74
               0
 49
0.069427490234375
 74
               0
 49
-0.1389312744140625
 74
               0
  0
LTYPE
  5
24
100
AcDbSymbolTableRecord
100
AcDbLinetypeTableRecord
  2
STYLE_07
 70
               0
  3

 72
              65
 73
               6
 40
1.875
 49
0.625
 74
               0
 49
-0.208282470703125
 74
               0
 49
0.625
 74
               0
 49
-0.2083587646484375
 74
               0
 49
0.069427490234375
 74
               0
 49
-0.1389312744140625
 74
               0
  0
LTYPE
  5
25
100
AcDbSymbolTableRecord
100
AcDbLinetypeTableRecord
  2
STYLE_08
 70
               0
  3

 72
              65
 73
               6
 40
1.25
 49
0.625
 74
               0
 49
-0.208282470703125
 74
               0
 49
0.069427490234375
 74
               0
 49
-0.1389312744140625
 74
               0
 49
0.069427490234375
 74
               0
 49
-0.1389312744140625
 74
               0
  0
LTYPE
  5
26
100
AcDbSymbolTableRecord
100
AcDbLinetypeTableRecord
  2
STYLE_09
 70
               0
  3

 72
              65
 73
               2
 40
0.1476287841796875
 49
0.098419189453125
 74
               0
 49
-0.0492095947265625
 74
               0
  0
LTYPE
  5
27
100
AcDbSymbolTableRecord
100
AcDbLinetypeTableRecord
  2
STYLE_10
 70
               0
  3

 72
              65
 73
               6
 40
5.9375
 49
3.75
 74
               0
 49
-0.2777862548828125
 74
               0
 49
0.694427490234375
 74
               0
 49
-0.2777862548828125
 74
               0
 49
0.625
 74
               0
 49
-0.3125
 74
               0
  0
LTYPE
  5
28
100
AcDbSymbolTableRecord
100
AcDbLinetypeTableRecord
  2
STYLE_11
 70
               0
  3

 72
              65
 73
               2
 40
0.208282470703125
 49
0.069427490234375
 74
               0
 49
-0.13885498046875
 74
               0
  0
ENDTAB
  0
TABLE
  2
LAYER
  5
2
100
AcDbSymbolTable
 70
               2
  0
LAYER
  5
14
100
AcDbSymbolTableRecord
100
AcDbLayerTableRecord
  2
0
 70
               0
 62
               7
  6
CONTINUOUS
  0
LAYER
  5
29
100
AcDbSymbolTableRecord
100
AcDbLayerTableRecord
  2
IMPORTED
 70
               0
 62
               7
  6
CONTINUOUS
  0
ENDTAB
  0
TABLE
  2
STYLE
  5
3
100
AcDbSymbolTable
 70
               2
  0
STYLE
  5
17
100
AcDbSymbolTableRecord
100
AcDbTextStyleTableRecord
  2
STANDARD
 70
               0
 40
0.0
 41
1.0
 50
0.0
 71
               0
 42
0.0
  3
txt
  4
BIGFONT.SHX
  0
STYLE
  5
1D
100
AcDbSymbolTableRecord
100
AcDbTextStyleTableRecord
  2
_______
 70
               0
 40
0.0
 41
1.0
 50
0.0
 71
               0
 42
0.0
  3

  4
ＭＳ ゴシック
1001
ACAD
1000
ＭＳ ゴシック
1071
        0
  0
ENDTAB
  0
TABLE
  2
VIEW
  5
5
100
AcDbSymbolTable
 70
               0
  0
ENDTAB
  0
TABLE
  2
UCS
  5
6
100
AcDbSymbolTable
 70
               0
  0
ENDTAB
  0
TABLE
  2
APPID
  5
8
100
AcDbSymbolTable
 70
               1
  0
APPID
  5
16
100
AcDbSymbolTableRecord
100
AcDbRegAppTableRecord
  2
ACAD
 70
               0
  0
ENDTAB
  0
TABLE
  2
DIMSTYLE
  5
9
100
AcDbSymbolTable
 70
               1
  0
DIMSTYLE
105
18
100
AcDbSymbolTableRecord
100
AcDbDimStyleTableRecord
  2
STANDARD
 70
               0
  3

  4

  5

  6

  7

 40
1.0
 41
0.18
 42
0.0625
 43
0.38
 44
0.18
 45
0.0
 46
0.0
 47
0.0
 48
0.0
 71
               0
 72
               0
 73
               1
 74
               1
 75
               0
 76
               0
 77
               0
 78
               0
140
0.18
141
0.09
142
0.0
143
25.399999999999999
144
1.0
145
0.0
146
1.0
147
0.09
170
               0
171
               2
172
               0
173
               0
174
               0
175
               0
176
               0
177
               0
178
               0
270
               2
271
               4
272
               4
273
               2
274
               2
275
               0
280
               0
281
               0
282
               0
283
               1
284
               0
285
               0
286
               0
287
               3
288
               0
340
17
  0
ENDTAB
  0
TABLE
  2
BLOCK_RECORD
  5
1
100
AcDbSymbolTable
 70
               0
  0
BLOCK_RECORD
  5
A
100
AcDbSymbolTableRecord
100
AcDbBlockTableRecord
  2
*MODEL_SPACE
  0
BLOCK_RECORD
  5
B
100
AcDbSymbolTableRecord
100
AcDbBlockTableRecord
  2
*PAPER_SPACE
  0
ENDTAB
  0
ENDSEC
  0
SECTION
  2
BLOCKS
  0
BLOCK
  5
D
100
AcDbEntity
  8
0
100
AcDbBlockBegin
  2
*MODEL_SPACE
 70
               0
 10
0.0
 20
0.0
 30
0.0
  3
*MODEL_SPACE
  1

  0
ENDBLK
  5
E
100
AcDbEntity
  8
0
100
AcDbBlockEnd
  0
BLOCK
  5
F
100
AcDbEntity
 67
               1
  8
0
100
AcDbBlockBegin
  2
*PAPER_SPACE
 70
               0
 10
0.0
 20
0.0
 30
0.0
  3
*PAPER_SPACE
  1

  0
ENDBLK
  5
10
100
AcDbEntity
 67
               1
  8
0
100
AcDbBlockEnd
  0
ENDSEC
  0
SECTION
  2
ENTITIES
  0
MTEXT
  5
2A
100
AcDbEntity
  8
IMPORTED
 62
               1
100
AcDbMText
 10
-740.62911916490975
 20
-1086.0864372066922
 30
0.0
 40
32.576797265624997
 41
0.0
 71
               1
 72
               1
  1
均しコンクリート
  7
_______
  0
MTEXT
  5
2B
100
AcDbEntity
  8
IMPORTED
 62
               1
100
AcDbMText
 10
-752.26561916490982
 20
-1209.9471372066921
 30
0.0
 40
32.576797265624997
 41
0.0
 71
               1
 72
               1
  1
再生クラッシャラン
  7
_______
  0
MTEXT
  5
2C
100
AcDbEntity
  8
IMPORTED
 62
               1
100
AcDbMText
 10
363.12078083509005
 20
1796.4873597776825
 30
0.0
 40
32.576822916666664
 41
0.0
 71
               1
 72
               1
  1
柱 ESW150×150C2H塗装
  7
_______
  0
MTEXT
  5
2D
100
AcDbEntity
  8
IMPORTED
 62
               1
100
AcDbMText
 10
361.94896931191636
 20
773.67015977768267
 30
0.0
 40
32.576822916666664
 41
0.0
 71
               1
 72
               1
  1
表示板 ESW145×25M塗装
  7
_______
  0
LINE
  5
2E
100
AcDbEntity
  8
IMPORTED
  6
CONTINUOUS
 62
               1
100
AcDbLine
 10
119.14658083509011
 20
1554.9999035276826
 30
0.0
 11
349.99998083509007
 21
1744.9999035276826
 31
0.0
  0
LINE
  5
2F
100
AcDbEntity
  8
IMPORTED
  6
CONTINUOUS
 62
               1
100
AcDbLine
 10
349.99998083509007
 20
1744.9999035276826
 30
0.0
 11
825.0
 21
1744.9999035276826
 31
0.0
  0
LINE
  5
30
100
AcDbEntity
  8
IMPORTED
  6
CONTINUOUS
 62
               1
100
AcDbLine
 10
239.9999808350901
 20
997.10260352768262
 30
0.0
 11
349.99998083509007
 21
722.50000352768268
 31
0.0
  0
LINE
  5
31
100
AcDbEntity
  8
IMPORTED
  6
CONTINUOUS
 62
               1
100
AcDbLine
 10
349.99998083509007
 20
722.4999035276827
 30
0.0
 11
840.0
 21
722.4999035276827
 31
0.0
  0
MTEXT
  5
32
100
AcDbEntity
  8
IMPORTED
 62
               1
100
AcDbMText
 10
553.79708083509013
 20
-898.49103720669223
 30
0.0
 40
32.576797265624997
 41
0.0
 71
               1
 72
               1
  1
樹脂発泡シート巻
  7
_______
  0
LINE
  5
33
100
AcDbEntity
  8
IMPORTED
  6
CONTINUOUS
 62
               1
100
AcDbLine
 10
523.65488083509013
 20
-956.40459647231717
 30
0.0
 11
915.0
 21
-956.40459647231717
 31
0.0
  0
LINE
  5
34
100
AcDbEntity
  8
IMPORTED
  6
CONTINUOUS
 62
               1
100
AcDbLine
 10
74.810980835090106
 20
-647.99289647231717
 30
0.0
 11
523.65478083509015
 21
-956.40449647231719
 31
0.0
  0
MTEXT
  5
35
100
AcDbEntity
  8
IMPORTED
 62
               1
100
AcDbMText
 10
-679.87865993183664
 20
-770.26639643976534
 30
0.0
 40
32.576797265624997
 41
0.0
 71
               1
 72
               1
  1
基礎コンクリート
  7
_______
  0
LINE
  5
36
100
AcDbEntity
  8
IMPORTED
  6
CONTINUOUS
 62
               1
100
AcDbLine
 10
-682.47951916490979
 20
-823.94899647231716
 30
0.0
 11
-323.9999191649099
 21
-823.94899647231716
 31
0.0
  0
LINE
  5
37
100
AcDbEntity
  8
IMPORTED
  6
CONTINUOUS
 62
               1
100
AcDbLine
 10
-323.9999191649099
 20
-823.94899647231716
 30
0.0
 11
-186.44201916490988
 21
-644.70639647231724
 31
0.0
  0
LINE
  5
38
100
AcDbEntity
  8
IMPORTED
  6
CONTINUOUS
 62
               1
100
AcDbLine
 10
-753.99991916490978
 20
-1142.3698964723171
 30
0.0
 11
-401.96281916490989
 21
-1142.3698964723171
 31
0.0
  0
LINE
  5
39
100
AcDbEntity
  8
IMPORTED
  6
CONTINUOUS
 62
               1
100
AcDbLine
 10
-401.96281916490989
 20
-1142.3698964723171
 30
0.0
 11
-234.99991916490987
 21
-994.41829647231714
 31
0.0
  0
LINE
  5
3A
100
AcDbEntity
  8
IMPORTED
  6
CONTINUOUS
 62
               1
100
AcDbLine
 10
-773.99991916490978
 20
-1266.2305964723171
 30
0.0
 11
-368.9999191649099
 21
-1266.2305964723171
 31
0.0
  0
LINE
  5
3B
100
AcDbEntity
  8
IMPORTED
  6
CONTINUOUS
 62
               1
100
AcDbLine
 10
-368.9999191649099
 20
-1266.2305964723171
 30
0.0
 11
-235.76001916490986
 21
-1132.990696472317
 31
0.0
  0
LINE
  5
3C
100
AcDbEntity
  8
IMPORTED
  6
CONTINUOUS
 62
               1
100
AcDbLine
 10
-2395.8533191649099
 20
-1022.8972962487998
 30
0.0
 11
-2395.8533191649099
 21
-1394.9999998509884
 31
0.0
  0
LINE
  5
3D
100
AcDbEntity
  8
IMPORTED
  6
CONTINUOUS
 62
               1
100
AcDbLine
 10
-1895.8533191649096
 20
-1022.8972962487998
 30
0.0
 11
-1895.8533191649096
 21
-1394.9999998509884
 31
0.0
  0
LINE
  5
3E
100
AcDbEntity
  8
IMPORTED
  6
CONTINUOUS
 62
               1
100
AcDbLine
 10
-2435.8533190158983
 20
-1355.0
 30
0.0
 11
-2395.8533191649099
 21
-1355.0
 31
0.0
  0
LINE
  5
3F
100
AcDbEntity
  8
IMPORTED
  6
CONTINUOUS
 62
               1
100
AcDbLine
 10
-1895.8533191649096
 20
-1355.0
 30
0.0
 11
-1855.8533193139212
 21
-1355.0
 31
0.0
  0
LINE
  5
40
100
AcDbEntity
  8
IMPORTED
  6
CONTINUOUS
 62
               1
100
AcDbLine
 10
-2395.8533191649099
 20
-1355.0
 30
0.0
 11
-1895.8533191649096
 21
-1355.0
 31
0.0
  0
SOLID
  5
41
100
AcDbEntity
  8
IMPORTED
 62
               1
100
AcDbTrace
 10
-2395.8533191649099
 20
-1355.0
 30
0.0
 11
-2355.8557605711599
 21
-1351.500667054333
 31
0.0
 12
-2355.8557605711599
 22
-1358.499332945667
 32
0.0
 13
-2355.8557605711599
 23
-1358.499332945667
 33
0.0
  0
SOLID
  5
42
100
AcDbEntity
  8
IMPORTED
 62
               1
100
AcDbTrace
 10
-1895.8533191649096
 20
-1355.0
 30
0.0
 11
-1935.8508777586596
 21
-1358.499332945667
 31
0.0
 12
-1935.8508777586596
 22
-1351.500667054333
 32
0.0
 13
-1935.8508777586596
 23
-1351.500667054333
 33
0.0
  0
MTEXT
  5
43
100
AcDbEntity
  8
IMPORTED
 62
               1
100
AcDbMText
 10
-2177.6033191649099
 20
-1296.4965104911726
 30
0.0
 40
32.576822916666664
 41
0.0
 71
               1
 72
               1
  1
500
  7
_______
  0
LINE
  5
44
100
AcDbEntity
  8
IMPORTED
  6
CONTINUOUS
 62
               1
100
AcDbLine
 10
-2445.8533191649099
 20
-1222.8972962487996
 30
0.0
 11
-2445.8533191649099
 21
-1394.9999998509884
 31
0.0
  0
LINE
  5
45
100
AcDbEntity
  8
IMPORTED
  6
CONTINUOUS
 62
               1
100
AcDbLine
 10
-2395.8533191649099
 20
-1022.8972962487998
 30
0.0
 11
-2395.8533191649099
 21
-1394.9999998509884
 31
0.0
  0
LINE
  5
46
100
AcDbEntity
  8
IMPORTED
  6
CONTINUOUS
 62
               1
100
AcDbLine
 10
-2485.8533190158983
 20
-1355.0
 30
0.0
 11
-2445.8533191649099
 21
-1355.0
 31
0.0
  0
LINE
  5
47
100
AcDbEntity
  8
IMPORTED
  6
CONTINUOUS
 62
               1
100
AcDbLine
 10
-2395.8533191649099
 20
-1355.0
 30
0.0
 11
-2355.8533193139215
 21
-1355.0
 31
0.0
  0
LINE
  5
48
100
AcDbEntity
  8
IMPORTED
  6
CONTINUOUS
 62
               1
100
AcDbLine
 10
-2445.8533191649099
 20
-1355.0
 30
0.0
 11
-2395.8533191649099
 21
-1355.0
 31
0.0
  0
SOLID
  5
49
100
AcDbEntity
  8
IMPORTED
 62
               1
100
AcDbTrace
 10
-2445.8533191649099
 20
-1355.0
 30
0.0
 11
-2405.8557605711599
 21
-1351.500667054333
 31
0.0
 12
-2405.8557605711599
 22
-1358.499332945667
 32
0.0
 13
-2405.8557605711599
 23
-1358.499332945667
 33
0.0
  0
SOLID
  5
4A
100
AcDbEntity
  8
IMPORTED
 62
               1
100
AcDbTrace
 10
-2395.8533191649099
 20
-1355.0
 30
0.0
 11
-2435.8508777586599
 21
-1358.499332945667
 31
0.0
 12
-2435.8508777586599
 22
-1351.500667054333
 32
0.0
 13
-2435.8508777586599
 23
-1351.500667054333
 33
0.0
  0
MTEXT
  5
4B
100
AcDbEntity
  8
IMPORTED
 62
               1
100
AcDbMText
 10
-2442.0199858315764
 20
-1296.4965104911726
 30
0.0
 40
32.576822916666664
 41
0.0
 71
               1
 72
               1
  1
50
  7
_______
  0
LINE
  5
4C
100
AcDbEntity
  8
IMPORTED
  6
CONTINUOUS
 62
               1
100
AcDbLine
 10
-1895.8533191649096
 20
-1022.8972962487998
 30
0.0
 11
-1895.8533191649096
 21
-1394.9999998509884
 31
0.0
  0
LINE
  5
4D
100
AcDbEntity
  8
IMPORTED
  6
CONTINUOUS
 62
               1
100
AcDbLine
 10
-1845.8533191649096
 20
-1222.8972962487996
 30
0.0
 11
-1845.8533191649096
 21
-1394.9999998509884
 31
0.0
  0
LINE
  5
4E
100
AcDbEntity
  8
IMPORTED
  6
CONTINUOUS
 62
               1
100
AcDbLine
 10
-1935.853319015898
 20
-1355.0
 30
0.0
 11
-1895.8533191649096
 21
-1355.0
 31
0.0
  0
LINE
  5
4F
100
AcDbEntity
  8
IMPORTED
  6
CONTINUOUS
 62
               1
100
AcDbLine
 10
-1845.8533191649096
 20
-1355.0
 30
0.0
 11
-1805.8533193139212
 21
-1355.0
 31
0.0
  0
LINE
  5
50
100
AcDbEntity
  8
IMPORTED
  6
CONTINUOUS
 62
               1
100
AcDbLine
 10
-1895.8533191649096
 20
-1355.0
 30
0.0
 11
-1845.8533191649096
 21
-1355.0
 31
0.0
  0
SOLID
  5
51
100
AcDbEntity
  8
IMPORTED
 62
               1
100
AcDbTrace
 10
-1895.8533191649096
 20
-1355.0
 30
0.0
 11
-1855.8557605711596
 21
-1351.500667054333
 31
0.0
 12
-1855.8557605711596
 22
-1358.499332945667
 32
0.0
 13
-1855.8557605711596
 23
-1358.499332945667
 33
0.0
  0
SOLID
  5
52
100
AcDbEntity
  8
IMPORTED
 62
               1
100
AcDbTrace
 10
-1845.8533191649096
 20
-1355.0
 30
0.0
 11
-1885.8508777586596
 21
-1358.499332945667
 31
0.0
 12
-1885.8508777586596
 22
-1351.500667054333
 32
0.0
 13
-1885.8508777586596
 23
-1351.500667054333
 33
0.0
  0
MTEXT
  5
53
100
AcDbEntity
  8
IMPORTED
 62
               1
100
AcDbMText
 10
-1892.0199858315764
 20
-1296.4965104911726
 30
0.0
 40
32.576822916666664
 41
0.0
 71
               1
 72
               1
  1
50
  7
_______
  0
LINE
  5
54
100
AcDbEntity
  8
IMPORTED
  6
CONTINUOUS
 62
               1
100
AcDbLine
 10
-2445.8533191649099
 20
-1222.8972962487996
 30
0.0
 11
-2445.8533191649099
 21
-1539.9999998509884
 31
0.0
  0
LINE
  5
55
100
AcDbEntity
  8
IMPORTED
  6
CONTINUOUS
 62
               1
100
AcDbLine
 10
-1845.8533191649096
 20
-1222.8972962487996
 30
0.0
 11
-1845.8533191649096
 21
-1539.9999998509884
 31
0.0
  0
LINE
  5
56
100
AcDbEntity
  8
IMPORTED
  6
CONTINUOUS
 62
               1
100
AcDbLine
 10
-2485.8533190158983
 20
-1500.0
 30
0.0
 11
-2445.8533191649099
 21
-1500.0
 31
0.0
  0
LINE
  5
57
100
AcDbEntity
  8
IMPORTED
  6
CONTINUOUS
 62
               1
100
AcDbLine
 10
-1845.8533191649096
 20
-1500.0
 30
0.0
 11
-1805.8533193139212
 21
-1500.0
 31
0.0
  0
LINE
  5
58
100
AcDbEntity
  8
IMPORTED
  6
CONTINUOUS
 62
               1
100
AcDbLine
 10
-2445.8533191649099
 20
-1500.0
 30
0.0
 11
-1845.8533191649096
 21
-1500.0
 31
0.0
  0
SOLID
  5
59
100
AcDbEntity
  8
IMPORTED
 62
               1
100
AcDbTrace
 10
-2445.8533191649099
 20
-1500.0
 30
0.0
 11
-2405.8557605711599
 21
-1496.500667054333
 31
0.0
 12
-2405.8557605711599
 22
-1503.499332945667
 32
0.0
 13
-2405.8557605711599
 23
-1503.499332945667
 33
0.0
  0
SOLID
  5
5A
100
AcDbEntity
  8
IMPORTED
 62
               1
100
AcDbTrace
 10
-1845.8533191649096
 20
-1500.0
 30
0.0
 11
-1885.8508777586596
 21
-1503.499332945667
 31
0.0
 12
-1885.8508777586596
 22
-1496.500667054333
 32
0.0
 13
-1885.8508777586596
 23
-1496.500667054333
 33
0.0
  0
MTEXT
  5
5B
100
AcDbEntity
  8
IMPORTED
 62
               1
100
AcDbMText
 10
-2177.6033191649099
 20
-1441.4965104911726
 30
0.0
 40
32.576822916666664
 41
0.0
 71
               1
 72
               1
  1
600
  7
_______
  0
LINE
  5
5C
100
AcDbEntity
  8
IMPORTED
  6
CONTINUOUS
 62
               1
100
AcDbLine
 10
-2505.8533189413924
 20
-962.89729647231718
 30
0.0
 11
-3055.5034190158981
 21
-962.89729647231718
 31
0.0
  0
LINE
  5
5D
100
AcDbEntity
  8
IMPORTED
  6
CONTINUOUS
 62
               1
100
AcDbLine
 10
-2665.8533189413924
 20
-362.89729647231729
 30
0.0
 11
-3055.5034190158981
 21
-362.89729647231729
 31
0.0
  0
LINE
  5
5E
100
AcDbEntity
  8
IMPORTED
  6
CONTINUOUS
 62
               1
100
AcDbLine
 10
-3015.5034191649097
 20
-1002.8972963233056
 30
0.0
 11
-3015.5034191649097
 21
-962.89729647231718
 31
0.0
  0
LINE
  5
5F
100
AcDbEntity
  8
IMPORTED
  6
CONTINUOUS
 62
               1
100
AcDbLine
 10
-3015.5034191649097
 20
-362.89729647231729
 30
0.0
 11
-3015.5034191649097
 21
-322.89729662132891
 31
0.0
  0
LINE
  5
60
100
AcDbEntity
  8
IMPORTED
  6
CONTINUOUS
 62
               1
100
AcDbLine
 10
-3015.5034191649097
 20
-962.89729647231718
 30
0.0
 11
-3015.5034191649097
 21
-362.89729647231729
 31
0.0
  0
SOLID
  5
61
100
AcDbEntity
  8
IMPORTED
 62
               1
100
AcDbTrace
 10
-3015.5034191649097
 20
-962.89729647231718
 30
0.0
 11
-3019.0027521105767
 21
-922.89973787856718
 31
0.0
 12
-3012.0040862192427
 22
-922.89973787856718
 32
0.0
 13
-3012.0040862192427
 23
-922.89973787856718
 33
0.0
  0
SOLID
  5
62
100
AcDbEntity
  8
IMPORTED
 62
               1
100
AcDbTrace
 10
-3015.5034191649097
 20
-362.89729647231729
 30
0.0
 11
-3012.0040862192427
 21
-402.89485506606729
 31
0.0
 12
-3019.0027521105767
 22
-402.89485506606729
 32
0.0
 13
-3019.0027521105767
 23
-402.89485506606729
 33
0.0
  0
MTEXT
  5
63
100
AcDbEntity
  8
IMPORTED
 62
               1
100
AcDbMText
 10
-3074.0069086737371
 20
-694.64729647231718
 30
0.0
 40
32.576822916666664
 41
0.0
 71
               1
 72
               1
  1
600
  7
_______
 11
0.0
 21
1.0
 31
0.0
  0
LINE
  5
64
100
AcDbEntity
  8
IMPORTED
  6
CONTINUOUS
 62
               1
100
AcDbLine
 10
-2665.8533189413924
 20
-362.89729647231729
 30
0.0
 11
-3055.5034190158981
 21
-362.89729647231729
 31
0.0
  0
LINE
  5
65
100
AcDbEntity
  8
IMPORTED
  6
CONTINUOUS
 62
               1
100
AcDbLine
 10
-2127.8533189413924
 20
997.10260352768262
 30
0.0
 11
-3055.5034190158981
 21
997.10260352768262
 31
0.0
  0
LINE
  5
66
100
AcDbEntity
  8
IMPORTED
  6
CONTINUOUS
 62
               1
100
AcDbLine
 10
-3015.5034191649097
 20
-402.89729632330568
 30
0.0
 11
-3015.5034191649097
 21
-362.89729647231729
 31
0.0
  0
LINE
  5
67
100
AcDbEntity
  8
IMPORTED
  6
CONTINUOUS
 62
               1
100
AcDbLine
 10
-3015.5034191649097
 20
997.10260352768262
 30
0.0
 11
-3015.5034191649097
 21
1037.1026033786711
 31
0.0
  0
LINE
  5
68
100
AcDbEntity
  8
IMPORTED
  6
CONTINUOUS
 62
               1
100
AcDbLine
 10
-3015.5034191649097
 20
-362.89729647231729
 30
0.0
 11
-3015.5034191649097
 21
997.10260352768262
 31
0.0
  0
SOLID
  5
69
100
AcDbEntity
  8
IMPORTED
 62
               1
100
AcDbTrace
 10
-3015.5034191649097
 20
-362.89729647231729
 30
0.0
 11
-3019.0027521105767
 21
-322.89973787856729
 31
0.0
 12
-3012.0040862192427
 22
-322.89973787856729
 32
0.0
 13
-3012.0040862192427
 23
-322.89973787856729
 33
0.0
  0
SOLID
  5
6A
100
AcDbEntity
  8
IMPORTED
 62
               1
100
AcDbTrace
 10
-3015.5034191649097
 20
997.10260352768262
 30
0.0
 11
-3012.0040862192427
 21
957.10504493393262
 31
0.0
 12
-3019.0027521105767
 22
957.10504493393262
 32
0.0
 13
-3019.0027521105767
 23
957.10504493393262
 33
0.0
  0
MTEXT
  5
6B
100
AcDbEntity
  8
IMPORTED
 62
               1
100
AcDbMText
 10
-3074.0069086737376
 20
274.76932019434929
 30
0.0
 40
32.576822916666664
 41
0.0
 71
               1
 72
               1
  1
1360
  7
_______
 11
0.0
 21
1.0
 31
0.0
  0
LINE
  5
6C
100
AcDbEntity
  8
IMPORTED
  6
CONTINUOUS
 62
               1
100
AcDbLine
 10
-2127.8533189413924
 20
997.10260352768262
 30
0.0
 11
-3055.5034190158981
 21
997.10260352768262
 31
0.0
  0
LINE
  5
6D
100
AcDbEntity
  8
IMPORTED
  6
CONTINUOUS
 62
               1
100
AcDbLine
 10
-2127.8533189413924
 20
1142.1026035276827
 30
0.0
 11
-3055.5034190158981
 21
1142.1026035276827
 31
0.0
  0
LINE
  5
6E
100
AcDbEntity
  8
IMPORTED
  6
CONTINUOUS
 62
               1
100
AcDbLine
 10
-3015.5034191649097
 20
957.10260367669423
 30
0.0
 11
-3015.5034191649097
 21
997.10260352768262
 31
0.0
  0
LINE
  5
6F
100
AcDbEntity
  8
IMPORTED
  6
CONTINUOUS
 62
               1
100
AcDbLine
 10
-3015.5034191649097
 20
1142.1026035276827
 30
0.0
 11
-3015.5034191649097
 21
1182.1026033786711
 31
0.0
  0
LINE
  5
70
100
AcDbEntity
  8
IMPORTED
  6
CONTINUOUS
 62
               1
100
AcDbLine
 10
-3015.5034191649097
 20
997.10260352768262
 30
0.0
 11
-3015.5034191649097
 21
1142.1026035276827
 31
0.0
  0
SOLID
  5
71
100
AcDbEntity
  8
IMPORTED
 62
               1
100
AcDbTrace
 10
-3015.5034191649097
 20
997.10260352768262
 30
0.0
 11
-3019.0027521105767
 21
1037.1001621214327
 31
0.0
 12
-3012.0040862192427
 22
1037.1001621214327
 32
0.0
 13
-3012.0040862192427
 23
1037.1001621214327
 33
0.0
  0
SOLID
  5
72
100
AcDbEntity
  8
IMPORTED
 62
               1
100
AcDbTrace
 10
-3015.5034191649097
 20
1142.1026035276827
 30
0.0
 11
-3012.0040862192427
 21
1102.1050449339327
 31
0.0
 12
-3019.0027521105767
 22
1102.1050449339327
 32
0.0
 13
-3019.0027521105767
 23
1102.1050449339327
 33
0.0
  0
MTEXT
  5
73
100
AcDbEntity
  8
IMPORTED
 62
               1
100
AcDbMText
 10
-3074.0069086737371
 20
1037.8526035276827
 30
0.0
 40
32.576822916666664
 41
0.0
 71
               1
 72
               1
  1
145
  7
_______
 11
0.0
 21
1.0
 31
0.0
  0
LINE
  5
74
100
AcDbEntity
  8
IMPORTED
  6
CONTINUOUS
 62
               1
100
AcDbLine
 10
-2127.8533189413924
 20
1142.1026035276827
 30
0.0
 11
-3055.5034190158981
 21
1142.1026035276827
 31
0.0
  0
LINE
  5
75
100
AcDbEntity
  8
IMPORTED
  6
CONTINUOUS
 62
               1
100
AcDbLine
 10
-2127.8533189413924
 20
1162.1026035276827
 30
0.0
 11
-3055.5034190158981
 21
1162.1026035276827
 31
0.0
  0
LINE
  5
76
100
AcDbEntity
  8
IMPORTED
  6
CONTINUOUS
 62
               1
100
AcDbLine
 10
-3015.5034191649097
 20
1102.1026036766943
 30
0.0
 11
-3015.5034191649097
 21
1142.1026035276827
 31
0.0
  0
LINE
  5
77
100
AcDbEntity
  8
IMPORTED
  6
CONTINUOUS
 62
               1
100
AcDbLine
 10
-3015.5034191649097
 20
1162.1026035276827
 30
0.0
 11
-3015.5034191649097
 21
1202.1026033786711
 31
0.0
  0
LINE
  5
78
100
AcDbEntity
  8
IMPORTED
  6
CONTINUOUS
 62
               1
100
AcDbLine
 10
-3015.5034191649097
 20
1142.1026035276827
 30
0.0
 11
-3015.5034191649097
 21
1162.1026035276827
 31
0.0
  0
SOLID
  5
79
100
AcDbEntity
  8
IMPORTED
 62
               1
100
AcDbTrace
 10
-3015.5034191649097
 20
1142.1026035276827
 30
0.0
 11
-3019.0027521105767
 21
1182.1001621214327
 31
0.0
 12
-3012.0040862192427
 22
1182.1001621214327
 32
0.0
 13
-3012.0040862192427
 23
1182.1001621214327
 33
0.0
  0
SOLID
  5
7A
100
AcDbEntity
  8
IMPORTED
 62
               1
100
AcDbTrace
 10
-3015.5034191649097
 20
1162.1026035276827
 30
0.0
 11
-3012.0040862192427
 21
1122.1050449339327
 31
0.0
 12
-3019.0027521105767
 22
1122.1050449339327
 32
0.0
 13
-3019.0027521105767
 23
1122.1050449339327
 33
0.0
  0
MTEXT
  5
7B
100
AcDbEntity
  8
IMPORTED
 62
               1
100
AcDbMText
 10
-3074.0069086737371
 20
1130.935936861016
 30
0.0
 40
32.576822916666664
 41
0.0
 71
               1
 72
               1
  1
20
  7
_______
 11
0.0
 21
1.0
 31
0.0
  0
LINE
  5
7C
100
AcDbEntity
  8
IMPORTED
  6
CONTINUOUS
 62
               1
100
AcDbLine
 10
-2127.8533189413924
 20
1162.1026035276827
 30
0.0
 11
-3055.5034190158981
 21
1162.1026035276827
 31
0.0
  0
LINE
  5
7D
100
AcDbEntity
  8
IMPORTED
  6
CONTINUOUS
 62
               1
100
AcDbLine
 10
-2127.8534189413926
 20
1307.1026035276827
 30
0.0
 11
-3055.5034190158981
 21
1307.1026035276827
 31
0.0
  0
LINE
  5
7E
100
AcDbEntity
  8
IMPORTED
  6
CONTINUOUS
 62
               1
100
AcDbLine
 10
-3015.5034191649097
 20
1122.1026036766943
 30
0.0
 11
-3015.5034191649097
 21
1162.1026035276827
 31
0.0
  0
LINE
  5
7F
100
AcDbEntity
  8
IMPORTED
  6
CONTINUOUS
 62
               1
100
AcDbLine
 10
-3015.5034191649097
 20
1307.1026035276827
 30
0.0
 11
-3015.5034191649097
 21
1347.1026033786711
 31
0.0
  0
LINE
  5
80
100
AcDbEntity
  8
IMPORTED
  6
CONTINUOUS
 62
               1
100
AcDbLine
 10
-3015.5034191649097
 20
1162.1026035276827
 30
0.0
 11
-3015.5034191649097
 21
1307.1026035276827
 31
0.0
  0
SOLID
  5
81
100
AcDbEntity
  8
IMPORTED
 62
               1
100
AcDbTrace
 10
-3015.5034191649097
 20
1162.1026035276827
 30
0.0
 11
-3019.0027521105767
 21
1202.1001621214327
 31
0.0
 12
-3012.0040862192427
 22
1202.1001621214327
 32
0.0
 13
-3012.0040862192427
 23
1202.1001621214327
 33
0.0
  0
SOLID
  5
82
100
AcDbEntity
  8
IMPORTED
 62
               1
100
AcDbTrace
 10
-3015.5034191649097
 20
1307.1026035276827
 30
0.0
 11
-3012.0040862192427
 21
1267.1050449339327
 31
0.0
 12
-3019.0027521105767
 22
1267.1050449339327
 32
0.0
 13
-3019.0027521105767
 23
1267.1050449339327
 33
0.0
  0
MTEXT
  5
83
100
AcDbEntity
  8
IMPORTED
 62
               1
100
AcDbMText
 10
-3074.0069086737371
 20
1202.8526035276827
 30
0.0
 40
32.576822916666664
 41
0.0
 71
               1
 72
               1
  1
145
  7
_______
 11
0.0
 21
1.0
 31
0.0
  0
LINE
  5
84
100
AcDbEntity
  8
IMPORTED
  6
CONTINUOUS
 62
               1
100
AcDbLine
 10
-2127.8534189413926
 20
1307.1026035276827
 30
0.0
 11
-3055.5034190158981
 21
1307.1026035276827
 31
0.0
  0
LINE
  5
85
100
AcDbEntity
  8
IMPORTED
  6
CONTINUOUS
 62
               1
100
AcDbLine
 10
-2652.8533189413924
 20
1327.1026035276827
 30
0.0
 11
-3055.5034190158981
 21
1327.1026035276827
 31
0.0
  0
LINE
  5
86
100
AcDbEntity
  8
IMPORTED
  6
CONTINUOUS
 62
               1
100
AcDbLine
 10
-3015.5034191649097
 20
1267.1026036766943
 30
0.0
 11
-3015.5034191649097
 21
1307.1026035276827
 31
0.0
  0
LINE
  5
87
100
AcDbEntity
  8
IMPORTED
  6
CONTINUOUS
 62
               1
100
AcDbLine
 10
-3015.5034191649097
 20
1327.1026035276827
 30
0.0
 11
-3015.5034191649097
 21
1367.1026033786711
 31
0.0
  0
LINE
  5
88
100
AcDbEntity
  8
IMPORTED
  6
CONTINUOUS
 62
               1
100
AcDbLine
 10
-3015.5034191649097
 20
1307.1026035276827
 30
0.0
 11
-3015.5034191649097
 21
1327.1026035276827
 31
0.0
  0
SOLID
  5
89
100
AcDbEntity
  8
IMPORTED
 62
               1
100
AcDbTrace
 10
-3015.5034191649097
 20
1307.1026035276827
 30
0.0
 11
-3019.0027521105767
 21
1347.1001621214327
 31
0.0
 12
-3012.0040862192427
 22
1347.1001621214327
 32
0.0
 13
-3012.0040862192427
 23
1347.1001621214327
 33
0.0
  0
SOLID
  5
8A
100
AcDbEntity
  8
IMPORTED
 62
               1
100
AcDbTrace
 10
-3015.5034191649097
 20
1327.1026035276827
 30
0.0
 11
-3012.0040862192427
 21
1287.1050449339327
 31
0.0
 12
-3019.0027521105767
 22
1287.1050449339327
 32
0.0
 13
-3019.0027521105767
 23
1287.1050449339327
 33
0.0
  0
MTEXT
  5
8B
100
AcDbEntity
  8
IMPORTED
 62
               1
100
AcDbMText
 10
-3074.0069086737371
 20
1295.935936861016
 30
0.0
 40
32.576822916666664
 41
0.0
 71
               1
 72
               1
  1
20
  7
_______
 11
0.0
 21
1.0
 31
0.0
  0
LINE
  5
8C
100
AcDbEntity
  8
IMPORTED
  6
CONTINUOUS
 62
               1
100
AcDbLine
 10
-2652.8533189413924
 20
1327.1026035276827
 30
0.0
 11
-3055.5034190158981
 21
1327.1026035276827
 31
0.0
  0
LINE
  5
8D
100
AcDbEntity
  8
IMPORTED
  6
CONTINUOUS
 62
               1
100
AcDbLine
 10
-2652.8533189413924
 20
1472.1026035276827
 30
0.0
 11
-3055.5034190158981
 21
1472.1026035276827
 31
0.0
  0
LINE
  5
8E
100
AcDbEntity
  8
IMPORTED
  6
CONTINUOUS
 62
               1
100
AcDbLine
 10
-3015.5034191649097
 20
1287.1026036766943
 30
0.0
 11
-3015.5034191649097
 21
1327.1026035276827
 31
0.0
  0
LINE
  5
8F
100
AcDbEntity
  8
IMPORTED
  6
CONTINUOUS
 62
               1
100
AcDbLine
 10
-3015.5034191649097
 20
1472.1026035276827
 30
0.0
 11
-3015.5034191649097
 21
1512.1026033786711
 31
0.0
  0
LINE
  5
90
100
AcDbEntity
  8
IMPORTED
  6
CONTINUOUS
 62
               1
100
AcDbLine
 10
-3015.5034191649097
 20
1327.1026035276827
 30
0.0
 11
-3015.5034191649097
 21
1472.1026035276827
 31
0.0
  0
SOLID
  5
91
100
AcDbEntity
  8
IMPORTED
 62
               1
100
AcDbTrace
 10
-3015.5034191649097
 20
1327.1026035276827
 30
0.0
 11
-3019.0027521105767
 21
1367.1001621214327
 31
0.0
 12
-3012.0040862192427
 22
1367.1001621214327
 32
0.0
 13
-3012.0040862192427
 23
1367.1001621214327
 33
0.0
  0
SOLID
  5
92
100
AcDbEntity
  8
IMPORTED
 62
               1
100
AcDbTrace
 10
-3015.5034191649097
 20
1472.1026035276827
 30
0.0
 11
-3012.0040862192427
 21
1432.1050449339327
 31
0.0
 12
-3019.0027521105767
 22
1432.1050449339327
 32
0.0
 13
-3019.0027521105767
 23
1432.1050449339327
 33
0.0
  0
MTEXT
  5
93
100
AcDbEntity
  8
IMPORTED
 62
               1
100
AcDbMText
 10
-3074.0069086737371
 20
1367.8526035276827
 30
0.0
 40
32.576822916666664
 41
0.0
 71
               1
 72
               1
  1
145
  7
_______
 11
0.0
 21
1.0
 31
0.0
  0
LINE
  5
94
100
AcDbEntity
  8
IMPORTED
  6
CONTINUOUS
 62
               1
100
AcDbLine
 10
-2652.8533189413924
 20
1472.1026035276827
 30
0.0
 11
-3055.5034190158981
 21
1472.1026035276827
 31
0.0
  0
LINE
  5
95
100
AcDbEntity
  8
IMPORTED
  6
CONTINUOUS
 62
               1
100
AcDbLine
 10
-2612.9962189413923
 20
1492.1026035276827
 30
0.0
 11
-3055.5034190158981
 21
1492.1026035276827
 31
0.0
  0
LINE
  5
96
100
AcDbEntity
  8
IMPORTED
  6
CONTINUOUS
 62
               1
100
AcDbLine
 10
-3015.5034191649097
 20
1432.1026036766943
 30
0.0
 11
-3015.5034191649097
 21
1472.1026035276827
 31
0.0
  0
LINE
  5
97
100
AcDbEntity
  8
IMPORTED
  6
CONTINUOUS
 62
               1
100
AcDbLine
 10
-3015.5034191649097
 20
1492.1026035276827
 30
0.0
 11
-3015.5034191649097
 21
1532.1026033786711
 31
0.0
  0
LINE
  5
98
100
AcDbEntity
  8
IMPORTED
  6
CONTINUOUS
 62
               1
100
AcDbLine
 10
-3015.5034191649097
 20
1472.1026035276827
 30
0.0
 11
-3015.5034191649097
 21
1492.1026035276827
 31
0.0
  0
SOLID
  5
99
100
AcDbEntity
  8
IMPORTED
 62
               1
100
AcDbTrace
 10
-3015.5034191649097
 20
1472.1026035276827
 30
0.0
 11
-3019.0027521105767
 21
1512.1001621214327
 31
0.0
 12
-3012.0040862192427
 22
1512.1001621214327
 32
0.0
 13
-3012.0040862192427
 23
1512.1001621214327
 33
0.0
  0
SOLID
  5
9A
100
AcDbEntity
  8
IMPORTED
 62
               1
100
AcDbTrace
 10
-3015.5034191649097
 20
1492.1026035276827
 30
0.0
 11
-3012.0040862192427
 21
1452.1050449339327
 31
0.0
 12
-3019.0027521105767
 22
1452.1050449339327
 32
0.0
 13
-3019.0027521105767
 23
1452.1050449339327
 33
0.0
  0
MTEXT
  5
9B
100
AcDbEntity
  8
IMPORTED
 62
               1
100
AcDbMText
 10
-3074.0069086737371
 20
1460.935936861016
 30
0.0
 40
32.576822916666664
 41
0.0
 71
               1
 72
               1
  1
20
  7
_______
 11
0.0
 21
1.0
 31
0.0
  0
LINE
  5
9C
100
AcDbEntity
  8
IMPORTED
  6
CONTINUOUS
 62
               1
100
AcDbLine
 10
-2612.9962189413923
 20
1492.1026035276827
 30
0.0
 11
-3055.5034190158981
 21
1492.1026035276827
 31
0.0
  0
LINE
  5
9D
100
AcDbEntity
  8
IMPORTED
  6
CONTINUOUS
 62
               1
100
AcDbLine
 10
-2612.9962189413923
 20
1637.1026035276825
 30
0.0
 11
-3055.5034190158981
 21
1637.1026035276825
 31
0.0
  0
LINE
  5
9E
100
AcDbEntity
  8
IMPORTED
  6
CONTINUOUS
 62
               1
100
AcDbLine
 10
-3015.5034191649097
 20
1452.1026036766943
 30
0.0
 11
-3015.5034191649097
 21
1492.1026035276827
 31
0.0
  0
LINE
  5
9F
100
AcDbEntity
  8
IMPORTED
  6
CONTINUOUS
 62
               1
100
AcDbLine
 10
-3015.5034191649097
 20
1637.1026035276825
 30
0.0
 11
-3015.5034191649097
 21
1677.1026033786709
 31
0.0
  0
LINE
  5
A0
100
AcDbEntity
  8
IMPORTED
  6
CONTINUOUS
 62
               1
100
AcDbLine
 10
-3015.5034191649097
 20
1492.1026035276827
 30
0.0
 11
-3015.5034191649097
 21
1637.1026035276825
 31
0.0
  0
SOLID
  5
A1
100
AcDbEntity
  8
IMPORTED
 62
               1
100
AcDbTrace
 10
-3015.5034191649097
 20
1492.1026035276827
 30
0.0
 11
-3019.0027521105767
 21
1532.1001621214327
 31
0.0
 12
-3012.0040862192427
 22
1532.1001621214327
 32
0.0
 13
-3012.0040862192427
 23
1532.1001621214327
 33
0.0
  0
SOLID
  5
A2
100
AcDbEntity
  8
IMPORTED
 62
               1
100
AcDbTrace
 10
-3015.5034191649097
 20
1637.1026035276825
 30
0.0
 11
-3012.0040862192427
 21
1597.1050449339325
 31
0.0
 12
-3019.0027521105767
 22
1597.1050449339325
 32
0.0
 13
-3019.0027521105767
 23
1597.1050449339325
 33
0.0
  0
MTEXT
  5
A3
100
AcDbEntity
  8
IMPORTED
 62
               1
100
AcDbMText
 10
-3074.0069086737371
 20
1532.8526035276827
 30
0.0
 40
32.576822916666664
 41
0.0
 71
               1
 72
               1
  1
145
  7
_______
 11
0.0
 21
1.0
 31
0.0
  0
LINE
  5
A4
100
AcDbEntity
  8
IMPORTED
  6
CONTINUOUS
 62
               1
100
AcDbLine
 10
-2612.9962189413923
 20
1637.1026035276825
 30
0.0
 11
-3055.5034190158981
 21
1637.1026035276825
 31
0.0
  0
LINE
  5
A5
100
AcDbEntity
  8
IMPORTED
  6
CONTINUOUS
 62
               1
100
AcDbLine
 10
-2275.8533189413924
 20
1737.1026035276825
 30
0.0
 11
-3055.5034190158981
 21
1737.1026035276825
 31
0.0
  0
LINE
  5
A6
100
AcDbEntity
  8
IMPORTED
  6
CONTINUOUS
 62
               1
100
AcDbLine
 10
-3015.5034191649097
 20
1597.1026036766941
 30
0.0
 11
-3015.5034191649097
 21
1637.1026035276825
 31
0.0
  0
LINE
  5
A7
100
AcDbEntity
  8
IMPORTED
  6
CONTINUOUS
 62
               1
100
AcDbLine
 10
-3015.5034191649097
 20
1737.1026035276825
 30
0.0
 11
-3015.5034191649097
 21
1777.1026033786709
 31
0.0
  0
LINE
  5
A8
100
AcDbEntity
  8
IMPORTED
  6
CONTINUOUS
 62
               1
100
AcDbLine
 10
-3015.5034191649097
 20
1637.1026035276825
 30
0.0
 11
-3015.5034191649097
 21
1737.1026035276825
 31
0.0
  0
SOLID
  5
A9
100
AcDbEntity
  8
IMPORTED
 62
               1
100
AcDbTrace
 10
-3015.5034191649097
 20
1637.1026035276825
 30
0.0
 11
-3019.0027521105767
 21
1677.1001621214325
 31
0.0
 12
-3012.0040862192427
 22
1677.1001621214325
 32
0.0
 13
-3012.0040862192427
 23
1677.1001621214325
 33
0.0
  0
SOLID
  5
AA
100
AcDbEntity
  8
IMPORTED
 62
               1
100
AcDbTrace
 10
-3015.5034191649097
 20
1737.1026035276825
 30
0.0
 11
-3012.0040862192427
 21
1697.1050449339325
 31
0.0
 12
-3019.0027521105767
 22
1697.1050449339325
 32
0.0
 13
-3019.0027521105767
 23
1697.1050449339325
 33
0.0
  0
MTEXT
  5
AB
100
AcDbEntity
  8
IMPORTED
 62
               1
100
AcDbMText
 10
-3074.0069086737371
 20
1655.3526035276825
 30
0.0
 40
32.576822916666664
 41
0.0
 71
               1
 72
               1
  1
100
  7
_______
 11
0.0
 21
1.0
 31
0.0
  0
LINE
  5
AC
100
AcDbEntity
  8
IMPORTED
  6
CONTINUOUS
 62
               1
100
AcDbLine
 10
-2275.8533189413924
 20
1737.1026035276825
 30
0.0
 11
-3229.9999998509884
 21
1737.1026035276825
 31
0.0
  0
LINE
  5
AD
100
AcDbEntity
  8
IMPORTED
  6
CONTINUOUS
 62
               1
100
AcDbLine
 10
-2505.8533189413924
 20
-962.89729647231718
 30
0.0
 11
-3229.9999998509884
 21
-962.89729647231718
 31
0.0
  0
LINE
  5
AE
100
AcDbEntity
  8
IMPORTED
  6
CONTINUOUS
 62
               1
100
AcDbLine
 10
-3190.0
 20
1777.1026033786709
 30
0.0
 11
-3190.0
 21
1737.1026035276825
 31
0.0
  0
LINE
  5
AF
100
AcDbEntity
  8
IMPORTED
  6
CONTINUOUS
 62
               1
100
AcDbLine
 10
-3190.0
 20
-962.89729647231718
 30
0.0
 11
-3190.0
 21
-1002.8972963233056
 31
0.0
  0
LINE
  5
B0
100
AcDbEntity
  8
IMPORTED
  6
CONTINUOUS
 62
               1
100
AcDbLine
 10
-3190.0
 20
1737.1026035276825
 30
0.0
 11
-3190.0
 21
-962.89729647231718
 31
0.0
  0
SOLID
  5
B1
100
AcDbEntity
  8
IMPORTED
 62
               1
100
AcDbTrace
 10
-3190.0
 20
1737.1026035276825
 30
0.0
 11
-3186.500667054333
 21
1697.1050449339325
 31
0.0
 12
-3193.499332945667
 22
1697.1050449339325
 32
0.0
 13
-3193.499332945667
 23
1697.1050449339325
 33
0.0
  0
SOLID
  5
B2
100
AcDbEntity
  8
IMPORTED
 62
               1
100
AcDbTrace
 10
-3190.0
 20
-962.89729647231718
 30
0.0
 11
-3193.499332945667
 21
-922.89973787856718
 31
0.0
 12
-3186.500667054333
 22
-922.89973787856718
 32
0.0
 13
-3186.500667054333
 23
-922.89973787856718
 33
0.0
  0
MTEXT
  5
B3
100
AcDbEntity
  8
IMPORTED
 62
               1
100
AcDbMText
 10
-3248.5034895088279
 20
344.76932019434923
 30
0.0
 40
32.576822916666664
 41
0.0
 71
               1
 72
               1
  1
2700
  7
_______
 11
0.0
 21
1.0
 31
0.0
  0
LINE
  5
B4
100
AcDbEntity
  8
IMPORTED
  6
CONTINUOUS
 62
               1
100
AcDbLine
 10
-1785.8533193884271
 20
-1162.8972964723171
 30
0.0
 11
-1390.0000001490116
 21
-1162.8972964723171
 31
0.0
  0
LINE
  5
B5
100
AcDbEntity
  8
IMPORTED
  6
CONTINUOUS
 62
               1
100
AcDbLine
 10
-1785.8533193884271
 20
-1062.8972964723171
 30
0.0
 11
-1390.0000001490116
 21
-1062.8972964723171
 31
0.0
  0
LINE
  5
B6
100
AcDbEntity
  8
IMPORTED
  6
CONTINUOUS
 62
               1
100
AcDbLine
 10
-1430.0
 20
-1202.8972963233055
 30
0.0
 11
-1430.0
 21
-1162.8972964723171
 31
0.0
  0
LINE
  5
B7
100
AcDbEntity
  8
IMPORTED
  6
CONTINUOUS
 62
               1
100
AcDbLine
 10
-1430.0
 20
-1062.8972964723171
 30
0.0
 11
-1430.0
 21
-1022.8972966213287
 31
0.0
  0
LINE
  5
B8
100
AcDbEntity
  8
IMPORTED
  6
CONTINUOUS
 62
               1
100
AcDbLine
 10
-1430.0
 20
-1162.8972964723171
 30
0.0
 11
-1430.0
 21
-1062.8972964723171
 31
0.0
  0
SOLID
  5
B9
100
AcDbEntity
  8
IMPORTED
 62
               1
100
AcDbTrace
 10
-1430.0
 20
-1162.8972964723171
 30
0.0
 11
-1433.499332945667
 21
-1122.8997378785671
 31
0.0
 12
-1426.500667054333
 22
-1122.8997378785671
 32
0.0
 13
-1426.500667054333
 23
-1122.8997378785671
 33
0.0
  0
SOLID
  5
BA
100
AcDbEntity
  8
IMPORTED
 62
               1
100
AcDbTrace
 10
-1430.0
 20
-1062.8972964723171
 30
0.0
 11
-1426.500667054333
 21
-1102.8948550660671
 31
0.0
 12
-1433.499332945667
 22
-1102.8948550660671
 32
0.0
 13
-1433.499332945667
 23
-1102.8948550660671
 33
0.0
  0
MTEXT
  5
BB
100
AcDbEntity
  8
IMPORTED
 62
               1
100
AcDbMText
 10
-1488.5034895088277
 20
-1144.6472964723171
 30
0.0
 40
32.576822916666664
 41
0.0
 71
               1
 72
               1
  1
100
  7
_______
 11
0.0
 21
1.0
 31
0.0
  0
LINE
  5
BC
100
AcDbEntity
  8
IMPORTED
  6
CONTINUOUS
 62
               1
100
AcDbLine
 10
-1785.8533193884271
 20
-1062.8972964723171
 30
0.0
 11
-1390.0000001490116
 21
-1062.8972964723171
 31
0.0
  0
LINE
  5
BD
100
AcDbEntity
  8
IMPORTED
  6
CONTINUOUS
 62
               1
100
AcDbLine
 10
-1785.8533193884271
 20
-962.89729647231718
 30
0.0
 11
-1390.0000001490116
 21
-962.89729647231718
 31
0.0
  0
LINE
  5
BE
100
AcDbEntity
  8
IMPORTED
  6
CONTINUOUS
 62
               1
100
AcDbLine
 10
-1430.0
 20
-1102.8972963233055
 30
0.0
 11
-1430.0
 21
-1062.8972964723171
 31
0.0
  0
LINE
  5
BF
100
AcDbEntity
  8
IMPORTED
  6
CONTINUOUS
 62
               1
100
AcDbLine
 10
-1430.0
 20
-962.89729647231718
 30
0.0
 11
-1430.0
 21
-922.89729662132879
 31
0.0
  0
LINE
  5
C0
100
AcDbEntity
  8
IMPORTED
  6
CONTINUOUS
 62
               1
100
AcDbLine
 10
-1430.0
 20
-1062.8972964723171
 30
0.0
 11
-1430.0
 21
-962.89729647231718
 31
0.0
  0
SOLID
  5
C1
100
AcDbEntity
  8
IMPORTED
 62
               1
100
AcDbTrace
 10
-1430.0
 20
-1062.8972964723171
 30
0.0
 11
-1433.499332945667
 21
-1022.8997378785671
 31
0.0
 12
-1426.500667054333
 22
-1022.8997378785671
 32
0.0
 13
-1426.500667054333
 23
-1022.8997378785671
 33
0.0
  0
SOLID
  5
C2
100
AcDbEntity
  8
IMPORTED
 62
               1
100
AcDbTrace
 10
-1430.0
 20
-962.89729647231718
 30
0.0
 11
-1426.500667054333
 21
-1002.8948550660672
 31
0.0
 12
-1433.499332945667
 22
-1002.8948550660672
 32
0.0
 13
-1433.499332945667
 23
-1002.8948550660672
 33
0.0
  0
MTEXT
  5
C3
100
AcDbEntity
  8
IMPORTED
 62
               1
100
AcDbMText
 10
-1488.5034895088277
 20
-1044.6472964723171
 30
0.0
 40
32.576822916666664
 41
0.0
 71
               1
 72
               1
  1
100
  7
_______
 11
0.0
 21
1.0
 31
0.0
  0
LINE
  5
C4
100
AcDbEntity
  8
IMPORTED
  6
CONTINUOUS
 62
               1
100
AcDbLine
 10
-1785.8533193884271
 20
-962.89729647231718
 30
0.0
 11
-1390.0000001490116
 21
-962.89729647231718
 31
0.0
  0
LINE
  5
C5
100
AcDbEntity
  8
IMPORTED
  6
CONTINUOUS
 62
               1
100
AcDbLine
 10
-1835.8533193884271
 20
-462.89729647231724
 30
0.0
 11
-1390.0000001490116
 21
-462.89729647231724
 31
0.0
  0
LINE
  5
C6
100
AcDbEntity
  8
IMPORTED
  6
CONTINUOUS
 62
               1
100
AcDbLine
 10
-1430.0
 20
-1002.8972963233056
 30
0.0
 11
-1430.0
 21
-962.89729647231718
 31
0.0
  0
LINE
  5
C7
100
AcDbEntity
  8
IMPORTED
  6
CONTINUOUS
 62
               1
100
AcDbLine
 10
-1430.0
 20
-462.89729647231724
 30
0.0
 11
-1430.0
 21
-422.89729662132885
 31
0.0
  0
LINE
  5
C8
100
AcDbEntity
  8
IMPORTED
  6
CONTINUOUS
 62
               1
100
AcDbLine
 10
-1430.0
 20
-962.89729647231718
 30
0.0
 11
-1430.0
 21
-462.89729647231724
 31
0.0
  0
SOLID
  5
C9
100
AcDbEntity
  8
IMPORTED
 62
               1
100
AcDbTrace
 10
-1430.0
 20
-962.89729647231718
 30
0.0
 11
-1433.499332945667
 21
-922.89973787856718
 31
0.0
 12
-1426.500667054333
 22
-922.89973787856718
 32
0.0
 13
-1426.500667054333
 23
-922.89973787856718
 33
0.0
  0
SOLID
  5
CA
100
AcDbEntity
  8
IMPORTED
 62
               1
100
AcDbTrace
 10
-1430.0
 20
-462.89729647231724
 30
0.0
 11
-1426.500667054333
 21
-502.89485506606724
 31
0.0
 12
-1433.499332945667
 22
-502.89485506606724
 32
0.0
 13
-1433.499332945667
 23
-502.89485506606724
 33
0.0
  0
MTEXT
  5
CB
100
AcDbEntity
  8
IMPORTED
 62
               1
100
AcDbMText
 10
-1488.5034895088277
 20
-744.64729647231718
 30
0.0
 40
32.576822916666664
 41
0.0
 71
               1
 72
               1
  1
500
  7
_______
 11
0.0
 21
1.0
 31
0.0
  0
LINE
  5
CC
100
AcDbEntity
  8
IMPORTED
  6
CONTINUOUS
 62
               1
100
AcDbLine
 10
-1835.8533193884271
 20
-462.89729647231724
 30
0.0
 11
-1390.0000001490116
 21
-462.89729647231724
 31
0.0
  0
LINE
  5
CD
100
AcDbEntity
  8
IMPORTED
  6
CONTINUOUS
 62
               1
100
AcDbLine
 10
-1739.8533193884271
 20
-362.89729647231729
 30
0.0
 11
-1390.0000001490116
 21
-362.89729647231729
 31
0.0
  0
LINE
  5
CE
100
AcDbEntity
  8
IMPORTED
  6
CONTINUOUS
 62
               1
100
AcDbLine
 10
-1430.0
 20
-502.89729632330562
 30
0.0
 11
-1430.0
 21
-462.89729647231724
 31
0.0
  0
LINE
  5
CF
100
AcDbEntity
  8
IMPORTED
  6
CONTINUOUS
 62
               1
100
AcDbLine
 10
-1430.0
 20
-362.89729647231729
 30
0.0
 11
-1430.0
 21
-322.89729662132891
 31
0.0
  0
LINE
  5
D0
100
AcDbEntity
  8
IMPORTED
  6
CONTINUOUS
 62
               1
100
AcDbLine
 10
-1430.0
 20
-462.89729647231724
 30
0.0
 11
-1430.0
 21
-362.89729647231729
 31
0.0
  0
SOLID
  5
D1
100
AcDbEntity
  8
IMPORTED
 62
               1
100
AcDbTrace
 10
-1430.0
 20
-462.89729647231724
 30
0.0
 11
-1433.499332945667
 21
-422.89973787856724
 31
0.0
 12
-1426.500667054333
 22
-422.89973787856724
 32
0.0
 13
-1426.500667054333
 23
-422.89973787856724
 33
0.0
  0
SOLID
  5
D2
100
AcDbEntity
  8
IMPORTED
 62
               1
100
AcDbTrace
 10
-1430.0
 20
-362.89729647231729
 30
0.0
 11
-1426.500667054333
 21
-402.89485506606729
 31
0.0
 12
-1433.499332945667
 22
-402.89485506606729
 32
0.0
 13
-1433.499332945667
 23
-402.89485506606729
 33
0.0
  0
MTEXT
  5
D3
100
AcDbEntity
  8
IMPORTED
 62
               1
100
AcDbMText
 10
-1488.5034895088277
 20
-444.64729647231724
 30
0.0
 40
32.576822916666664
 41
0.0
 71
               1
 72
               1
  1
100
  7
_______
 11
0.0
 21
1.0
 31
0.0
  0
LINE
  5
D4
100
AcDbEntity
  8
IMPORTED
  6
CONTINUOUS
 62
               1
100
AcDbLine
 10
-1739.8533193884271
 20
-362.89729647231729
 30
0.0
 11
-1250.0000001490116
 21
-362.89729647231729
 31
0.0
  0
LINE
  5
D5
100
AcDbEntity
  8
IMPORTED
  6
CONTINUOUS
 62
               1
100
AcDbLine
 10
-2015.8533193884271
 20
1737.1026035276825
 30
0.0
 11
-1250.0000001490116
 21
1737.1026035276825
 31
0.0
  0
LINE
  5
D6
100
AcDbEntity
  8
IMPORTED
  6
CONTINUOUS
 62
               1
100
AcDbLine
 10
-1290.0
 20
-402.89729632330568
 30
0.0
 11
-1290.0
 21
-362.89729647231729
 31
0.0
  0
LINE
  5
D7
100
AcDbEntity
  8
IMPORTED
  6
CONTINUOUS
 62
               1
100
AcDbLine
 10
-1290.0
 20
1737.1026035276825
 30
0.0
 11
-1290.0
 21
1777.1026033786709
 31
0.0
  0
LINE
  5
D8
100
AcDbEntity
  8
IMPORTED
  6
CONTINUOUS
 62
               1
100
AcDbLine
 10
-1290.0
 20
-362.89729647231729
 30
0.0
 11
-1290.0
 21
1737.1026035276825
 31
0.0
  0
SOLID
  5
D9
100
AcDbEntity
  8
IMPORTED
 62
               1
100
AcDbTrace
 10
-1290.0
 20
-362.89729647231729
 30
0.0
 11
-1293.499332945667
 21
-322.89973787856729
 31
0.0
 12
-1286.500667054333
 22
-322.89973787856729
 32
0.0
 13
-1286.500667054333
 23
-322.89973787856729
 33
0.0
  0
SOLID
  5
DA
100
AcDbEntity
  8
IMPORTED
 62
               1
100
AcDbTrace
 10
-1290.0
 20
1737.1026035276825
 30
0.0
 11
-1286.500667054333
 21
1697.1050449339325
 31
0.0
 12
-1293.499332945667
 22
1697.1050449339325
 32
0.0
 13
-1293.499332945667
 23
1697.1050449339325
 33
0.0
  0
MTEXT
  5
DB
100
AcDbEntity
  8
IMPORTED
 62
               1
100
AcDbMText
 10
-1348.5034895088274
 20
644.76932019434935
 30
0.0
 40
32.576822916666664
 41
0.0
 71
               1
 72
               1
  1
2100
  7
_______
 11
0.0
 21
1.0
 31
0.0
  0
LINE
  5
DC
100
AcDbEntity
  8
IMPORTED
  6
CONTINUOUS
 62
               1
100
AcDbLine
 10
-1785.8533193884271
 20
-1162.8972964723171
 30
0.0
 11
-1250.0000001490116
 21
-1162.8972964723171
 31
0.0
  0
LINE
  5
DD
100
AcDbEntity
  8
IMPORTED
  6
CONTINUOUS
 62
               1
100
AcDbLine
 10
-1739.8533193884271
 20
-362.89729647231729
 30
0.0
 11
-1250.0000001490116
 21
-362.89729647231729
 31
0.0
  0
LINE
  5
DE
100
AcDbEntity
  8
IMPORTED
  6
CONTINUOUS
 62
               1
100
AcDbLine
 10
-1290.0
 20
-1202.8972963233055
 30
0.0
 11
-1290.0
 21
-1162.8972964723171
 31
0.0
  0
LINE
  5
DF
100
AcDbEntity
  8
IMPORTED
  6
CONTINUOUS
 62
               1
100
AcDbLine
 10
-1290.0
 20
-362.89729647231729
 30
0.0
 11
-1290.0
 21
-322.89729662132891
 31
0.0
  0
LINE
  5
E0
100
AcDbEntity
  8
IMPORTED
  6
CONTINUOUS
 62
               1
100
AcDbLine
 10
-1290.0
 20
-1162.8972964723171
 30
0.0
 11
-1290.0
 21
-362.89729647231729
 31
0.0
  0
SOLID
  5
E1
100
AcDbEntity
  8
IMPORTED
 62
               1
100
AcDbTrace
 10
-1290.0
 20
-1162.8972964723171
 30
0.0
 11
-1293.499332945667
 21
-1122.8997378785671
 31
0.0
 12
-1286.500667054333
 22
-1122.8997378785671
 32
0.0
 13
-1286.500667054333
 23
-1122.8997378785671
 33
0.0
  0
SOLID
  5
E2
100
AcDbEntity
  8
IMPORTED
 62
               1
100
AcDbTrace
 10
-1290.0
 20
-362.89729647231729
 30
0.0
 11
-1286.500667054333
 21
-402.89485506606729
 31
0.0
 12
-1293.499332945667
 22
-402.89485506606729
 32
0.0
 13
-1293.499332945667
 23
-402.89485506606729
 33
0.0
  0
MTEXT
  5
E3
100
AcDbEntity
  8
IMPORTED
 62
               1
100
AcDbMText
 10
-1348.5034895088277
 20
-794.64729647231718
 30
0.0
 40
32.576822916666664
 41
0.0
 71
               1
 72
               1
  1
800
  7
_______
 11
0.0
 21
1.0
 31
0.0
  0
LINE
  5
E4
100
AcDbEntity
  8
IMPORTED
  6
CONTINUOUS
 62
               1
100
AcDbLine
 10
-2695.8533191649099
 20
1624.6026033041653
 30
0.0
 11
-2695.8533191649099
 21
1987.410003378671
 31
0.0
  0
LINE
  5
E5
100
AcDbEntity
  8
IMPORTED
  6
CONTINUOUS
 62
               1
100
AcDbLine
 10
-2220.8533191649099
 20
1792.1026033041651
 30
0.0
 11
-2220.8533191649099
 21
1987.410003378671
 31
0.0
  0
LINE
  5
E6
100
AcDbEntity
  8
IMPORTED
  6
CONTINUOUS
 62
               1
100
AcDbLine
 10
-2735.8533190158983
 20
1947.4100035276826
 30
0.0
 11
-2695.8533191649099
 21
1947.4100035276826
 31
0.0
  0
LINE
  5
E7
100
AcDbEntity
  8
IMPORTED
  6
CONTINUOUS
 62
               1
100
AcDbLine
 10
-2220.8533191649099
 20
1947.4100035276826
 30
0.0
 11
-2180.8533193139215
 21
1947.4100035276826
 31
0.0
  0
LINE
  5
E8
100
AcDbEntity
  8
IMPORTED
  6
CONTINUOUS
 62
               1
100
AcDbLine
 10
-2695.8533191649099
 20
1947.4100035276826
 30
0.0
 11
-2220.8533191649099
 21
1947.4100035276826
 31
0.0
  0
SOLID
  5
E9
100
AcDbEntity
  8
IMPORTED
 62
               1
100
AcDbTrace
 10
-2695.8533191649099
 20
1947.4100035276826
 30
0.0
 11
-2655.8557605711599
 21
1950.9093364733496
 31
0.0
 12
-2655.8557605711599
 22
1943.9106705820157
 32
0.0
 13
-2655.8557605711599
 23
1943.9106705820157
 33
0.0
  0
SOLID
  5
EA
100
AcDbEntity
  8
IMPORTED
 62
               1
100
AcDbTrace
 10
-2220.8533191649099
 20
1947.4100035276826
 30
0.0
 11
-2260.8508777586599
 21
1943.9106705820157
 31
0.0
 12
-2260.8508777586599
 22
1950.9093364733496
 32
0.0
 13
-2260.8508777586599
 23
1950.9093364733496
 33
0.0
  0
MTEXT
  5
EB
100
AcDbEntity
  8
IMPORTED
 62
               1
100
AcDbMText
 10
-2490.1033191649099
 20
2005.9134930365101
 30
0.0
 40
32.576822916666664
 41
0.0
 71
               1
 72
               1
  1
475
  7
_______
  0
LINE
  5
EC
100
AcDbEntity
  8
IMPORTED
  6
CONTINUOUS
 62
               1
100
AcDbLine
 10
-2220.8533191649099
 20
1792.1026033041651
 30
0.0
 11
-2220.8533191649099
 21
1987.410003378671
 31
0.0
  0
LINE
  5
ED
100
AcDbEntity
  8
IMPORTED
  6
CONTINUOUS
 62
               1
100
AcDbLine
 10
-2070.8533191649099
 20
1792.1026033041651
 30
0.0
 11
-2070.8533191649099
 21
1987.410003378671
 31
0.0
  0
LINE
  5
EE
100
AcDbEntity
  8
IMPORTED
  6
CONTINUOUS
 62
               1
100
AcDbLine
 10
-2260.8533190158983
 20
1947.4100035276826
 30
0.0
 11
-2220.8533191649099
 21
1947.4100035276826
 31
0.0
  0
LINE
  5
EF
100
AcDbEntity
  8
IMPORTED
  6
CONTINUOUS
 62
               1
100
AcDbLine
 10
-2070.8533191649099
 20
1947.4100035276826
 30
0.0
 11
-2030.8533193139212
 21
1947.4100035276826
 31
0.0
  0
LINE
  5
F0
100
AcDbEntity
  8
IMPORTED
  6
CONTINUOUS
 62
               1
100
AcDbLine
 10
-2220.8533191649099
 20
1947.4100035276826
 30
0.0
 11
-2070.8533191649099
 21
1947.4100035276826
 31
0.0
  0
SOLID
  5
F1
100
AcDbEntity
  8
IMPORTED
 62
               1
100
AcDbTrace
 10
-2220.8533191649099
 20
1947.4100035276826
 30
0.0
 11
-2180.8557605711599
 21
1950.9093364733496
 31
0.0
 12
-2180.8557605711599
 22
1943.9106705820157
 32
0.0
 13
-2180.8557605711599
 23
1943.9106705820157
 33
0.0
  0
SOLID
  5
F2
100
AcDbEntity
  8
IMPORTED
 62
               1
100
AcDbTrace
 10
-2070.8533191649099
 20
1947.4100035276826
 30
0.0
 11
-2110.8508777586599
 21
1943.9106705820157
 31
0.0
 12
-2110.8508777586599
 22
1950.9093364733496
 32
0.0
 13
-2110.8508777586599
 23
1950.9093364733496
 33
0.0
  0
MTEXT
  5
F3
100
AcDbEntity
  8
IMPORTED
 62
               1
100
AcDbMText
 10
-2177.6033191649099
 20
2005.9134930365101
 30
0.0
 40
32.576822916666664
 41
0.0
 71
               1
 72
               1
  1
150
  7
_______
  0
LINE
  5
F4
100
AcDbEntity
  8
IMPORTED
  6
CONTINUOUS
 62
               1
100
AcDbLine
 10
-2070.8533191649099
 20
1792.1026033041651
 30
0.0
 11
-2070.8533191649099
 21
1987.410003378671
 31
0.0
  0
LINE
  5
F5
100
AcDbEntity
  8
IMPORTED
  6
CONTINUOUS
 62
               1
100
AcDbLine
 10
-1695.8533191649096
 20
1694.1026033041651
 30
0.0
 11
-1695.8533191649096
 21
1987.410003378671
 31
0.0
  0
LINE
  5
F6
100
AcDbEntity
  8
IMPORTED
  6
CONTINUOUS
 62
               1
100
AcDbLine
 10
-2110.8533190158983
 20
1947.4100035276826
 30
0.0
 11
-2070.8533191649099
 21
1947.4100035276826
 31
0.0
  0
LINE
  5
F7
100
AcDbEntity
  8
IMPORTED
  6
CONTINUOUS
 62
               1
100
AcDbLine
 10
-1695.8533191649096
 20
1947.4100035276826
 30
0.0
 11
-1655.8533193139212
 21
1947.4100035276826
 31
0.0
  0
LINE
  5
F8
100
AcDbEntity
  8
IMPORTED
  6
CONTINUOUS
 62
               1
100
AcDbLine
 10
-2070.8533191649099
 20
1947.4100035276826
 30
0.0
 11
-1695.8533191649096
 21
1947.4100035276826
 31
0.0
  0
SOLID
  5
F9
100
AcDbEntity
  8
IMPORTED
 62
               1
100
AcDbTrace
 10
-2070.8533191649099
 20
1947.4100035276826
 30
0.0
 11
-2030.8557605711596
 21
1950.9093364733496
 31
0.0
 12
-2030.8557605711596
 22
1943.9106705820157
 32
0.0
 13
-2030.8557605711596
 23
1943.9106705820157
 33
0.0
  0
SOLID
  5
FA
100
AcDbEntity
  8
IMPORTED
 62
               1
100
AcDbTrace
 10
-1695.8533191649096
 20
1947.4100035276826
 30
0.0
 11
-1735.8508777586596
 21
1943.9106705820157
 31
0.0
 12
-1735.8508777586596
 22
1950.9093364733496
 32
0.0
 13
-1735.8508777586596
 23
1950.9093364733496
 33
0.0
  0
MTEXT
  5
FB
100
AcDbEntity
  8
IMPORTED
 62
               1
100
AcDbMText
 10
-1915.1033191649096
 20
2005.9134930365101
 30
0.0
 40
32.576822916666664
 41
0.0
 71
               1
 72
               1
  1
375
  7
_______
  0
LINE
  5
FC
100
AcDbEntity
  8
IMPORTED
  6
CONTINUOUS
 62
               1
100
AcDbLine
 10
-1695.8533191649096
 20
1694.1026033041651
 30
0.0
 11
-1695.8533191649096
 21
2127.9999998509884
 31
0.0
  0
LINE
  5
FD
100
AcDbEntity
  8
IMPORTED
  6
CONTINUOUS
 62
               1
100
AcDbLine
 10
-2695.8533191649099
 20
1624.6026033041653
 30
0.0
 11
-2695.8533191649099
 21
2127.9999998509884
 31
0.0
  0
LINE
  5
FE
100
AcDbEntity
  8
IMPORTED
  6
CONTINUOUS
 62
               1
100
AcDbLine
 10
-1655.8533193139212
 20
2088.0
 30
0.0
 11
-1695.8533191649096
 21
2088.0
 31
0.0
  0
LINE
  5
FF
100
AcDbEntity
  8
IMPORTED
  6
CONTINUOUS
 62
               1
100
AcDbLine
 10
-2695.8533191649099
 20
2088.0
 30
0.0
 11
-2735.8533190158983
 21
2088.0
 31
0.0
  0
LINE
  5
100
100
AcDbEntity
  8
IMPORTED
  6
CONTINUOUS
 62
               1
100
AcDbLine
 10
-1695.8533191649096
 20
2088.0
 30
0.0
 11
-2695.8533191649099
 21
2088.0
 31
0.0
  0
SOLID
  5
101
100
AcDbEntity
  8
IMPORTED
 62
               1
100
AcDbTrace
 10
-1695.8533191649096
 20
2088.0
 30
0.0
 11
-1735.8508777586596
 21
2084.500667054333
 31
0.0
 12
-1735.8508777586596
 22
2091.499332945667
 32
0.0
 13
-1735.8508777586596
 23
2091.499332945667
 33
0.0
  0
SOLID
  5
102
100
AcDbEntity
  8
IMPORTED
 62
               1
100
AcDbTrace
 10
-2695.8533191649099
 20
2088.0
 30
0.0
 11
-2655.8557605711599
 21
2091.499332945667
 31
0.0
 12
-2655.8557605711599
 22
2084.500667054333
 32
0.0
 13
-2655.8557605711599
 23
2084.500667054333
 33
0.0
  0
MTEXT
  5
103
100
AcDbEntity
  8
IMPORTED
 62
               1
100
AcDbMText
 10
-2238.1866524982433
 20
2146.5034895088279
 30
0.0
 40
32.576822916666664
 41
0.0
 71
               1
 72
               1
  1
1000
  7
_______
  0
LINE
  5
104
100
AcDbEntity
  8
IMPORTED
  6
CONTINUOUS
 62
               1
100
AcDbLine
 10
-205.85341916490987
 20
-1022.8972962487998
 30
0.0
 11
-205.85341916490987
 21
-1394.9999998509884
 31
0.0
  0
LINE
  5
105
100
AcDbEntity
  8
IMPORTED
  6
CONTINUOUS
 62
               1
100
AcDbLine
 10
294.14658083509005
 20
-1022.8972962487998
 30
0.0
 11
294.14658083509005
 21
-1394.9999998509884
 31
0.0
  0
LINE
  5
106
100
AcDbEntity
  8
IMPORTED
  6
CONTINUOUS
 62
               1
100
AcDbLine
 10
-245.85341901589825
 20
-1355.0
 30
0.0
 11
-205.85341916490987
 21
-1355.0
 31
0.0
  0
LINE
  5
107
100
AcDbEntity
  8
IMPORTED
  6
CONTINUOUS
 62
               1
100
AcDbLine
 10
294.14658083509005
 20
-1355.0
 30
0.0
 11
334.14658068607844
 21
-1355.0
 31
0.0
  0
LINE
  5
108
100
AcDbEntity
  8
IMPORTED
  6
CONTINUOUS
 62
               1
100
AcDbLine
 10
-205.85341916490987
 20
-1355.0
 30
0.0
 11
294.14658083509005
 21
-1355.0
 31
0.0
  0
SOLID
  5
109
100
AcDbEntity
  8
IMPORTED
 62
               1
100
AcDbTrace
 10
-205.85341916490987
 20
-1355.0
 30
0.0
 11
-165.85586057115987
 21
-1351.500667054333
 31
0.0
 12
-165.85586057115987
 22
-1358.499332945667
 32
0.0
 13
-165.85586057115987
 23
-1358.499332945667
 33
0.0
  0
SOLID
  5
10A
100
AcDbEntity
  8
IMPORTED
 62
               1
100
AcDbTrace
 10
294.14658083509005
 20
-1355.0
 30
0.0
 11
254.14902224134008
 21
-1358.499332945667
 31
0.0
 12
254.14902224134008
 22
-1351.500667054333
 32
0.0
 13
254.14902224134008
 23
-1351.500667054333
 33
0.0
  0
MTEXT
  5
10B
100
AcDbEntity
  8
IMPORTED
 62
               1
100
AcDbMText
 10
12.396580835090107
 20
-1296.4965104911726
 30
0.0
 40
32.576822916666664
 41
0.0
 71
               1
 72
               1
  1
500
  7
_______
  0
LINE
  5
10C
100
AcDbEntity
  8
IMPORTED
  6
CONTINUOUS
 62
               1
100
AcDbLine
 10
-255.85341916490987
 20
-1222.8972962487996
 30
0.0
 11
-255.85341916490987
 21
-1394.9999998509884
 31
0.0
  0
LINE
  5
10D
100
AcDbEntity
  8
IMPORTED
  6
CONTINUOUS
 62
               1
100
AcDbLine
 10
-205.85341916490987
 20
-1022.8972962487998
 30
0.0
 11
-205.85341916490987
 21
-1394.9999998509884
 31
0.0
  0
LINE
  5
10E
100
AcDbEntity
  8
IMPORTED
  6
CONTINUOUS
 62
               1
100
AcDbLine
 10
-295.85341901589828
 20
-1355.0
 30
0.0
 11
-255.85341916490987
 21
-1355.0
 31
0.0
  0
LINE
  5
10F
100
AcDbEntity
  8
IMPORTED
  6
CONTINUOUS
 62
               1
100
AcDbLine
 10
-205.85341916490987
 20
-1355.0
 30
0.0
 11
-165.85341931392148
 21
-1355.0
 31
0.0
  0
LINE
  5
110
100
AcDbEntity
  8
IMPORTED
  6
CONTINUOUS
 62
               1
100
AcDbLine
 10
-255.85341916490987
 20
-1355.0
 30
0.0
 11
-205.85341916490987
 21
-1355.0
 31
0.0
  0
SOLID
  5
111
100
AcDbEntity
  8
IMPORTED
 62
               1
100
AcDbTrace
 10
-255.85341916490987
 20
-1355.0
 30
0.0
 11
-215.85586057115987
 21
-1351.500667054333
 31
0.0
 12
-215.85586057115987
 22
-1358.499332945667
 32
0.0
 13
-215.85586057115987
 23
-1358.499332945667
 33
0.0
  0
SOLID
  5
112
100
AcDbEntity
  8
IMPORTED
 62
               1
100
AcDbTrace
 10
-205.85341916490987
 20
-1355.0
 30
0.0
 11
-245.85097775865987
 21
-1358.499332945667
 31
0.0
 12
-245.85097775865987
 22
-1351.500667054333
 32
0.0
 13
-245.85097775865987
 23
-1351.500667054333
 33
0.0
  0
MTEXT
  5
113
100
AcDbEntity
  8
IMPORTED
 62
               1
100
AcDbMText
 10
-252.02008583157655
 20
-1296.4965104911726
 30
0.0
 40
32.576822916666664
 41
0.0
 71
               1
 72
               1
  1
50
  7
_______
  0
LINE
  5
114
100
AcDbEntity
  8
IMPORTED
  6
CONTINUOUS
 62
               1
100
AcDbLine
 10
294.14658083509005
 20
-1022.8972962487998
 30
0.0
 11
294.14658083509005
 21
-1394.9999998509884
 31
0.0
  0
LINE
  5
115
100
AcDbEntity
  8
IMPORTED
  6
CONTINUOUS
 62
               1
100
AcDbLine
 10
344.14658083509005
 20
-1222.8972962487996
 30
0.0
 11
344.14658083509005
 21
-1394.9999998509884
 31
0.0
  0
LINE
  5
116
100
AcDbEntity
  8
IMPORTED
  6
CONTINUOUS
 62
               1
100
AcDbLine
 10
254.14658098410169
 20
-1355.0
 30
0.0
 11
294.14658083509005
 21
-1355.0
 31
0.0
  0
LINE
  5
117
100
AcDbEntity
  8
IMPORTED
  6
CONTINUOUS
 62
               1
100
AcDbLine
 10
344.14658083509005
 20
-1355.0
 30
0.0
 11
384.14658068607844
 21
-1355.0
 31
0.0
  0
LINE
  5
118
100
AcDbEntity
  8
IMPORTED
  6
CONTINUOUS
 62
               1
100
AcDbLine
 10
294.14658083509005
 20
-1355.0
 30
0.0
 11
344.14658083509005
 21
-1355.0
 31
0.0
  0
SOLID
  5
119
100
AcDbEntity
  8
IMPORTED
 62
               1
100
AcDbTrace
 10
294.14658083509005
 20
-1355.0
 30
0.0
 11
334.14413942884005
 21
-1351.500667054333
 31
0.0
 12
334.14413942884005
 22
-1358.499332945667
 32
0.0
 13
334.14413942884005
 23
-1358.499332945667
 33
0.0
  0
SOLID
  5
11A
100
AcDbEntity
  8
IMPORTED
 62
               1
100
AcDbTrace
 10
344.14658083509005
 20
-1355.0
 30
0.0
 11
304.14902224134005
 21
-1358.499332945667
 31
0.0
 12
304.14902224134005
 22
-1351.500667054333
 32
0.0
 13
304.14902224134005
 23
-1351.500667054333
 33
0.0
  0
MTEXT
  5
11B
100
AcDbEntity
  8
IMPORTED
 62
               1
100
AcDbMText
 10
297.97991416842336
 20
-1296.4965104911726
 30
0.0
 40
32.576822916666664
 41
0.0
 71
               1
 72
               1
  1
50
  7
_______
  0
LINE
  5
11C
100
AcDbEntity
  8
IMPORTED
  6
CONTINUOUS
 62
               1
100
AcDbLine
 10
-255.85341916490987
 20
-1222.8972962487996
 30
0.0
 11
-255.85341916490987
 21
-1539.9999998509884
 31
0.0
  0
LINE
  5
11D
100
AcDbEntity
  8
IMPORTED
  6
CONTINUOUS
 62
               1
100
AcDbLine
 10
344.14658083509005
 20
-1222.8972962487996
 30
0.0
 11
344.14658083509005
 21
-1539.9999998509884
 31
0.0
  0
LINE
  5
11E
100
AcDbEntity
  8
IMPORTED
  6
CONTINUOUS
 62
               1
100
AcDbLine
 10
-295.85341901589828
 20
-1500.0
 30
0.0
 11
-255.85341916490987
 21
-1500.0
 31
0.0
  0
LINE
  5
11F
100
AcDbEntity
  8
IMPORTED
  6
CONTINUOUS
 62
               1
100
AcDbLine
 10
344.14658083509005
 20
-1500.0
 30
0.0
 11
384.14658068607844
 21
-1500.0
 31
0.0
  0
LINE
  5
120
100
AcDbEntity
  8
IMPORTED
  6
CONTINUOUS
 62
               1
100
AcDbLine
 10
-255.85341916490987
 20
-1500.0
 30
0.0
 11
344.14658083509005
 21
-1500.0
 31
0.0
  0
SOLID
  5
121
100
AcDbEntity
  8
IMPORTED
 62
               1
100
AcDbTrace
 10
-255.85341916490987
 20
-1500.0
 30
0.0
 11
-215.85586057115987
 21
-1496.500667054333
 31
0.0
 12
-215.85586057115987
 22
-1503.499332945667
 32
0.0
 13
-215.85586057115987
 23
-1503.499332945667
 33
0.0
  0
SOLID
  5
122
100
AcDbEntity
  8
IMPORTED
 62
               1
100
AcDbTrace
 10
344.14658083509005
 20
-1500.0
 30
0.0
 11
304.14902224134005
 21
-1503.499332945667
 31
0.0
 12
304.14902224134005
 22
-1496.500667054333
 32
0.0
 13
304.14902224134005
 23
-1496.500667054333
 33
0.0
  0
MTEXT
  5
123
100
AcDbEntity
  8
IMPORTED
 62
               1
100
AcDbMText
 10
12.396580835090107
 20
-1441.4965104911726
 30
0.0
 40
32.576822916666664
 41
0.0
 71
               1
 72
               1
  1
600
  7
_______
  0
LINE
  5
124
100
AcDbEntity
  8
IMPORTED
  6
CONTINUOUS
 62
               1
100
AcDbLine
 10
-30.853419164909887
 20
1792.1026033041651
 30
0.0
 11
-30.853419164909887
 21
1977.9999998509882
 31
0.0
  0
LINE
  5
125
100
AcDbEntity
  8
IMPORTED
  6
CONTINUOUS
 62
               1
100
AcDbLine
 10
119.14658083509011
 20
1792.1026033041651
 30
0.0
 11
119.14658083509011
 21
1977.9999998509882
 31
0.0
  0
LINE
  5
126
100
AcDbEntity
  8
IMPORTED
  6
CONTINUOUS
 62
               1
100
AcDbLine
 10
-70.853419015898268
 20
1937.9999999999998
 30
0.0
 11
-30.853419164909887
 21
1937.9999999999998
 31
0.0
  0
LINE
  5
127
100
AcDbEntity
  8
IMPORTED
  6
CONTINUOUS
 62
               1
100
AcDbLine
 10
119.14658083509011
 20
1937.9999999999998
 30
0.0
 11
159.14658068607849
 21
1937.9999999999998
 31
0.0
  0
LINE
  5
128
100
AcDbEntity
  8
IMPORTED
  6
CONTINUOUS
 62
               1
100
AcDbLine
 10
-30.853419164909887
 20
1937.9999999999998
 30
0.0
 11
119.14658083509011
 21
1937.9999999999998
 31
0.0
  0
SOLID
  5
129
100
AcDbEntity
  8
IMPORTED
 62
               1
100
AcDbTrace
 10
-30.853419164909887
 20
1937.9999999999998
 30
0.0
 11
9.1441394288401145
 21
1941.4993329456668
 31
0.0
 12
9.1441394288401145
 22
1934.5006670543328
 32
0.0
 13
9.1441394288401145
 23
1934.5006670543328
 33
0.0
  0
SOLID
  5
12A
100
AcDbEntity
  8
IMPORTED
 62
               1
100
AcDbTrace
 10
119.14658083509011
 20
1937.9999999999998
 30
0.0
 11
79.149022241340106
 21
1934.5006670543328
 31
0.0
 12
79.149022241340106
 22
1941.4993329456668
 32
0.0
 13
79.149022241340106
 23
1941.4993329456668
 33
0.0
  0
MTEXT
  5
12B
100
AcDbEntity
  8
IMPORTED
 62
               1
100
AcDbMText
 10
12.396580835090115
 20
1996.5034895088272
 30
0.0
 40
32.576822916666664
 41
0.0
 71
               1
 72
               1
  1
150
  7
_______
  0
LINE
  5
12C
100
AcDbEntity
  8
IMPORTED
  6
CONTINUOUS
 62
               1
100
AcDbLine
 10
2981.999980611572
 20
-934.99999647231721
 30
0.0
 11
3179.9999998509884
 21
-934.99999647231721
 31
0.0
  0
LINE
  5
12D
100
AcDbEntity
  8
IMPORTED
  6
CONTINUOUS
 62
               1
100
AcDbLine
 10
2981.999980611572
 20
-909.99999647231721
 30
0.0
 11
3179.9999998509884
 21
-909.99999647231721
 31
0.0
  0
LINE
  5
12E
100
AcDbEntity
  8
IMPORTED
  6
CONTINUOUS
 62
               1
100
AcDbLine
 10
3140.0
 20
-974.9999963233056
 30
0.0
 11
3140.0
 21
-934.99999647231721
 31
0.0
  0
LINE
  5
12F
100
AcDbEntity
  8
IMPORTED
  6
CONTINUOUS
 62
               1
100
AcDbLine
 10
3140.0
 20
-909.99999647231721
 30
0.0
 11
3140.0
 21
-869.99999662132882
 31
0.0
  0
LINE
  5
130
100
AcDbEntity
  8
IMPORTED
  6
CONTINUOUS
 62
               1
100
AcDbLine
 10
3140.0
 20
-934.99999647231721
 30
0.0
 11
3140.0
 21
-909.99999647231721
 31
0.0
  0
SOLID
  5
131
100
AcDbEntity
  8
IMPORTED
 62
               1
100
AcDbTrace
 10
3140.0
 20
-934.99999647231721
 30
0.0
 11
3136.500667054333
 21
-895.00243787856721
 31
0.0
 12
3143.499332945667
 22
-895.00243787856721
 32
0.0
 13
3143.499332945667
 23
-895.00243787856721
 33
0.0
  0
SOLID
  5
132
100
AcDbEntity
  8
IMPORTED
 62
               1
100
AcDbTrace
 10
3140.0
 20
-909.99999647231721
 30
0.0
 11
3143.499332945667
 21
-949.99755506606721
 31
0.0
 12
3136.500667054333
 22
-949.99755506606721
 32
0.0
 13
3136.500667054333
 23
-949.99755506606721
 33
0.0
  0
MTEXT
  5
133
100
AcDbEntity
  8
IMPORTED
 62
               1
100
AcDbMText
 10
3081.4965104911726
 20
-943.66666313898384
 30
0.0
 40
32.576822916666664
 41
0.0
 71
               1
 72
               1
  1
25
  7
_______
 11
0.0
 21
1.0
 31
0.0
  0
LINE
  5
134
100
AcDbEntity
  8
IMPORTED
  6
CONTINUOUS
 62
               1
100
AcDbLine
 10
1824.9999808350899
 20
-852.99999669583462
 30
0.0
 11
1824.9999808350899
 21
-60.000000149011655
 31
0.0
  0
LINE
  5
135
100
AcDbEntity
  8
IMPORTED
  6
CONTINUOUS
 62
               1
100
AcDbLine
 10
2299.9999808350899
 20
-704.99999669583462
 30
0.0
 11
2299.9999808350899
 21
-60.000000149011655
 31
0.0
  0
LINE
  5
136
100
AcDbEntity
  8
IMPORTED
  6
CONTINUOUS
 62
               1
100
AcDbLine
 10
1784.9999809841015
 20
-100.00000000000004
 30
0.0
 11
1824.9999808350899
 21
-100.00000000000004
 31
0.0
  0
LINE
  5
137
100
AcDbEntity
  8
IMPORTED
  6
CONTINUOUS
 62
               1
100
AcDbLine
 10
2299.9999808350899
 20
-100.00000000000004
 30
0.0
 11
2339.9999806860783
 21
-100.00000000000004
 31
0.0
  0
LINE
  5
138
100
AcDbEntity
  8
IMPORTED
  6
CONTINUOUS
 62
               1
100
AcDbLine
 10
1824.9999808350899
 20
-100.00000000000004
 30
0.0
 11
2299.9999808350899
 21
-100.00000000000004
 31
0.0
  0
SOLID
  5
139
100
AcDbEntity
  8
IMPORTED
 62
               1
100
AcDbTrace
 10
1824.9999808350899
 20
-100.00000000000004
 30
0.0
 11
1864.9975394288399
 21
-96.500667054333022
 31
0.0
 12
1864.9975394288399
 22
-103.49933294566706
 32
0.0
 13
1864.9975394288399
 23
-103.49933294566706
 33
0.0
  0
SOLID
  5
13A
100
AcDbEntity
  8
IMPORTED
 62
               1
100
AcDbTrace
 10
2299.9999808350899
 20
-100.00000000000004
 30
0.0
 11
2260.0024222413399
 21
-103.49933294566706
 31
0.0
 12
2260.0024222413399
 22
-96.500667054333022
 32
0.0
 13
2260.0024222413399
 23
-96.500667054333022
 33
0.0
  0
MTEXT
  5
13B
100
AcDbEntity
  8
IMPORTED
 62
               1
100
AcDbMText
 10
2030.7499808350901
 20
-41.496510491172522
 30
0.0
 40
32.576822916666664
 41
0.0
 71
               1
 72
               1
  1
475
  7
_______
  0
LINE
  5
13C
100
AcDbEntity
  8
IMPORTED
  6
CONTINUOUS
 62
               1
100
AcDbLine
 10
2299.9999808350899
 20
-704.99999669583462
 30
0.0
 11
2299.9999808350899
 21
-60.000000149011655
 31
0.0
  0
LINE
  5
13D
100
AcDbEntity
  8
IMPORTED
  6
CONTINUOUS
 62
               1
100
AcDbLine
 10
2449.9999808350899
 20
-227.99999669583468
 30
0.0
 11
2449.9999808350899
 21
-60.000000149011655
 31
0.0
  0
LINE
  5
13E
100
AcDbEntity
  8
IMPORTED
  6
CONTINUOUS
 62
               1
100
AcDbLine
 10
2259.9999809841015
 20
-100.00000000000004
 30
0.0
 11
2299.9999808350899
 21
-100.00000000000004
 31
0.0
  0
LINE
  5
13F
100
AcDbEntity
  8
IMPORTED
  6
CONTINUOUS
 62
               1
100
AcDbLine
 10
2449.9999808350899
 20
-100.00000000000004
 30
0.0
 11
2489.9999806860783
 21
-100.00000000000004
 31
0.0
  0
LINE
  5
140
100
AcDbEntity
  8
IMPORTED
  6
CONTINUOUS
 62
               1
100
AcDbLine
 10
2299.9999808350899
 20
-100.00000000000004
 30
0.0
 11
2449.9999808350899
 21
-100.00000000000004
 31
0.0
  0
SOLID
  5
141
100
AcDbEntity
  8
IMPORTED
 62
               1
100
AcDbTrace
 10
2299.9999808350899
 20
-100.00000000000004
 30
0.0
 11
2339.9975394288399
 21
-96.500667054333022
 31
0.0
 12
2339.9975394288399
 22
-103.49933294566706
 32
0.0
 13
2339.9975394288399
 23
-103.49933294566706
 33
0.0
  0
SOLID
  5
142
100
AcDbEntity
  8
IMPORTED
 62
               1
100
AcDbTrace
 10
2449.9999808350899
 20
-100.00000000000004
 30
0.0
 11
2410.0024222413399
 21
-103.49933294566706
 31
0.0
 12
2410.0024222413399
 22
-96.500667054333022
 32
0.0
 13
2410.0024222413399
 23
-96.500667054333022
 33
0.0
  0
MTEXT
  5
143
100
AcDbEntity
  8
IMPORTED
 62
               1
100
AcDbMText
 10
2343.2499808350899
 20
-41.496510491172522
 30
0.0
 40
32.576822916666664
 41
0.0
 71
               1
 72
               1
  1
150
  7
_______
  0
LINE
  5
144
100
AcDbEntity
  8
IMPORTED
  6
CONTINUOUS
 62
               1
100
AcDbLine
 10
2449.9999808350899
 20
-227.99999669583468
 30
0.0
 11
2449.9999808350899
 21
-60.000000149011655
 31
0.0
  0
LINE
  5
145
100
AcDbEntity
  8
IMPORTED
  6
CONTINUOUS
 62
               1
100
AcDbLine
 10
2824.9999808350894
 20
-849.99999669583462
 30
0.0
 11
2824.9999808350894
 21
-60.000000149011655
 31
0.0
  0
LINE
  5
146
100
AcDbEntity
  8
IMPORTED
  6
CONTINUOUS
 62
               1
100
AcDbLine
 10
2409.9999809841015
 20
-100.00000000000004
 30
0.0
 11
2449.9999808350899
 21
-100.00000000000004
 31
0.0
  0
LINE
  5
147
100
AcDbEntity
  8
IMPORTED
  6
CONTINUOUS
 62
               1
100
AcDbLine
 10
2824.9999808350894
 20
-100.00000000000004
 30
0.0
 11
2864.9999806860778
 21
-100.00000000000004
 31
0.0
  0
LINE
  5
148
100
AcDbEntity
  8
IMPORTED
  6
CONTINUOUS
 62
               1
100
AcDbLine
 10
2449.9999808350899
 20
-100.00000000000004
 30
0.0
 11
2824.9999808350894
 21
-100.00000000000004
 31
0.0
  0
SOLID
  5
149
100
AcDbEntity
  8
IMPORTED
 62
               1
100
AcDbTrace
 10
2449.9999808350899
 20
-100.00000000000004
 30
0.0
 11
2489.9975394288399
 21
-96.500667054333022
 31
0.0
 12
2489.9975394288399
 22
-103.49933294566706
 32
0.0
 13
2489.9975394288399
 23
-103.49933294566706
 33
0.0
  0
SOLID
  5
14A
100
AcDbEntity
  8
IMPORTED
 62
               1
100
AcDbTrace
 10
2824.9999808350894
 20
-100.00000000000004
 30
0.0
 11
2785.0024222413394
 21
-103.49933294566706
 31
0.0
 12
2785.0024222413394
 22
-96.500667054333022
 32
0.0
 13
2785.0024222413394
 23
-96.500667054333022
 33
0.0
  0
MTEXT
  5
14B
100
AcDbEntity
  8
IMPORTED
 62
               1
100
AcDbMText
 10
2605.7499808350899
 20
-41.496510491172522
 30
0.0
 40
32.576822916666664
 41
0.0
 71
               1
 72
               1
  1
375
  7
_______
  0
LINE
  5
14C
100
AcDbEntity
  8
IMPORTED
  6
CONTINUOUS
 62
               1
100
AcDbLine
 10
1824.9999808350899
 20
-852.99999669583462
 30
0.0
 11
1824.9999808350899
 21
77.999999850988345
 31
0.0
  0
LINE
  5
14D
100
AcDbEntity
  8
IMPORTED
  6
CONTINUOUS
 62
               1
100
AcDbLine
 10
2824.9999808350894
 20
-849.99999669583462
 30
0.0
 11
2824.9999808350894
 21
77.999999850988345
 31
0.0
  0
LINE
  5
14E
100
AcDbEntity
  8
IMPORTED
  6
CONTINUOUS
 62
               1
100
AcDbLine
 10
1784.9999809841015
 20
37.999999999999957
 30
0.0
 11
1824.9999808350899
 21
37.999999999999957
 31
0.0
  0
LINE
  5
14F
100
AcDbEntity
  8
IMPORTED
  6
CONTINUOUS
 62
               1
100
AcDbLine
 10
2824.9999808350894
 20
37.999999999999957
 30
0.0
 11
2864.9999806860778
 21
37.999999999999957
 31
0.0
  0
LINE
  5
150
100
AcDbEntity
  8
IMPORTED
  6
CONTINUOUS
 62
               1
100
AcDbLine
 10
1824.9999808350899
 20
37.999999999999957
 30
0.0
 11
2824.9999808350894
 21
37.999999999999957
 31
0.0
  0
SOLID
  5
151
100
AcDbEntity
  8
IMPORTED
 62
               1
100
AcDbTrace
 10
1824.9999808350899
 20
37.999999999999957
 30
0.0
 11
1864.9975394288399
 21
41.499332945666978
 31
0.0
 12
1864.9975394288399
 22
34.500667054332936
 32
0.0
 13
1864.9975394288399
 23
34.500667054332936
 33
0.0
  0
SOLID
  5
152
100
AcDbEntity
  8
IMPORTED
 62
               1
100
AcDbTrace
 10
2824.9999808350894
 20
37.999999999999957
 30
0.0
 11
2785.0024222413394
 21
34.500667054332936
 31
0.0
 12
2785.0024222413394
 22
41.499332945666971
 32
0.0
 13
2785.0024222413394
 23
41.499332945666971
 33
0.0
  0
MTEXT
  5
153
100
AcDbEntity
  8
IMPORTED
 62
               1
100
AcDbMText
 10
2282.666647501756
 20
96.503489508827485
 30
0.0
 40
32.576822916666664
 41
0.0
 71
               1
 72
               1
  1
1000
  7
_______
  0
LINE
  5
154
100
AcDbEntity
  8
IMPORTED
  6
CONTINUOUS
 62
               1
100
AcDbLine
 10
2392.9999810586073
 20
-284.99999647231726
 30
0.0
 11
1574.0951809841017
 21
-284.99999647231726
 31
0.0
  0
LINE
  5
155
100
AcDbEntity
  8
IMPORTED
  6
CONTINUOUS
 62
               1
100
AcDbLine
 10
2244.9999810586073
 20
-759.99999647231721
 30
0.0
 11
1574.0951809841017
 21
-759.99999647231721
 31
0.0
  0
LINE
  5
156
100
AcDbEntity
  8
IMPORTED
  6
CONTINUOUS
 62
               1
100
AcDbLine
 10
1614.0951808350901
 20
-244.99999662132888
 30
0.0
 11
1614.0951808350901
 21
-284.99999647231726
 31
0.0
  0
LINE
  5
157
100
AcDbEntity
  8
IMPORTED
  6
CONTINUOUS
 62
               1
100
AcDbLine
 10
1614.0951808350901
 20
-759.99999647231721
 30
0.0
 11
1614.0951808350901
 21
-799.9999963233056
 31
0.0
  0
LINE
  5
158
100
AcDbEntity
  8
IMPORTED
  6
CONTINUOUS
 62
               1
100
AcDbLine
 10
1614.0951808350901
 20
-284.99999647231726
 30
0.0
 11
1614.0951808350901
 21
-759.99999647231721
 31
0.0
  0
SOLID
  5
159
100
AcDbEntity
  8
IMPORTED
 62
               1
100
AcDbTrace
 10
1614.0951808350901
 20
-284.99999647231726
 30
0.0
 11
1617.5945137807571
 21
-324.99755506606726
 31
0.0
 12
1610.5958478894231
 22
-324.99755506606726
 32
0.0
 13
1610.5958478894231
 23
-324.99755506606726
 33
0.0
  0
SOLID
  5
15A
100
AcDbEntity
  8
IMPORTED
 62
               1
100
AcDbTrace
 10
1614.0951808350901
 20
-759.99999647231721
 30
0.0
 11
1610.5958478894231
 21
-720.00243787856721
 31
0.0
 12
1617.5945137807571
 22
-720.00243787856721
 32
0.0
 13
1617.5945137807571
 23
-720.00243787856721
 33
0.0
  0
MTEXT
  5
15B
100
AcDbEntity
  8
IMPORTED
 62
               1
100
AcDbMText
 10
1555.5916913262624
 20
-554.24999647231721
 30
0.0
 40
32.576822916666664
 41
0.0
 71
               1
 72
               1
  1
475
  7
_______
 11
0.0
 21
1.0
 31
0.0
  0
LINE
  5
15C
100
AcDbEntity
  8
IMPORTED
  6
CONTINUOUS
 62
               1
100
AcDbLine
 10
2244.9999810586073
 20
-759.99999647231721
 30
0.0
 11
1574.0951809841017
 21
-759.99999647231721
 31
0.0
  0
LINE
  5
15D
100
AcDbEntity
  8
IMPORTED
  6
CONTINUOUS
 62
               1
100
AcDbLine
 10
1767.9999810586073
 20
-909.99999647231721
 30
0.0
 11
1574.0951809841017
 21
-909.99999647231721
 31
0.0
  0
LINE
  5
15E
100
AcDbEntity
  8
IMPORTED
  6
CONTINUOUS
 62
               1
100
AcDbLine
 10
1614.0951808350901
 20
-719.99999662132882
 30
0.0
 11
1614.0951808350901
 21
-759.99999647231721
 31
0.0
  0
LINE
  5
15F
100
AcDbEntity
  8
IMPORTED
  6
CONTINUOUS
 62
               1
100
AcDbLine
 10
1614.0951808350901
 20
-909.99999647231721
 30
0.0
 11
1614.0951808350901
 21
-949.9999963233056
 31
0.0
  0
LINE
  5
160
100
AcDbEntity
  8
IMPORTED
  6
CONTINUOUS
 62
               1
100
AcDbLine
 10
1614.0951808350901
 20
-759.99999647231721
 30
0.0
 11
1614.0951808350901
 21
-909.99999647231721
 31
0.0
  0
SOLID
  5
161
100
AcDbEntity
  8
IMPORTED
 62
               1
100
AcDbTrace
 10
1614.0951808350901
 20
-759.99999647231721
 30
0.0
 11
1617.5945137807571
 21
-799.99755506606721
 31
0.0
 12
1610.5958478894231
 22
-799.99755506606721
 32
0.0
 13
1610.5958478894231
 23
-799.99755506606721
 33
0.0
  0
SOLID
  5
162
100
AcDbEntity
  8
IMPORTED
 62
               1
100
AcDbTrace
 10
1614.0951808350901
 20
-909.99999647231721
 30
0.0
 11
1610.5958478894231
 21
-870.00243787856721
 31
0.0
 12
1617.5945137807571
 22
-870.00243787856721
 32
0.0
 13
1617.5945137807571
 23
-870.00243787856721
 33
0.0
  0
MTEXT
  5
163
100
AcDbEntity
  8
IMPORTED
 62
               1
100
AcDbMText
 10
1555.5916913262624
 20
-866.74999647231721
 30
0.0
 40
32.576822916666664
 41
0.0
 71
               1
 72
               1
  1
150
  7
_______
 11
0.0
 21
1.0
 31
0.0
  0
LINE
  5
164
100
AcDbEntity
  8
IMPORTED
  6
CONTINUOUS
 62
               1
100
AcDbLine
 10
1767.9999810586073
 20
-909.99999647231721
 30
0.0
 11
1574.0951809841017
 21
-909.99999647231721
 31
0.0
  0
LINE
  5
165
100
AcDbEntity
  8
IMPORTED
  6
CONTINUOUS
 62
               1
100
AcDbLine
 10
2389.9999810586073
 20
-1284.9999964723172
 30
0.0
 11
1574.0951809841017
 21
-1284.9999964723172
 31
0.0
  0
LINE
  5
166
100
AcDbEntity
  8
IMPORTED
  6
CONTINUOUS
 62
               1
100
AcDbLine
 10
1614.0951808350901
 20
-869.99999662132882
 30
0.0
 11
1614.0951808350901
 21
-909.99999647231721
 31
0.0
  0
LINE
  5
167
100
AcDbEntity
  8
IMPORTED
  6
CONTINUOUS
 62
               1
100
AcDbLine
 10
1614.0951808350901
 20
-1284.9999964723172
 30
0.0
 11
1614.0951808350901
 21
-1324.9999963233056
 31
0.0
  0
LINE
  5
168
100
AcDbEntity
  8
IMPORTED
  6
CONTINUOUS
 62
               1
100
AcDbLine
 10
1614.0951808350901
 20
-909.99999647231721
 30
0.0
 11
1614.0951808350901
 21
-1284.9999964723172
 31
0.0
  0
SOLID
  5
169
100
AcDbEntity
  8
IMPORTED
 62
               1
100
AcDbTrace
 10
1614.0951808350901
 20
-909.99999647231721
 30
0.0
 11
1617.5945137807571
 21
-949.99755506606721
 31
0.0
 12
1610.5958478894231
 22
-949.99755506606721
 32
0.0
 13
1610.5958478894231
 23
-949.99755506606721
 33
0.0
  0
SOLID
  5
16A
100
AcDbEntity
  8
IMPORTED
 62
               1
100
AcDbTrace
 10
1614.0951808350901
 20
-1284.9999964723172
 30
0.0
 11
1610.5958478894231
 21
-1245.0024378785672
 31
0.0
 12
1617.5945137807571
 22
-1245.0024378785672
 32
0.0
 13
1617.5945137807571
 23
-1245.0024378785672
 33
0.0
  0
MTEXT
  5
16B
100
AcDbEntity
  8
IMPORTED
 62
               1
100
AcDbMText
 10
1555.5916913262624
 20
-1129.2499964723172
 30
0.0
 40
32.576822916666664
 41
0.0
 71
               1
 72
               1
  1
375
  7
_______
 11
0.0
 21
1.0
 31
0.0
  0
LINE
  5
16C
100
AcDbEntity
  8
IMPORTED
  6
CONTINUOUS
 62
               1
100
AcDbLine
 10
2389.9999810586073
 20
-1284.9999964723172
 30
0.0
 11
1415.0000001490116
 21
-1284.9999964723172
 31
0.0
  0
LINE
  5
16D
100
AcDbEntity
  8
IMPORTED
  6
CONTINUOUS
 62
               1
100
AcDbLine
 10
2392.9999810586073
 20
-284.99999647231726
 30
0.0
 11
1415.0000001490116
 21
-284.99999647231726
 31
0.0
  0
LINE
  5
16E
100
AcDbEntity
  8
IMPORTED
  6
CONTINUOUS
 62
               1
100
AcDbLine
 10
1455.0
 20
-1324.9999963233056
 30
0.0
 11
1455.0
 21
-1284.9999964723172
 31
0.0
  0
LINE
  5
16F
100
AcDbEntity
  8
IMPORTED
  6
CONTINUOUS
 62
               1
100
AcDbLine
 10
1455.0
 20
-284.99999647231726
 30
0.0
 11
1455.0
 21
-244.99999662132888
 31
0.0
  0
LINE
  5
170
100
AcDbEntity
  8
IMPORTED
  6
CONTINUOUS
 62
               1
100
AcDbLine
 10
1455.0
 20
-1284.9999964723172
 30
0.0
 11
1455.0
 21
-284.99999647231726
 31
0.0
  0
SOLID
  5
171
100
AcDbEntity
  8
IMPORTED
 62
               1
100
AcDbTrace
 10
1455.0
 20
-1284.9999964723172
 30
0.0
 11
1451.500667054333
 21
-1245.0024378785672
 31
0.0
 12
1458.499332945667
 22
-1245.0024378785672
 32
0.0
 13
1458.499332945667
 23
-1245.0024378785672
 33
0.0
  0
SOLID
  5
172
100
AcDbEntity
  8
IMPORTED
 62
               1
100
AcDbTrace
 10
1455.0
 20
-284.99999647231726
 30
0.0
 11
1458.499332945667
 21
-324.99755506606726
 31
0.0
 12
1451.500667054333
 22
-324.99755506606726
 32
0.0
 13
1451.500667054333
 23
-324.99755506606726
 33
0.0
  0
MTEXT
  5
173
100
AcDbEntity
  8
IMPORTED
 62
               1
100
AcDbMText
 10
1396.4965104911726
 20
-827.33332980565046
 30
0.0
 40
32.576822916666664
 41
0.0
 71
               1
 72
               1
  1
1000
  7
_______
 11
0.0
 21
1.0
 31
0.0
  0
POLYLINE
  5
174
100
AcDbEntity
  8
IMPORTED
  6
STYLE_11
 62
              30
100
AcDb2dPolyline
 66
               1
 10
0.0
 20
0.0
 30
0.0
 70
             129
  0
VERTEX
  5
175
100
AcDbEntity
  8
IMPORTED
  6
STYLE_11
 62
              30
100
AcDbVertex
100
AcDb2dVertex
 10
2333.4999808350899
 20
-861.49999647231721
 30
0.0
  0
VERTEX
  5
176
100
AcDbEntity
  8
IMPORTED
  6
STYLE_11
 62
              30
100
AcDbVertex
100
AcDb2dVertex
 10
2336.4999808350899
 20
-861.49999647231721
 30
0.0
  0
VERTEX
  5
177
100
AcDbEntity
  8
IMPORTED
  6
STYLE_11
 62
              30
100
AcDbVertex
100
AcDb2dVertex
 10
2333.4999808350899
 20
-858.49999647231721
 30
0.0
  0
VERTEX
  5
178
100
AcDbEntity
  8
IMPORTED
  6
STYLE_11
 62
              30
100
AcDbVertex
100
AcDb2dVertex
 10
2333.4999808350899
 20
-834.99999647231721
 30
0.0
  0
VERTEX
  5
179
100
AcDbEntity
  8
IMPORTED
  6
STYLE_11
 62
              30
100
AcDbVertex
100
AcDb2dVertex
 10
2336.4999808350899
 20
-834.99999647231721
 30
0.0
  0
VERTEX
  5
17A
100
AcDbEntity
  8
IMPORTED
  6
STYLE_11
 62
              30
100
AcDbVertex
100
AcDb2dVertex
 10
2333.4999808350899
 20
-831.99999647231721
 30
0.0
  0
VERTEX
  5
17B
100
AcDbEntity
  8
IMPORTED
  6
STYLE_11
 62
              30
100
AcDbVertex
100
AcDb2dVertex
 10
2333.4999808350899
 20
-808.49999647231721
 30
0.0
  0
VERTEX
  5
17C
100
AcDbEntity
  8
IMPORTED
  6
STYLE_11
 62
              30
100
AcDbVertex
100
AcDb2dVertex
 10
2336.4999808350899
 20
-808.49999647231721
 30
0.0
  0
VERTEX
  5
17D
100
AcDbEntity
  8
IMPORTED
  6
STYLE_11
 62
              30
100
AcDbVertex
100
AcDb2dVertex
 10
2333.4999808350899
 20
-805.49999647231721
 30
0.0
  0
VERTEX
  5
17E
100
AcDbEntity
  8
IMPORTED
  6
STYLE_11
 62
              30
100
AcDbVertex
100
AcDb2dVertex
 10
2333.4999808350899
 20
-795.49999647231721
 30
0.0
  0
VERTEX
  5
17F
100
AcDbEntity
  8
IMPORTED
  6
STYLE_11
 62
              30
100
AcDbVertex
100
AcDb2dVertex
 10
2333.4999808350899
 20
-795.49999647231721
 30
0.0
 42
-0.414213562373095
 70
               2
  0
VERTEX
  5
180
100
AcDbEntity
  8
IMPORTED
  6
STYLE_11
 62
              30
100
AcDbVertex
100
AcDb2dVertex
 10
2335.4999808350899
 20
-793.49999647231721
 30
0.0
  0
VERTEX
  5
181
100
AcDbEntity
  8
IMPORTED
  6
STYLE_11
 62
              30
100
AcDbVertex
100
AcDb2dVertex
 10
2348.4999808350899
 20
-793.49999647231721
 30
0.0
  0
VERTEX
  5
182
100
AcDbEntity
  8
IMPORTED
  6
STYLE_11
 62
              30
100
AcDbVertex
100
AcDb2dVertex
 10
2348.4999808350899
 20
-796.49999647231721
 30
0.0
  0
VERTEX
  5
183
100
AcDbEntity
  8
IMPORTED
  6
STYLE_11
 62
              30
100
AcDbVertex
100
AcDb2dVertex
 10
2351.4999808350899
 20
-793.49999647231721
 30
0.0
  0
VERTEX
  5
184
100
AcDbEntity
  8
IMPORTED
  6
STYLE_11
 62
              30
100
AcDbVertex
100
AcDb2dVertex
 10
2374.9999808350899
 20
-793.49999647231721
 30
0.0
  0
VERTEX
  5
185
100
AcDbEntity
  8
IMPORTED
  6
STYLE_11
 62
              30
100
AcDbVertex
100
AcDb2dVertex
 10
2374.9999808350899
 20
-796.49999647231721
 30
0.0
  0
VERTEX
  5
186
100
AcDbEntity
  8
IMPORTED
  6
STYLE_11
 62
              30
100
AcDbVertex
100
AcDb2dVertex
 10
2377.9999808350899
 20
-793.49999647231721
 30
0.0
  0
VERTEX
  5
187
100
AcDbEntity
  8
IMPORTED
  6
STYLE_11
 62
              30
100
AcDbVertex
100
AcDb2dVertex
 10
2401.4999808350899
 20
-793.49999647231721
 30
0.0
  0
VERTEX
  5
188
100
AcDbEntity
  8
IMPORTED
  6
STYLE_11
 62
              30
100
AcDbVertex
100
AcDb2dVertex
 10
2401.4999808350899
 20
-796.49999647231721
 30
0.0
  0
VERTEX
  5
189
100
AcDbEntity
  8
IMPORTED
  6
STYLE_11
 62
              30
100
AcDbVertex
100
AcDb2dVertex
 10
2404.4999808350899
 20
-793.49999647231721
 30
0.0
  0
VERTEX
  5
18A
100
AcDbEntity
  8
IMPORTED
  6
STYLE_11
 62
              30
100
AcDbVertex
100
AcDb2dVertex
 10
2414.4999808350899
 20
-793.49999647231721
 30
0.0
  0
VERTEX
  5
18B
100
AcDbEntity
  8
IMPORTED
  6
STYLE_11
 62
              30
100
AcDbVertex
100
AcDb2dVertex
 10
2414.4999808350899
 20
-793.49999647231721
 30
0.0
 42
-0.414213562373095
 70
               2
 50
1.8714839861558573E+17
  0
VERTEX
  5
18C
100
AcDbEntity
  8
IMPORTED
  6
STYLE_11
 62
              30
100
AcDbVertex
100
AcDb2dVertex
 10
2416.4999808350899
 20
-795.49999647231721
 30
0.0
  0
VERTEX
  5
18D
100
AcDbEntity
  8
IMPORTED
  6
STYLE_11
 62
              30
100
AcDbVertex
100
AcDb2dVertex
 10
2416.4999808350899
 20
-808.49999647231721
 30
0.0
  0
VERTEX
  5
18E
100
AcDbEntity
  8
IMPORTED
  6
STYLE_11
 62
              30
100
AcDbVertex
100
AcDb2dVertex
 10
2413.4999808350899
 20
-808.49999647231721
 30
0.0
  0
VERTEX
  5
18F
100
AcDbEntity
  8
IMPORTED
  6
STYLE_11
 62
              30
100
AcDbVertex
100
AcDb2dVertex
 10
2416.4999808350899
 20
-811.49999647231721
 30
0.0
  0
VERTEX
  5
190
100
AcDbEntity
  8
IMPORTED
  6
STYLE_11
 62
              30
100
AcDbVertex
100
AcDb2dVertex
 10
2416.4999808350899
 20
-834.99999647231721
 30
0.0
  0
VERTEX
  5
191
100
AcDbEntity
  8
IMPORTED
  6
STYLE_11
 62
              30
100
AcDbVertex
100
AcDb2dVertex
 10
2413.4999808350899
 20
-834.99999647231721
 30
0.0
  0
VERTEX
  5
192
100
AcDbEntity
  8
IMPORTED
  6
STYLE_11
 62
              30
100
AcDbVertex
100
AcDb2dVertex
 10
2416.4999808350899
 20
-837.99999647231721
 30
0.0
  0
VERTEX
  5
193
100
AcDbEntity
  8
IMPORTED
  6
STYLE_11
 62
              30
100
AcDbVertex
100
AcDb2dVertex
 10
2416.4999808350899
 20
-861.49999647231721
 30
0.0
  0
VERTEX
  5
194
100
AcDbEntity
  8
IMPORTED
  6
STYLE_11
 62
              30
100
AcDbVertex
100
AcDb2dVertex
 10
2413.4999808350899
 20
-861.49999647231721
 30
0.0
  0
VERTEX
  5
195
100
AcDbEntity
  8
IMPORTED
  6
STYLE_11
 62
              30
100
AcDbVertex
100
AcDb2dVertex
 10
2416.4999808350899
 20
-864.49999647231721
 30
0.0
  0
VERTEX
  5
196
100
AcDbEntity
  8
IMPORTED
  6
STYLE_11
 62
              30
100
AcDbVertex
100
AcDb2dVertex
 10
2416.4999808350899
 20
-874.49999647231721
 30
0.0
  0
VERTEX
  5
197
100
AcDbEntity
  8
IMPORTED
  6
STYLE_11
 62
              30
100
AcDbVertex
100
AcDb2dVertex
 10
2416.4999808350899
 20
-874.49999647231721
 30
0.0
 42
-0.414213562373095
 70
               2
  0
VERTEX
  5
198
100
AcDbEntity
  8
IMPORTED
  6
STYLE_11
 62
              30
100
AcDbVertex
100
AcDb2dVertex
 10
2414.4999808350899
 20
-876.49999647231721
 30
0.0
  0
VERTEX
  5
199
100
AcDbEntity
  8
IMPORTED
  6
STYLE_11
 62
              30
100
AcDbVertex
100
AcDb2dVertex
 10
2401.4999808350899
 20
-876.49999647231721
 30
0.0
  0
VERTEX
  5
19A
100
AcDbEntity
  8
IMPORTED
  6
STYLE_11
 62
              30
100
AcDbVertex
100
AcDb2dVertex
 10
2401.4999808350899
 20
-873.49999647231721
 30
0.0
  0
VERTEX
  5
19B
100
AcDbEntity
  8
IMPORTED
  6
STYLE_11
 62
              30
100
AcDbVertex
100
AcDb2dVertex
 10
2398.4999808350899
 20
-876.49999647231721
 30
0.0
  0
VERTEX
  5
19C
100
AcDbEntity
  8
IMPORTED
  6
STYLE_11
 62
              30
100
AcDbVertex
100
AcDb2dVertex
 10
2374.9999808350899
 20
-876.49999647231721
 30
0.0
  0
VERTEX
  5
19D
100
AcDbEntity
  8
IMPORTED
  6
STYLE_11
 62
              30
100
AcDbVertex
100
AcDb2dVertex
 10
2374.9999808350899
 20
-873.49999647231721
 30
0.0
  0
VERTEX
  5
19E
100
AcDbEntity
  8
IMPORTED
  6
STYLE_11
 62
              30
100
AcDbVertex
100
AcDb2dVertex
 10
2371.9999808350899
 20
-876.49999647231721
 30
0.0
  0
VERTEX
  5
19F
100
AcDbEntity
  8
IMPORTED
  6
STYLE_11
 62
              30
100
AcDbVertex
100
AcDb2dVertex
 10
2348.4999808350899
 20
-876.49999647231721
 30
0.0
  0
VERTEX
  5
1A0
100
AcDbEntity
  8
IMPORTED
  6
STYLE_11
 62
              30
100
AcDbVertex
100
AcDb2dVertex
 10
2348.4999808350899
 20
-873.49999647231721
 30
0.0
  0
VERTEX
  5
1A1
100
AcDbEntity
  8
IMPORTED
  6
STYLE_11
 62
              30
100
AcDbVertex
100
AcDb2dVertex
 10
2345.4999808350899
 20
-876.49999647231721
 30
0.0
  0
VERTEX
  5
1A2
100
AcDbEntity
  8
IMPORTED
  6
STYLE_11
 62
              30
100
AcDbVertex
100
AcDb2dVertex
 10
2335.4999808350899
 20
-876.49999647231721
 30
0.0
  0
VERTEX
  5
1A3
100
AcDbEntity
  8
IMPORTED
  6
STYLE_11
 62
              30
100
AcDbVertex
100
AcDb2dVertex
 10
2335.4999808350899
 20
-876.49999647231721
 30
0.0
 42
-0.414213562373095
 70
               2
 50
3.1191399769264294E+17
  0
VERTEX
  5
1A4
100
AcDbEntity
  8
IMPORTED
  6
STYLE_11
 62
              30
100
AcDbVertex
100
AcDb2dVertex
 10
2333.4999808350899
 20
-874.49999647231721
 30
0.0
  0
SEQEND
  5
1A5
100
AcDbEntity
  8
IMPORTED
  6
STYLE_11
 62
              30
  0
POLYLINE
  5
1A6
100
AcDbEntity
  8
IMPORTED
  6
STYLE_11
 62
              30
100
AcDb2dPolyline
 66
               1
 10
0.0
 20
0.0
 30
0.0
 70
             129
  0
VERTEX
  5
1A7
100
AcDbEntity
  8
IMPORTED
  6
STYLE_11
 62
              30
100
AcDbVertex
100
AcDb2dVertex
 10
2439.9999808350899
 20
-771.99999647231721
 30
0.0
 42
0.414213562373095
 70
               2
  0
VERTEX
  5
1A8
100
AcDbEntity
  8
IMPORTED
  6
STYLE_11
 62
              30
100
AcDbVertex
100
AcDb2dVertex
 10
2437.9999808350899
 20
-769.99999647231721
 30
0.0
  0
VERTEX
  5
1A9
100
AcDbEntity
  8
IMPORTED
  6
STYLE_11
 62
              30
100
AcDbVertex
100
AcDb2dVertex
 10
2380.4999808350899
 20
-769.99999647231721
 30
0.0
 42
0.414213562373095
 70
               2
 50
9.3574199307792870E+17
  0
VERTEX
  5
1AA
100
AcDbEntity
  8
IMPORTED
  6
STYLE_11
 62
              30
100
AcDbVertex
100
AcDb2dVertex
 10
2378.4999808350899
 20
-771.99999647231721
 30
0.0
  0
VERTEX
  5
1AB
100
AcDbEntity
  8
IMPORTED
  6
STYLE_11
 62
              30
100
AcDbVertex
100
AcDb2dVertex
 10
2378.4999808350899
 20
-784.49999647231721
 30
0.0
 42
0.414213562373095
 70
               2
  0
VERTEX
  5
1AC
100
AcDbEntity
  8
IMPORTED
  6
STYLE_11
 62
              30
100
AcDbVertex
100
AcDb2dVertex
 10
2380.4999808350899
 20
-786.49999647231721
 30
0.0
  0
VERTEX
  5
1AD
100
AcDbEntity
  8
IMPORTED
  6
STYLE_11
 62
              30
100
AcDbVertex
100
AcDb2dVertex
 10
2437.9999808350899
 20
-786.49999647231721
 30
0.0
 42
0.414213562373095
 70
               2
 50
3.1191399769264294E+17
  0
VERTEX
  5
1AE
100
AcDbEntity
  8
IMPORTED
  6
STYLE_11
 62
              30
100
AcDbVertex
100
AcDb2dVertex
 10
2439.9999808350899
 20
-784.49999647231721
 30
0.0
  0
SEQEND
  5
1AF
100
AcDbEntity
  8
IMPORTED
  6
STYLE_11
 62
              30
  0
POLYLINE
  5
1B0
100
AcDbEntity
  8
IMPORTED
  6
STYLE_11
 62
              30
100
AcDb2dPolyline
 66
               1
 10
0.0
 20
0.0
 30
0.0
 70
             129
  0
VERTEX
  5
1B1
100
AcDbEntity
  8
IMPORTED
  6
STYLE_11
 62
              30
100
AcDbVertex
100
AcDb2dVertex
 10
2309.9999808350899
 20
-771.99999647231721
 30
0.0
 42
-0.414213562373095
 70
               2
  0
VERTEX
  5
1B2
100
AcDbEntity
  8
IMPORTED
  6
STYLE_11
 62
              30
100
AcDbVertex
100
AcDb2dVertex
 10
2311.9999808350899
 20
-769.99999647231721
 30
0.0
  0
VERTEX
  5
1B3
100
AcDbEntity
  8
IMPORTED
  6
STYLE_11
 62
              30
100
AcDbVertex
100
AcDb2dVertex
 10
2369.4999808350899
 20
-769.99999647231721
 30
0.0
 42
-0.414213562373095
 70
               2
 50
1.8714839861558573E+17
  0
VERTEX
  5
1B4
100
AcDbEntity
  8
IMPORTED
  6
STYLE_11
 62
              30
100
AcDbVertex
100
AcDb2dVertex
 10
2371.4999808350899
 20
-771.99999647231721
 30
0.0
  0
VERTEX
  5
1B5
100
AcDbEntity
  8
IMPORTED
  6
STYLE_11
 62
              30
100
AcDbVertex
100
AcDb2dVertex
 10
2371.4999808350899
 20
-784.49999647231721
 30
0.0
 42
-0.414213562373095
 70
               2
  0
VERTEX
  5
1B6
100
AcDbEntity
  8
IMPORTED
  6
STYLE_11
 62
              30
100
AcDbVertex
100
AcDb2dVertex
 10
2369.4999808350899
 20
-786.49999647231721
 30
0.0
  0
VERTEX
  5
1B7
100
AcDbEntity
  8
IMPORTED
  6
STYLE_11
 62
              30
100
AcDbVertex
100
AcDb2dVertex
 10
2311.9999808350899
 20
-786.49999647231721
 30
0.0
 42
-0.414213562373095
 70
               2
 50
3.1191399769264294E+17
  0
VERTEX
  5
1B8
100
AcDbEntity
  8
IMPORTED
  6
STYLE_11
 62
              30
100
AcDbVertex
100
AcDb2dVertex
 10
2309.9999808350899
 20
-784.49999647231721
 30
0.0
  0
SEQEND
  5
1B9
100
AcDbEntity
  8
IMPORTED
  6
STYLE_11
 62
              30
  0
POLYLINE
  5
1BA
100
AcDbEntity
  8
IMPORTED
  6
STYLE_11
 62
              30
100
AcDb2dPolyline
 66
               1
 10
0.0
 20
0.0
 30
0.0
 70
             129
  0
VERTEX
  5
1BB
100
AcDbEntity
  8
IMPORTED
  6
STYLE_11
 62
              30
100
AcDbVertex
100
AcDb2dVertex
 10
2439.9999808350899
 20
-897.99999647231721
 30
0.0
 42
-0.414213562373095
 70
               2
  0
VERTEX
  5
1BC
100
AcDbEntity
  8
IMPORTED
  6
STYLE_11
 62
              30
100
AcDbVertex
100
AcDb2dVertex
 10
2437.9999808350899
 20
-899.99999647231721
 30
0.0
  0
VERTEX
  5
1BD
100
AcDbEntity
  8
IMPORTED
  6
STYLE_11
 62
              30
100
AcDbVertex
100
AcDb2dVertex
 10
2380.4999808350899
 20
-899.99999647231721
 30
0.0
 42
-0.414213562373095
 70
               2
 50
3.1191399769264294E+17
  0
VERTEX
  5
1BE
100
AcDbEntity
  8
IMPORTED
  6
STYLE_11
 62
              30
100
AcDbVertex
100
AcDb2dVertex
 10
2378.4999808350899
 20
-897.99999647231721
 30
0.0
  0
VERTEX
  5
1BF
100
AcDbEntity
  8
IMPORTED
  6
STYLE_11
 62
              30
100
AcDbVertex
100
AcDb2dVertex
 10
2378.4999808350899
 20
-885.49999647231721
 30
0.0
 42
-0.414213562373095
 70
               2
  0
VERTEX
  5
1C0
100
AcDbEntity
  8
IMPORTED
  6
STYLE_11
 62
              30
100
AcDbVertex
100
AcDb2dVertex
 10
2380.4999808350899
 20
-883.49999647231721
 30
0.0
  0
VERTEX
  5
1C1
100
AcDbEntity
  8
IMPORTED
  6
STYLE_11
 62
              30
100
AcDbVertex
100
AcDb2dVertex
 10
2437.9999808350899
 20
-883.49999647231721
 30
0.0
 42
-0.414213562373095
 70
               2
 50
1.8714839861558573E+17
  0
VERTEX
  5
1C2
100
AcDbEntity
  8
IMPORTED
  6
STYLE_11
 62
              30
100
AcDbVertex
100
AcDb2dVertex
 10
2439.9999808350899
 20
-885.49999647231721
 30
0.0
  0
SEQEND
  5
1C3
100
AcDbEntity
  8
IMPORTED
  6
STYLE_11
 62
              30
  0
POLYLINE
  5
1C4
100
AcDbEntity
  8
IMPORTED
  6
STYLE_11
 62
              30
100
AcDb2dPolyline
 66
               1
 10
0.0
 20
0.0
 30
0.0
 70
             129
  0
VERTEX
  5
1C5
100
AcDbEntity
  8
IMPORTED
  6
STYLE_11
 62
              30
100
AcDbVertex
100
AcDb2dVertex
 10
2309.9999808350899
 20
-897.99999647231721
 30
0.0
 42
0.414213562373095
 70
               2
  0
VERTEX
  5
1C6
100
AcDbEntity
  8
IMPORTED
  6
STYLE_11
 62
              30
100
AcDbVertex
100
AcDb2dVertex
 10
2311.9999808350899
 20
-899.99999647231721
 30
0.0
  0
VERTEX
  5
1C7
100
AcDbEntity
  8
IMPORTED
  6
STYLE_11
 62
              30
100
AcDbVertex
100
AcDb2dVertex
 10
2369.4999808350899
 20
-899.99999647231721
 30
0.0
 42
0.414213562373095
 70
               2
 50
3.1191399769264294E+17
  0
VERTEX
  5
1C8
100
AcDbEntity
  8
IMPORTED
  6
STYLE_11
 62
              30
100
AcDbVertex
100
AcDb2dVertex
 10
2371.4999808350899
 20
-897.99999647231721
 30
0.0
  0
VERTEX
  5
1C9
100
AcDbEntity
  8
IMPORTED
  6
STYLE_11
 62
              30
100
AcDbVertex
100
AcDb2dVertex
 10
2371.4999808350899
 20
-885.49999647231721
 30
0.0
 42
0.414213562373095
 70
               2
  0
VERTEX
  5
1CA
100
AcDbEntity
  8
IMPORTED
  6
STYLE_11
 62
              30
100
AcDbVertex
100
AcDb2dVertex
 10
2369.4999808350899
 20
-883.49999647231721
 30
0.0
  0
VERTEX
  5
1CB
100
AcDbEntity
  8
IMPORTED
  6
STYLE_11
 62
              30
100
AcDbVertex
100
AcDb2dVertex
 10
2311.9999808350899
 20
-883.49999647231721
 30
0.0
 42
0.414213562373095
 70
               2
 50
9.3574199307792870E+17
  0
VERTEX
  5
1CC
100
AcDbEntity
  8
IMPORTED
  6
STYLE_11
 62
              30
100
AcDbVertex
100
AcDb2dVertex
 10
2309.9999808350899
 20
-885.49999647231721
 30
0.0
  0
SEQEND
  5
1CD
100
AcDbEntity
  8
IMPORTED
  6
STYLE_11
 62
              30
  0
POLYLINE
  5
1CE
100
AcDbEntity
  8
IMPORTED
  6
STYLE_11
 62
              30
100
AcDb2dPolyline
 66
               1
 10
0.0
 20
0.0
 30
0.0
 70
             129
  0
VERTEX
  5
1CF
100
AcDbEntity
  8
IMPORTED
  6
STYLE_11
 62
              30
100
AcDbVertex
100
AcDb2dVertex
 10
2439.9999808350899
 20
-795.49999647231721
 30
0.0
 42
0.414213562373095
 70
               2
  0
VERTEX
  5
1D0
100
AcDbEntity
  8
IMPORTED
  6
STYLE_11
 62
              30
100
AcDbVertex
100
AcDb2dVertex
 10
2437.9999808350899
 20
-793.49999647231721
 30
0.0
  0
VERTEX
  5
1D1
100
AcDbEntity
  8
IMPORTED
  6
STYLE_11
 62
              30
100
AcDbVertex
100
AcDb2dVertex
 10
2425.4999808350899
 20
-793.49999647231721
 30
0.0
 42
0.414213562373095
 70
               2
 50
9.3574199307792870E+17
  0
VERTEX
  5
1D2
100
AcDbEntity
  8
IMPORTED
  6
STYLE_11
 62
              30
100
AcDbVertex
100
AcDb2dVertex
 10
2423.4999808350899
 20
-795.49999647231721
 30
0.0
  0
VERTEX
  5
1D3
100
AcDbEntity
  8
IMPORTED
  6
STYLE_11
 62
              30
100
AcDbVertex
100
AcDb2dVertex
 10
2423.4999808350899
 20
-829.49999647231721
 30
0.0
 42
0.414213562373095
 70
               2
  0
VERTEX
  5
1D4
100
AcDbEntity
  8
IMPORTED
  6
STYLE_11
 62
              30
100
AcDbVertex
100
AcDb2dVertex
 10
2425.4999808350899
 20
-831.49999647231721
 30
0.0
  0
VERTEX
  5
1D5
100
AcDbEntity
  8
IMPORTED
  6
STYLE_11
 62
              30
100
AcDbVertex
100
AcDb2dVertex
 10
2437.9999808350899
 20
-831.49999647231721
 30
0.0
 42
0.414213562373095
 70
               2
 50
3.1191399769264294E+17
  0
VERTEX
  5
1D6
100
AcDbEntity
  8
IMPORTED
  6
STYLE_11
 62
              30
100
AcDbVertex
100
AcDb2dVertex
 10
2439.9999808350899
 20
-829.49999647231721
 30
0.0
  0
SEQEND
  5
1D7
100
AcDbEntity
  8
IMPORTED
  6
STYLE_11
 62
              30
  0
POLYLINE
  5
1D8
100
AcDbEntity
  8
IMPORTED
  6
STYLE_11
 62
              30
100
AcDb2dPolyline
 66
               1
 10
0.0
 20
0.0
 30
0.0
 70
             129
  0
VERTEX
  5
1D9
100
AcDbEntity
  8
IMPORTED
  6
STYLE_11
 62
              30
100
AcDbVertex
100
AcDb2dVertex
 10
2326.4999808350899
 20
-795.49999647231721
 30
0.0
 42
0.414213562373095
 70
               2
  0
VERTEX
  5
1DA
100
AcDbEntity
  8
IMPORTED
  6
STYLE_11
 62
              30
100
AcDbVertex
100
AcDb2dVertex
 10
2324.4999808350899
 20
-793.49999647231721
 30
0.0
  0
VERTEX
  5
1DB
100
AcDbEntity
  8
IMPORTED
  6
STYLE_11
 62
              30
100
AcDbVertex
100
AcDb2dVertex
 10
2311.9999808350899
 20
-793.49999647231721
 30
0.0
 42
0.414213562373095
 70
               2
 50
9.3574199307792870E+17
  0
VERTEX
  5
1DC
100
AcDbEntity
  8
IMPORTED
  6
STYLE_11
 62
              30
100
AcDbVertex
100
AcDb2dVertex
 10
2309.9999808350899
 20
-795.49999647231721
 30
0.0
  0
VERTEX
  5
1DD
100
AcDbEntity
  8
IMPORTED
  6
STYLE_11
 62
              30
100
AcDbVertex
100
AcDb2dVertex
 10
2309.9999808350899
 20
-829.49999647231721
 30
0.0
 42
0.414213562373095
 70
               2
  0
VERTEX
  5
1DE
100
AcDbEntity
  8
IMPORTED
  6
STYLE_11
 62
              30
100
AcDbVertex
100
AcDb2dVertex
 10
2311.9999808350899
 20
-831.49999647231721
 30
0.0
  0
VERTEX
  5
1DF
100
AcDbEntity
  8
IMPORTED
  6
STYLE_11
 62
              30
100
AcDbVertex
100
AcDb2dVertex
 10
2324.4999808350899
 20
-831.49999647231721
 30
0.0
 42
0.414213562373095
 70
               2
 50
3.1191399769264294E+17
  0
VERTEX
  5
1E0
100
AcDbEntity
  8
IMPORTED
  6
STYLE_11
 62
              30
100
AcDbVertex
100
AcDb2dVertex
 10
2326.4999808350899
 20
-829.49999647231721
 30
0.0
  0
SEQEND
  5
1E1
100
AcDbEntity
  8
IMPORTED
  6
STYLE_11
 62
              30
  0
POLYLINE
  5
1E2
100
AcDbEntity
  8
IMPORTED
  6
STYLE_11
 62
              30
100
AcDb2dPolyline
 66
               1
 10
0.0
 20
0.0
 30
0.0
 70
             129
  0
VERTEX
  5
1E3
100
AcDbEntity
  8
IMPORTED
  6
STYLE_11
 62
              30
100
AcDbVertex
100
AcDb2dVertex
 10
2439.9999808350899
 20
-840.49999647231721
 30
0.0
 42
0.414213562373095
 70
               2
  0
VERTEX
  5
1E4
100
AcDbEntity
  8
IMPORTED
  6
STYLE_11
 62
              30
100
AcDbVertex
100
AcDb2dVertex
 10
2437.9999808350899
 20
-838.49999647231721
 30
0.0
  0
VERTEX
  5
1E5
100
AcDbEntity
  8
IMPORTED
  6
STYLE_11
 62
              30
100
AcDbVertex
100
AcDb2dVertex
 10
2425.4999808350899
 20
-838.49999647231721
 30
0.0
 42
0.414213562373095
 70
               2
 50
9.3574199307792870E+17
  0
VERTEX
  5
1E6
100
AcDbEntity
  8
IMPORTED
  6
STYLE_11
 62
              30
100
AcDbVertex
100
AcDb2dVertex
 10
2423.4999808350899
 20
-840.49999647231721
 30
0.0
  0
VERTEX
  5
1E7
100
AcDbEntity
  8
IMPORTED
  6
STYLE_11
 62
              30
100
AcDbVertex
100
AcDb2dVertex
 10
2423.4999808350899
 20
-874.49999647231721
 30
0.0
 42
0.414213562373095
 70
               2
  0
VERTEX
  5
1E8
100
AcDbEntity
  8
IMPORTED
  6
STYLE_11
 62
              30
100
AcDbVertex
100
AcDb2dVertex
 10
2425.4999808350899
 20
-876.49999647231721
 30
0.0
  0
VERTEX
  5
1E9
100
AcDbEntity
  8
IMPORTED
  6
STYLE_11
 62
              30
100
AcDbVertex
100
AcDb2dVertex
 10
2437.9999808350899
 20
-876.49999647231721
 30
0.0
 42
0.414213562373095
 70
               2
 50
3.1191399769264294E+17
  0
VERTEX
  5
1EA
100
AcDbEntity
  8
IMPORTED
  6
STYLE_11
 62
              30
100
AcDbVertex
100
AcDb2dVertex
 10
2439.9999808350899
 20
-874.49999647231721
 30
0.0
  0
SEQEND
  5
1EB
100
AcDbEntity
  8
IMPORTED
  6
STYLE_11
 62
              30
  0
POLYLINE
  5
1EC
100
AcDbEntity
  8
IMPORTED
  6
STYLE_11
 62
              30
100
AcDb2dPolyline
 66
               1
 10
0.0
 20
0.0
 30
0.0
 70
             129
  0
VERTEX
  5
1ED
100
AcDbEntity
  8
IMPORTED
  6
STYLE_11
 62
              30
100
AcDbVertex
100
AcDb2dVertex
 10
2326.4999808350899
 20
-840.49999647231721
 30
0.0
 42
0.414213562373095
 70
               2
  0
VERTEX
  5
1EE
100
AcDbEntity
  8
IMPORTED
  6
STYLE_11
 62
              30
100
AcDbVertex
100
AcDb2dVertex
 10
2324.4999808350899
 20
-838.49999647231721
 30
0.0
  0
VERTEX
  5
1EF
100
AcDbEntity
  8
IMPORTED
  6
STYLE_11
 62
              30
100
AcDbVertex
100
AcDb2dVertex
 10
2311.9999808350899
 20
-838.49999647231721
 30
0.0
 42
0.414213562373095
 70
               2
 50
9.3574199307792870E+17
  0
VERTEX
  5
1F0
100
AcDbEntity
  8
IMPORTED
  6
STYLE_11
 62
              30
100
AcDbVertex
100
AcDb2dVertex
 10
2309.9999808350899
 20
-840.49999647231721
 30
0.0
  0
VERTEX
  5
1F1
100
AcDbEntity
  8
IMPORTED
  6
STYLE_11
 62
              30
100
AcDbVertex
100
AcDb2dVertex
 10
2309.9999808350899
 20
-874.49999647231721
 30
0.0
 42
0.414213562373095
 70
               2
  0
VERTEX
  5
1F2
100
AcDbEntity
  8
IMPORTED
  6
STYLE_11
 62
              30
100
AcDbVertex
100
AcDb2dVertex
 10
2311.9999808350899
 20
-876.49999647231721
 30
0.0
  0
VERTEX
  5
1F3
100
AcDbEntity
  8
IMPORTED
  6
STYLE_11
 62
              30
100
AcDbVertex
100
AcDb2dVertex
 10
2324.4999808350899
 20
-876.49999647231721
 30
0.0
 42
0.414213562373095
 70
               2
 50
3.1191399769264294E+17
  0
VERTEX
  5
1F4
100
AcDbEntity
  8
IMPORTED
  6
STYLE_11
 62
              30
100
AcDbVertex
100
AcDb2dVertex
 10
2326.4999808350899
 20
-874.49999647231721
 30
0.0
  0
SEQEND
  5
1F5
100
AcDbEntity
  8
IMPORTED
  6
STYLE_11
 62
              30
  0
POLYLINE
  5
1F6
100
AcDbEntity
  8
IMPORTED
  6
CONTINUOUS
 62
              30
100
AcDb2dPolyline
 66
               1
 10
0.0
 20
0.0
 30
0.0
 70
               1
 75
               5
  0
VERTEX
  5
1F7
100
AcDbEntity
  8
IMPORTED
  6
CONTINUOUS
 62
              30
100
AcDbVertex
100
AcDb2dVertex
 10
2299.9999808350899
 20
-764.99999647231721
 30
0.0
  0
VERTEX
  5
1F8
100
AcDbEntity
  8
IMPORTED
  6
CONTINUOUS
 62
              30
100
AcDbVertex
100
AcDb2dVertex
 10
2304.9999808350899
 20
-759.99999647231721
 30
0.0
  0
VERTEX
  5
1F9
100
AcDbEntity
  8
IMPORTED
  6
CONTINUOUS
 62
              30
100
AcDbVertex
100
AcDb2dVertex
 10
2444.9999808350899
 20
-759.99999647231721
 30
0.0
  0
VERTEX
  5
1FA
100
AcDbEntity
  8
IMPORTED
  6
CONTINUOUS
 62
              30
100
AcDbVertex
100
AcDb2dVertex
 10
2449.9999808350899
 20
-764.99999647231721
 30
0.0
  0
VERTEX
  5
1FB
100
AcDbEntity
  8
IMPORTED
  6
CONTINUOUS
 62
              30
100
AcDbVertex
100
AcDb2dVertex
 10
2449.9999808350899
 20
-904.99999647231721
 30
0.0
  0
VERTEX
  5
1FC
100
AcDbEntity
  8
IMPORTED
  6
CONTINUOUS
 62
              30
100
AcDbVertex
100
AcDb2dVertex
 10
2444.9999808350899
 20
-909.99999647231721
 30
0.0
  0
VERTEX
  5
1FD
100
AcDbEntity
  8
IMPORTED
  6
CONTINUOUS
 62
              30
100
AcDbVertex
100
AcDb2dVertex
 10
2304.9999808350899
 20
-909.99999647231721
 30
0.0
  0
VERTEX
  5
1FE
100
AcDbEntity
  8
IMPORTED
  6
CONTINUOUS
 62
              30
100
AcDbVertex
100
AcDb2dVertex
 10
2299.9999808350899
 20
-904.99999647231721
 30
0.0
  0
SEQEND
  5
1FF
100
AcDbEntity
  8
IMPORTED
  6
CONTINUOUS
 62
              30
  0
POLYLINE
  5
201
100
AcDbEntity
  8
IMPORTED
  6
CONTINUOUS
 62
              30
100
AcDb2dPolyline
 66
               1
 10
0.0
 20
0.0
 30
0.0
 70
               1
 75
               5
  0
VERTEX
  5
202
100
AcDbEntity
  8
IMPORTED
  6
CONTINUOUS
 62
              30
100
AcDbVertex
100
AcDb2dVertex
 10
-33.853319164909884
 20
1637.1026035276825
 30
0.0
  0
VERTEX
  5
203
100
AcDbEntity
  8
IMPORTED
  6
CONTINUOUS
 62
              30
100
AcDbVertex
100
AcDb2dVertex
 10
-52.853419164909887
 20
1637.1026035276825
 30
0.0
  0
VERTEX
  5
204
100
AcDbEntity
  8
IMPORTED
  6
CONTINUOUS
 62
              30
100
AcDbVertex
100
AcDb2dVertex
 10
-55.853319164909884
 20
1634.1027035276827
 30
0.0
  0
VERTEX
  5
205
100
AcDbEntity
  8
IMPORTED
  6
CONTINUOUS
 62
              30
100
AcDbVertex
100
AcDb2dVertex
 10
-55.853319164909884
 20
1495.1026035276827
 30
0.0
  0
VERTEX
  5
206
100
AcDbEntity
  8
IMPORTED
  6
CONTINUOUS
 62
              30
100
AcDbVertex
100
AcDb2dVertex
 10
-52.853319164909884
 20
1492.1026035276827
 30
0.0
  0
VERTEX
  5
207
100
AcDbEntity
  8
IMPORTED
  6
CONTINUOUS
 62
              30
100
AcDbVertex
100
AcDb2dVertex
 10
-33.853319164909884
 20
1492.1026035276827
 30
0.0
  0
VERTEX
  5
208
100
AcDbEntity
  8
IMPORTED
  6
CONTINUOUS
 62
              30
100
AcDbVertex
100
AcDb2dVertex
 10
-30.853319164909884
 20
1495.1026035276827
 30
0.0
  0
VERTEX
  5
209
100
AcDbEntity
  8
IMPORTED
  6
CONTINUOUS
 62
              30
100
AcDbVertex
100
AcDb2dVertex
 10
-30.853319164909884
 20
1634.1026035276825
 30
0.0
  0
SEQEND
  5
20A
100
AcDbEntity
  8
IMPORTED
  6
CONTINUOUS
 62
              30
  0
POLYLINE
  5
20C
100
AcDbEntity
  8
IMPORTED
  6
CONTINUOUS
 62
              30
100
AcDb2dPolyline
 66
               1
 10
0.0
 20
0.0
 30
0.0
 70
               1
 75
               5
  0
VERTEX
  5
20D
100
AcDbEntity
  8
IMPORTED
  6
CONTINUOUS
 62
              30
100
AcDbVertex
100
AcDb2dVertex
 10
-33.853319164909884
 20
1472.1026035276827
 30
0.0
  0
VERTEX
  5
20E
100
AcDbEntity
  8
IMPORTED
  6
CONTINUOUS
 62
              30
100
AcDbVertex
100
AcDb2dVertex
 10
-52.853319164909884
 20
1472.1026035276827
 30
0.0
  0
VERTEX
  5
20F
100
AcDbEntity
  8
IMPORTED
  6
CONTINUOUS
 62
              30
100
AcDbVertex
100
AcDb2dVertex
 10
-55.853319164909884
 20
1469.1026035276827
 30
0.0
  0
VERTEX
  5
210
100
AcDbEntity
  8
IMPORTED
  6
CONTINUOUS
 62
              30
100
AcDbVertex
100
AcDb2dVertex
 10
-55.853319164909884
 20
1330.1026035276827
 30
0.0
  0
VERTEX
  5
211
100
AcDbEntity
  8
IMPORTED
  6
CONTINUOUS
 62
              30
100
AcDbVertex
100
AcDb2dVertex
 10
-52.853319164909884
 20
1327.1026035276827
 30
0.0
  0
VERTEX
  5
212
100
AcDbEntity
  8
IMPORTED
  6
CONTINUOUS
 62
              30
100
AcDbVertex
100
AcDb2dVertex
 10
-33.853319164909884
 20
1327.1026035276827
 30
0.0
  0
VERTEX
  5
213
100
AcDbEntity
  8
IMPORTED
  6
CONTINUOUS
 62
              30
100
AcDbVertex
100
AcDb2dVertex
 10
-30.853319164909884
 20
1330.1026035276827
 30
0.0
  0
VERTEX
  5
214
100
AcDbEntity
  8
IMPORTED
  6
CONTINUOUS
 62
              30
100
AcDbVertex
100
AcDb2dVertex
 10
-30.853319164909884
 20
1469.1026035276827
 30
0.0
  0
SEQEND
  5
215
100
AcDbEntity
  8
IMPORTED
  6
CONTINUOUS
 62
              30
  0
LINE
  5
217
100
AcDbEntity
  8
IMPORTED
  6
CONTINUOUS
 62
              30
100
AcDbLine
 10
-55.853319164909884
 20
1634.1027035276827
 30
0.0
 11
-30.853319164909884
 21
1634.1026035276825
 31
0.0
  0
LINE
  5
218
100
AcDbEntity
  8
IMPORTED
  6
CONTINUOUS
 62
              30
100
AcDbLine
 10
-33.853319164909884
 20
1637.1026035276825
 30
0.0
 11
-33.853319164909884
 21
1492.1026035276827
 31
0.0
  0
LINE
  5
219
100
AcDbEntity
  8
IMPORTED
  6
CONTINUOUS
 62
              30
100
AcDbLine
 10
-30.853319164909884
 20
1495.1026035276827
 30
0.0
 11
-55.853319164909884
 21
1495.1026035276827
 31
0.0
  0
LINE
  5
21A
100
AcDbEntity
  8
IMPORTED
  6
CONTINUOUS
 62
              30
100
AcDbLine
 10
-52.853319164909884
 20
1492.1026035276827
 30
0.0
 11
-52.853419164909887
 21
1637.1026035276825
 31
0.0
  0
LINE
  5
21B
100
AcDbEntity
  8
IMPORTED
  6
CONTINUOUS
 62
              30
100
AcDbLine
 10
-55.853319164909884
 20
1330.1026035276827
 30
0.0
 11
-30.853319164909884
 21
1330.1026035276827
 31
0.0
  0
LINE
  5
21C
100
AcDbEntity
  8
IMPORTED
  6
CONTINUOUS
 62
              30
100
AcDbLine
 10
-55.853319164909884
 20
1469.1026035276827
 30
0.0
 11
-30.853319164909884
 21
1469.1026035276827
 31
0.0
  0
LINE
  5
21D
100
AcDbEntity
  8
IMPORTED
  6
CONTINUOUS
 62
              30
100
AcDbLine
 10
-33.853319164909884
 20
1472.1026035276827
 30
0.0
 11
-33.853319164909884
 21
1327.1026035276827
 31
0.0
  0
LINE
  5
21E
100
AcDbEntity
  8
IMPORTED
  6
CONTINUOUS
 62
              30
100
AcDbLine
 10
-52.853319164909884
 20
1327.1026035276827
 30
0.0
 11
-52.853319164909884
 21
1472.1026035276827
 31
0.0
  0
POLYLINE
  5
21F
100
AcDbEntity
  8
IMPORTED
  6
CONTINUOUS
 62
              30
100
AcDb2dPolyline
 66
               1
 10
0.0
 20
0.0
 30
0.0
 70
             129
  0
VERTEX
  5
220
100
AcDbEntity
  8
IMPORTED
  6
CONTINUOUS
 62
              30
100
AcDbVertex
100
AcDb2dVertex
 10
491.14658083509005
 20
1162.1026035276827
 30
0.0
  0
VERTEX
  5
221
100
AcDbEntity
  8
IMPORTED
  6
CONTINUOUS
 62
              30
100
AcDbVertex
100
AcDb2dVertex
 10
494.14658083509005
 20
1165.1026035276827
 30
0.0
  0
VERTEX
  5
222
100
AcDbEntity
  8
IMPORTED
  6
CONTINUOUS
 62
              30
100
AcDbVertex
100
AcDb2dVertex
 10
494.14658083509005
 20
1304.1026035276827
 30
0.0
  0
VERTEX
  5
223
100
AcDbEntity
  8
IMPORTED
  6
CONTINUOUS
 62
              30
100
AcDbVertex
100
AcDb2dVertex
 10
491.14658083509005
 20
1307.1026035276827
 30
0.0
  0
VERTEX
  5
224
100
AcDbEntity
  8
IMPORTED
  6
CONTINUOUS
 62
              30
100
AcDbVertex
100
AcDb2dVertex
 10
-362.99631916490989
 20
1307.1026035276827
 30
0.0
  0
VERTEX
  5
225
100
AcDbEntity
  8
IMPORTED
  6
CONTINUOUS
 62
              30
100
AcDbVertex
100
AcDb2dVertex
 10
-505.85341916490989
 20
1234.6026035276827
 30
0.0
  0
VERTEX
  5
226
100
AcDbEntity
  8
IMPORTED
  6
CONTINUOUS
 62
              30
100
AcDbVertex
100
AcDb2dVertex
 10
-362.99631916490989
 20
1162.1026035276827
 30
0.0
  0
SEQEND
  5
227
100
AcDbEntity
  8
IMPORTED
  6
CONTINUOUS
 62
              30
  0
POLYLINE
  5
228
100
AcDbEntity
  8
IMPORTED
  6
CONTINUOUS
 62
              30
100
AcDb2dPolyline
 66
               1
 10
0.0
 20
0.0
 30
0.0
 70
             129
  0
VERTEX
  5
229
100
AcDbEntity
  8
IMPORTED
  6
CONTINUOUS
 62
              30
100
AcDbVertex
100
AcDb2dVertex
 10
-402.85341916490989
 20
997.10260352768262
 30
0.0
  0
VERTEX
  5
22A
100
AcDbEntity
  8
IMPORTED
  6
CONTINUOUS
 62
              30
100
AcDbVertex
100
AcDb2dVertex
 10
-405.85341916490989
 20
1000.1026035276826
 30
0.0
  0
VERTEX
  5
22B
100
AcDbEntity
  8
IMPORTED
  6
CONTINUOUS
 62
              30
100
AcDbVertex
100
AcDb2dVertex
 10
-405.85341916490989
 20
1139.1026035276827
 30
0.0
  0
VERTEX
  5
22C
100
AcDbEntity
  8
IMPORTED
  6
CONTINUOUS
 62
              30
100
AcDbVertex
100
AcDb2dVertex
 10
-402.85341916490989
 20
1142.1026035276827
 30
0.0
  0
VERTEX
  5
22D
100
AcDbEntity
  8
IMPORTED
  6
CONTINUOUS
 62
              30
100
AcDbVertex
100
AcDb2dVertex
 10
451.28948083509005
 20
1142.1026035276827
 30
0.0
  0
VERTEX
  5
22E
100
AcDbEntity
  8
IMPORTED
  6
CONTINUOUS
 62
              30
100
AcDbVertex
100
AcDb2dVertex
 10
594.14658083509005
 20
1069.6026035276827
 30
0.0
  0
VERTEX
  5
22F
100
AcDbEntity
  8
IMPORTED
  6
CONTINUOUS
 62
              30
100
AcDbVertex
100
AcDb2dVertex
 10
451.28948083509005
 20
997.10260352768262
 30
0.0
  0
SEQEND
  5
230
100
AcDbEntity
  8
IMPORTED
  6
CONTINUOUS
 62
              30
  0
LINE
  5
231
100
AcDbEntity
  8
IMPORTED
  6
CONTINUOUS
 62
              30
100
AcDbLine
 10
-30.853419164909887
 20
1142.1026035276827
 30
0.0
 11
-30.853419164909887
 21
1162.1026035276827
 31
0.0
  0
LINE
  5
232
100
AcDbEntity
  8
IMPORTED
  6
CONTINUOUS
 62
              30
100
AcDbLine
 10
-25.853419164909887
 20
1142.1026035276827
 30
0.0
 11
-25.853419164909887
 21
1162.1026035276827
 31
0.0
  0
LINE
  5
233
100
AcDbEntity
  8
IMPORTED
  6
CONTINUOUS
 62
              30
100
AcDbLine
 10
119.14658083509011
 20
1162.1026035276827
 30
0.0
 11
119.14658083509011
 21
1142.1026035276827
 31
0.0
  0
LINE
  5
234
100
AcDbEntity
  8
IMPORTED
  6
CONTINUOUS
 62
              30
100
AcDbLine
 10
114.14658083509011
 20
1162.1026035276827
 30
0.0
 11
114.14658083509011
 21
1142.1026035276827
 31
0.0
  0
LINE
  5
235
100
AcDbEntity
  8
IMPORTED
  6
STYLE_05
 62
              30
100
AcDbLine
 10
-30.853419164909887
 20
1307.1026035276827
 30
0.0
 11
-30.853419164909887
 21
1162.1026035276827
 31
0.0
  0
LINE
  5
236
100
AcDbEntity
  8
IMPORTED
  6
STYLE_05
 62
              30
100
AcDbLine
 10
-25.853419164909887
 20
1307.1026035276827
 30
0.0
 11
-25.853419164909887
 21
1162.1026035276827
 31
0.0
  0
LINE
  5
237
100
AcDbEntity
  8
IMPORTED
  6
STYLE_05
 62
              30
100
AcDbLine
 10
119.14658083509011
 20
1307.1026035276827
 30
0.0
 11
119.14658083509011
 21
1162.1026035276827
 31
0.0
  0
LINE
  5
238
100
AcDbEntity
  8
IMPORTED
  6
STYLE_05
 62
              30
100
AcDbLine
 10
114.14658083509011
 20
1307.1026035276827
 30
0.0
 11
114.14658083509011
 21
1162.1026035276827
 31
0.0
  0
LINE
  5
239
100
AcDbEntity
  8
IMPORTED
  6
STYLE_05
 62
              30
100
AcDbLine
 10
-25.853419164909887
 20
1142.1026035276827
 30
0.0
 11
-25.853419164909887
 21
997.10260352768262
 31
0.0
  0
LINE
  5
23A
100
AcDbEntity
  8
IMPORTED
  6
STYLE_05
 62
              30
100
AcDbLine
 10
-30.853419164909887
 20
1142.1026035276827
 30
0.0
 11
-30.853419164909887
 21
997.10260352768262
 31
0.0
  0
LINE
  5
23B
100
AcDbEntity
  8
IMPORTED
  6
STYLE_05
 62
              30
100
AcDbLine
 10
119.14658083509011
 20
1142.1026035276827
 30
0.0
 11
119.14658083509011
 21
997.10260352768262
 31
0.0
  0
LINE
  5
23C
100
AcDbEntity
  8
IMPORTED
  6
STYLE_05
 62
              30
100
AcDbLine
 10
114.14658083509011
 20
1142.1026035276827
 30
0.0
 11
114.14658083509011
 21
997.10260352768262
 31
0.0
  0
LINE
  5
23D
100
AcDbEntity
  8
IMPORTED
  6
CONTINUOUS
 62
              30
100
AcDbLine
 10
491.14658083509005
 20
1307.1026035276827
 30
0.0
 11
491.14658083509005
 21
1162.1026035276827
 31
0.0
  0
LINE
  5
23E
100
AcDbEntity
  8
IMPORTED
  6
CONTINUOUS
 62
              30
100
AcDbLine
 10
494.14658083509005
 20
1165.1026035276827
 30
0.0
 11
-362.90761916490987
 21
1165.1026035276827
 31
0.0
  0
LINE
  5
23F
100
AcDbEntity
  8
IMPORTED
  6
CONTINUOUS
 62
              30
100
AcDbLine
 10
-499.85341916490989
 20
1234.6026035276827
 30
0.0
 11
-362.90761916490987
 21
1165.1026035276827
 31
0.0
  0
LINE
  5
240
100
AcDbEntity
  8
IMPORTED
  6
CONTINUOUS
 62
              30
100
AcDbLine
 10
494.14658083509005
 20
1304.1026035276827
 30
0.0
 11
-362.90761916490987
 21
1304.1026035276827
 31
0.0
  0
LINE
  5
241
100
AcDbEntity
  8
IMPORTED
  6
CONTINUOUS
 62
              30
100
AcDbLine
 10
-499.85341916490989
 20
1234.6026035276827
 30
0.0
 11
-362.90761916490987
 21
1304.1026035276827
 31
0.0
  0
LINE
  5
242
100
AcDbEntity
  8
IMPORTED
  6
CONTINUOUS
 62
              30
100
AcDbLine
 10
-405.85341916490989
 20
1139.1026035276827
 30
0.0
 11
451.20078083509003
 21
1139.1026035276827
 31
0.0
  0
LINE
  5
243
100
AcDbEntity
  8
IMPORTED
  6
CONTINUOUS
 62
              30
100
AcDbLine
 10
-402.85341916490989
 20
1142.1026035276827
 30
0.0
 11
-402.85341916490989
 21
997.10260352768262
 31
0.0
  0
LINE
  5
244
100
AcDbEntity
  8
IMPORTED
  6
CONTINUOUS
 62
              30
100
AcDbLine
 10
-405.85341916490989
 20
1000.1026035276826
 30
0.0
 11
451.20078083509003
 21
1000.1026035276826
 31
0.0
  0
LINE
  5
245
100
AcDbEntity
  8
IMPORTED
  6
CONTINUOUS
 62
              30
100
AcDbLine
 10
451.20078083509003
 20
1000.1026035276826
 30
0.0
 11
588.14658083509005
 21
1069.6026035276827
 31
0.0
  0
LINE
  5
246
100
AcDbEntity
  8
IMPORTED
  6
CONTINUOUS
 62
              30
100
AcDbLine
 10
451.20078083509003
 20
1139.1026035276827
 30
0.0
 11
588.14658083509005
 21
1069.6026035276827
 31
0.0
  0
LINE
  5
247
100
AcDbEntity
  8
IMPORTED
  6
CONTINUOUS
 62
              30
100
AcDbLine
 10
-25.853319164909884
 20
1142.1026035276827
 30
0.0
 11
-25.853319164909884
 21
1162.1026035276827
 31
0.0
  0
LINE
  5
248
100
AcDbEntity
  8
IMPORTED
  6
CONTINUOUS
 62
              30
100
AcDbLine
 10
-30.853319164909884
 20
1142.1026035276827
 30
0.0
 11
-30.853319164909884
 21
1162.1026035276827
 31
0.0
  0
LINE
  5
249
100
AcDbEntity
  8
IMPORTED
  6
CONTINUOUS
 62
              30
100
AcDbLine
 10
114.14658083509011
 20
1162.1026035276827
 30
0.0
 11
114.14658083509011
 21
1142.1026035276827
 31
0.0
  0
LINE
  5
24A
100
AcDbEntity
  8
IMPORTED
  6
CONTINUOUS
 62
              30
100
AcDbLine
 10
119.14658083509011
 20
1162.1026035276827
 30
0.0
 11
119.14658083509011
 21
1142.1026035276827
 31
0.0
  0
POLYLINE
  5
24B
100
AcDbEntity
  8
IMPORTED
  6
STYLE_05
 62
              30
100
AcDb2dPolyline
 66
               1
 10
0.0
 20
0.0
 30
0.0
 70
             129
  0
VERTEX
  5
24C
100
AcDbEntity
  8
IMPORTED
  6
STYLE_05
 62
              30
100
AcDbVertex
100
AcDb2dVertex
 10
2074.9999808350899
 20
-534.99999647231721
 30
0.0
  0
VERTEX
  5
24D
100
AcDbEntity
  8
IMPORTED
  6
STYLE_05
 62
              30
100
AcDbVertex
100
AcDb2dVertex
 10
2674.9999808350899
 20
-534.99999647231721
 30
0.0
  0
VERTEX
  5
24E
100
AcDbEntity
  8
IMPORTED
  6
STYLE_05
 62
              30
100
AcDbVertex
100
AcDb2dVertex
 10
2674.9999808350899
 20
-1134.9999964723172
 30
0.0
  0
VERTEX
  5
24F
100
AcDbEntity
  8
IMPORTED
  6
STYLE_05
 62
              30
100
AcDbVertex
100
AcDb2dVertex
 10
2074.9999808350899
 20
-1134.9999964723172
 30
0.0
  0
VERTEX
  5
250
100
AcDbEntity
  8
IMPORTED
  6
STYLE_05
 62
              30
100
AcDbVertex
100
AcDb2dVertex
 10
2074.9999808350899
 20
-534.99999647231721
 30
0.0
  0
SEQEND
  5
251
100
AcDbEntity
  8
IMPORTED
  6
STYLE_05
 62
              30
  0
POLYLINE
  5
252
100
AcDbEntity
  8
IMPORTED
  6
STYLE_05
 62
              30
100
AcDb2dPolyline
 66
               1
 10
0.0
 20
0.0
 30
0.0
 70
             129
  0
VERTEX
  5
253
100
AcDbEntity
  8
IMPORTED
  6
STYLE_05
 62
              30
100
AcDbVertex
100
AcDb2dVertex
 10
2124.9999808350899
 20
-584.99999647231721
 30
0.0
  0
VERTEX
  5
254
100
AcDbEntity
  8
IMPORTED
  6
STYLE_05
 62
              30
100
AcDbVertex
100
AcDb2dVertex
 10
2624.9999808350899
 20
-584.99999647231721
 30
0.0
  0
VERTEX
  5
255
100
AcDbEntity
  8
IMPORTED
  6
STYLE_05
 62
              30
100
AcDbVertex
100
AcDb2dVertex
 10
2624.9999808350899
 20
-1084.9999964723172
 30
0.0
  0
VERTEX
  5
256
100
AcDbEntity
  8
IMPORTED
  6
STYLE_05
 62
              30
100
AcDbVertex
100
AcDb2dVertex
 10
2124.9999808350899
 20
-1084.9999964723172
 30
0.0
  0
VERTEX
  5
257
100
AcDbEntity
  8
IMPORTED
  6
STYLE_05
 62
              30
100
AcDbVertex
100
AcDb2dVertex
 10
2124.9999808350899
 20
-584.99999647231721
 30
0.0
  0
SEQEND
  5
258
100
AcDbEntity
  8
IMPORTED
  6
STYLE_05
 62
              30
  0
MTEXT
  5
259
100
AcDbEntity
  8
IMPORTED
 62
              30
100
AcDbMText
 10
-80.962619054389734
 20
-1585.3080866563816
 30
0.0
 40
65.153671484374996
 41
0.0
 71
               1
 72
               1
  1
側面図
  7
_______
  0
POLYLINE
  5
25A
100
AcDbEntity
  8
IMPORTED
  6
CONTINUOUS
 62
              30
100
AcDb2dPolyline
 66
               1
 10
0.0
 20
0.0
 30
0.0
 70
             129
  0
VERTEX
  5
25B
100
AcDbEntity
  8
IMPORTED
  6
CONTINUOUS
 62
              30
100
AcDbVertex
100
AcDb2dVertex
 10
-150.00001916490987
 20
-1563.004296472317
 30
0.0
  0
VERTEX
  5
25C
100
AcDbEntity
  8
IMPORTED
  6
CONTINUOUS
 62
              30
100
AcDbVertex
100
AcDb2dVertex
 10
249.9999808350901
 20
-1563.004296472317
 30
0.0
  0
VERTEX
  5
25D
100
AcDbEntity
  8
IMPORTED
  6
CONTINUOUS
 62
              30
100
AcDbVertex
100
AcDb2dVertex
 10
249.9999808350901
 20
-1673.004296472317
 30
0.0
  0
VERTEX
  5
25E
100
AcDbEntity
  8
IMPORTED
  6
CONTINUOUS
 62
              30
100
AcDbVertex
100
AcDb2dVertex
 10
-150.00001916490987
 20
-1673.004296472317
 30
0.0
  0
VERTEX
  5
25F
100
AcDbEntity
  8
IMPORTED
  6
CONTINUOUS
 62
              30
100
AcDbVertex
100
AcDb2dVertex
 10
-150.00001916490987
 20
-1563.004296472317
 30
0.0
  0
SEQEND
  5
260
100
AcDbEntity
  8
IMPORTED
  6
CONTINUOUS
 62
              30
  0
MTEXT
  5
261
100
AcDbEntity
  8
IMPORTED
 62
              30
100
AcDbMText
 10
-2260.96261905439
 20
-1585.3080866563816
 30
0.0
 40
65.153671484374996
 41
0.0
 71
               1
 72
               1
  1
正面図
  7
_______
  0
POLYLINE
  5
262
100
AcDbEntity
  8
IMPORTED
  6
CONTINUOUS
 62
              30
100
AcDb2dPolyline
 66
               1
 10
0.0
 20
0.0
 30
0.0
 70
             129
  0
VERTEX
  5
263
100
AcDbEntity
  8
IMPORTED
  6
CONTINUOUS
 62
              30
100
AcDbVertex
100
AcDb2dVertex
 10
-2329.9999191649099
 20
-1563.004296472317
 30
0.0
  0
VERTEX
  5
264
100
AcDbEntity
  8
IMPORTED
  6
CONTINUOUS
 62
              30
100
AcDbVertex
100
AcDb2dVertex
 10
-1929.9999191649097
 20
-1563.004296472317
 30
0.0
  0
VERTEX
  5
265
100
AcDbEntity
  8
IMPORTED
  6
CONTINUOUS
 62
              30
100
AcDbVertex
100
AcDb2dVertex
 10
-1929.9999191649097
 20
-1673.004296472317
 30
0.0
  0
VERTEX
  5
266
100
AcDbEntity
  8
IMPORTED
  6
CONTINUOUS
 62
              30
100
AcDbVertex
100
AcDb2dVertex
 10
-2329.9999191649099
 20
-1673.004296472317
 30
0.0
  0
VERTEX
  5
267
100
AcDbEntity
  8
IMPORTED
  6
CONTINUOUS
 62
              30
100
AcDbVertex
100
AcDb2dVertex
 10
-2329.9999191649099
 20
-1563.004296472317
 30
0.0
  0
SEQEND
  5
268
100
AcDbEntity
  8
IMPORTED
  6
CONTINUOUS
 62
              30
  0
MTEXT
  5
269
100
AcDbEntity
  8
IMPORTED
 62
              30
100
AcDbMText
 10
2252.9981808350899
 20
-1588.5584866563818
 30
0.0
 40
65.153671484374996
 41
0.0
 71
               1
 72
               1
  1
平面図
  7
_______
  0
POLYLINE
  5
26A
100
AcDbEntity
  8
IMPORTED
  6
CONTINUOUS
 62
              30
100
AcDb2dPolyline
 66
               1
 10
0.0
 20
0.0
 30
0.0
 70
             129
  0
VERTEX
  5
26B
100
AcDbEntity
  8
IMPORTED
  6
CONTINUOUS
 62
              30
100
AcDbVertex
100
AcDb2dVertex
 10
2179.9999808350899
 20
-1566.2546964723172
 30
0.0
  0
VERTEX
  5
26C
100
AcDbEntity
  8
IMPORTED
  6
CONTINUOUS
 62
              30
100
AcDbVertex
100
AcDb2dVertex
 10
2579.9999808350899
 20
-1566.2546964723172
 30
0.0
  0
VERTEX
  5
26D
100
AcDbEntity
  8
IMPORTED
  6
CONTINUOUS
 62
              30
100
AcDbVertex
100
AcDb2dVertex
 10
2579.9999808350899
 20
-1676.2546964723172
 30
0.0
  0
VERTEX
  5
26E
100
AcDbEntity
  8
IMPORTED
  6
CONTINUOUS
 62
              30
100
AcDbVertex
100
AcDb2dVertex
 10
2179.9999808350899
 20
-1676.2546964723172
 30
0.0
  0
VERTEX
  5
26F
100
AcDbEntity
  8
IMPORTED
  6
CONTINUOUS
 62
              30
100
AcDbVertex
100
AcDb2dVertex
 10
2179.9999808350899
 20
-1566.2546964723172
 30
0.0
  0
SEQEND
  5
270
100
AcDbEntity
  8
IMPORTED
  6
CONTINUOUS
 62
              30
  0
LINE
  5
271
100
AcDbEntity
  8
IMPORTED
  6
CONTINUOUS
 62
              30
100
AcDbLine
 10
694.14658083509005
 20
-362.89729647231729
 30
0.0
 11
-625.85341916490984
 21
-362.89729647231729
 31
0.0
  0
POLYLINE
  5
272
100
AcDbEntity
  8
IMPORTED
  6
CONTINUOUS
 62
              30
100
AcDb2dPolyline
 66
               1
 10
0.0
 20
0.0
 30
0.0
 70
             129
  0
VERTEX
  5
273
100
AcDbEntity
  8
IMPORTED
  6
CONTINUOUS
 62
              30
100
AcDbVertex
100
AcDb2dVertex
 10
-2445.8533191649099
 20
-962.89729647231718
 30
0.0
  0
VERTEX
  5
274
100
AcDbEntity
  8
IMPORTED
  6
CONTINUOUS
 62
              30
100
AcDbVertex
100
AcDb2dVertex
 10
-1845.8533191649096
 20
-962.89729647231718
 30
0.0
  0
VERTEX
  5
275
100
AcDbEntity
  8
IMPORTED
  6
CONTINUOUS
 62
              30
100
AcDbVertex
100
AcDb2dVertex
 10
-1845.8533191649096
 20
-1062.8972964723171
 30
0.0
  0
VERTEX
  5
276
100
AcDbEntity
  8
IMPORTED
  6
CONTINUOUS
 62
              30
100
AcDbVertex
100
AcDb2dVertex
 10
-2445.8533191649099
 20
-1062.8972964723171
 30
0.0
  0
VERTEX
  5
277
100
AcDbEntity
  8
IMPORTED
  6
CONTINUOUS
 62
              30
100
AcDbVertex
100
AcDb2dVertex
 10
-2445.8533191649099
 20
-962.89729647231718
 30
0.0
  0
SEQEND
  5
278
100
AcDbEntity
  8
IMPORTED
  6
CONTINUOUS
 62
              30
  0
POLYLINE
  5
279
100
AcDbEntity
  8
IMPORTED
  6
CONTINUOUS
 62
              30
100
AcDb2dPolyline
 66
               1
 10
0.0
 20
0.0
 30
0.0
 70
             129
  0
VERTEX
  5
27A
100
AcDbEntity
  8
IMPORTED
  6
CONTINUOUS
 62
              30
100
AcDbVertex
100
AcDb2dVertex
 10
-2445.8533191649099
 20
-1062.8972964723171
 30
0.0
  0
VERTEX
  5
27B
100
AcDbEntity
  8
IMPORTED
  6
CONTINUOUS
 62
              30
100
AcDbVertex
100
AcDb2dVertex
 10
-1845.8533191649096
 20
-1062.8972964723171
 30
0.0
  0
VERTEX
  5
27C
100
AcDbEntity
  8
IMPORTED
  6
CONTINUOUS
 62
              30
100
AcDbVertex
100
AcDb2dVertex
 10
-1845.8533191649096
 20
-1162.8972964723171
 30
0.0
  0
VERTEX
  5
27D
100
AcDbEntity
  8
IMPORTED
  6
CONTINUOUS
 62
              30
100
AcDbVertex
100
AcDb2dVertex
 10
-2445.8533191649099
 20
-1162.8972964723171
 30
0.0
  0
VERTEX
  5
27E
100
AcDbEntity
  8
IMPORTED
  6
CONTINUOUS
 62
              30
100
AcDbVertex
100
AcDb2dVertex
 10
-2445.8533191649099
 20
-1062.8972964723171
 30
0.0
  0
SEQEND
  5
27F
100
AcDbEntity
  8
IMPORTED
  6
CONTINUOUS
 62
              30
  0
POLYLINE
  5
280
100
AcDbEntity
  8
IMPORTED
  6
CONTINUOUS
 62
              30
100
AcDb2dPolyline
 66
               1
 10
0.0
 20
0.0
 30
0.0
 70
             129
  0
VERTEX
  5
281
100
AcDbEntity
  8
IMPORTED
  6
CONTINUOUS
 62
              30
100
AcDbVertex
100
AcDb2dVertex
 10
-2395.8533191649099
 20
-462.89729647231724
 30
0.0
  0
VERTEX
  5
282
100
AcDbEntity
  8
IMPORTED
  6
CONTINUOUS
 62
              30
100
AcDbVertex
100
AcDb2dVertex
 10
-1895.8533191649096
 20
-462.89729647231724
 30
0.0
  0
VERTEX
  5
283
100
AcDbEntity
  8
IMPORTED
  6
CONTINUOUS
 62
              30
100
AcDbVertex
100
AcDb2dVertex
 10
-1895.8533191649096
 20
-962.89729647231718
 30
0.0
  0
VERTEX
  5
284
100
AcDbEntity
  8
IMPORTED
  6
CONTINUOUS
 62
              30
100
AcDbVertex
100
AcDb2dVertex
 10
-2395.8533191649099
 20
-962.89729647231718
 30
0.0
  0
VERTEX
  5
285
100
AcDbEntity
  8
IMPORTED
  6
CONTINUOUS
 62
              30
100
AcDbVertex
100
AcDb2dVertex
 10
-2395.8533191649099
 20
-462.89729647231724
 30
0.0
  0
SEQEND
  5
286
100
AcDbEntity
  8
IMPORTED
  6
CONTINUOUS
 62
              30
  0
LINE
  5
287
100
AcDbEntity
  8
IMPORTED
  6
CONTINUOUS
 62
              30
100
AcDbLine
 10
-1799.8533191649096
 20
-362.89729647231729
 30
0.0
 11
-2605.8533191649099
 21
-362.89729647231729
 31
0.0
  0
MTEXT
  5
288
100
AcDbEntity
  8
IMPORTED
 62
              30
100
AcDbMText
 10
-2525.60291916491
 20
-288.22367340981725
 30
0.0
 40
54.2947390625
 41
0.0
 71
               1
 72
               1
  1
▽GL
  7
_______
  0
LINE
  5
289
100
AcDbEntity
  8
IMPORTED
  6
CONTINUOUS
 62
              30
100
AcDbLine
 10
-1895.8533191649096
 20
-539.60849647231714
 30
0.0
 11
-2319.1421191649097
 21
-962.89729647231718
 31
0.0
  0
LINE
  5
28A
100
AcDbEntity
  8
IMPORTED
  6
CONTINUOUS
 62
              30
100
AcDbLine
 10
-1895.8533191649096
 20
-553.75069647231714
 30
0.0
 11
-2304.9999191649099
 21
-962.89729647231718
 31
0.0
  0
LINE
  5
28B
100
AcDbEntity
  8
IMPORTED
  6
CONTINUOUS
 62
              30
100
AcDbLine
 10
-1895.8533191649096
 20
-525.46629647231714
 30
0.0
 11
-2333.2843191649099
 21
-962.89729647231718
 31
0.0
  0
LINE
  5
28C
100
AcDbEntity
  8
IMPORTED
  6
CONTINUOUS
 62
              30
100
AcDbLine
 10
-1895.8533191649096
 20
-703.75069647231714
 30
0.0
 11
-2154.9999191649099
 21
-962.89729647231718
 31
0.0
  0
LINE
  5
28D
100
AcDbEntity
  8
IMPORTED
  6
CONTINUOUS
 62
              30
100
AcDbLine
 10
-1895.8533191649096
 20
-689.60849647231714
 30
0.0
 11
-2169.1421191649097
 21
-962.89729647231718
 31
0.0
  0
LINE
  5
28E
100
AcDbEntity
  8
IMPORTED
  6
CONTINUOUS
 62
              30
100
AcDbLine
 10
-1895.8533191649096
 20
-675.46629647231714
 30
0.0
 11
-2183.2843191649099
 21
-962.89729647231718
 31
0.0
  0
LINE
  5
28F
100
AcDbEntity
  8
IMPORTED
  6
CONTINUOUS
 62
              30
100
AcDbLine
 10
-1895.8533191649096
 20
-853.75069647231714
 30
0.0
 11
-2004.9999191649097
 21
-962.89729647231718
 31
0.0
  0
LINE
  5
290
100
AcDbEntity
  8
IMPORTED
  6
CONTINUOUS
 62
              30
100
AcDbLine
 10
-1895.8533191649096
 20
-839.60849647231714
 30
0.0
 11
-2019.1421191649097
 21
-962.89729647231718
 31
0.0
  0
LINE
  5
291
100
AcDbEntity
  8
IMPORTED
  6
CONTINUOUS
 62
              30
100
AcDbLine
 10
-1895.8533191649096
 20
-825.46629647231714
 30
0.0
 11
-2033.2843191649097
 21
-962.89729647231718
 31
0.0
  0
LINE
  5
292
100
AcDbEntity
  8
IMPORTED
  6
CONTINUOUS
 62
              30
100
AcDbLine
 10
-1954.9999191649097
 20
-462.89729647231724
 30
0.0
 11
-2395.8533191649099
 21
-903.75069647231714
 31
0.0
  0
LINE
  5
293
100
AcDbEntity
  8
IMPORTED
  6
CONTINUOUS
 62
              30
100
AcDbLine
 10
-1969.1421191649097
 20
-462.89729647231724
 30
0.0
 11
-2395.8533191649099
 21
-889.60849647231714
 31
0.0
  0
LINE
  5
294
100
AcDbEntity
  8
IMPORTED
  6
CONTINUOUS
 62
              30
100
AcDbLine
 10
-1983.2843191649097
 20
-462.89729647231724
 30
0.0
 11
-2395.8533191649099
 21
-875.46629647231714
 31
0.0
  0
LINE
  5
295
100
AcDbEntity
  8
IMPORTED
  6
CONTINUOUS
 62
              30
100
AcDbLine
 10
-2104.9999191649099
 20
-462.89729647231724
 30
0.0
 11
-2395.8533191649099
 21
-753.75069647231714
 31
0.0
  0
LINE
  5
296
100
AcDbEntity
  8
IMPORTED
  6
CONTINUOUS
 62
              30
100
AcDbLine
 10
-2119.1421191649097
 20
-462.89729647231724
 30
0.0
 11
-2395.8533191649099
 21
-739.60849647231714
 31
0.0
  0
LINE
  5
297
100
AcDbEntity
  8
IMPORTED
  6
CONTINUOUS
 62
              30
100
AcDbLine
 10
-2133.2843191649099
 20
-462.89729647231724
 30
0.0
 11
-2395.8533191649099
 21
-725.46629647231714
 31
0.0
  0
LINE
  5
298
100
AcDbEntity
  8
IMPORTED
  6
CONTINUOUS
 62
              30
100
AcDbLine
 10
-2254.9999191649099
 20
-462.89729647231724
 30
0.0
 11
-2395.8533191649099
 21
-603.75069647231714
 31
0.0
  0
LINE
  5
299
100
AcDbEntity
  8
IMPORTED
  6
CONTINUOUS
 62
              30
100
AcDbLine
 10
-2283.2843191649099
 20
-462.89729647231724
 30
0.0
 11
-2395.8533191649099
 21
-575.46629647231714
 31
0.0
  0
LINE
  5
29A
100
AcDbEntity
  8
IMPORTED
  6
CONTINUOUS
 62
              30
100
AcDbLine
 10
-2269.1421191649097
 20
-462.89729647231724
 30
0.0
 11
-2395.8533191649099
 21
-589.60849647231714
 31
0.0
  0
LINE
  5
29B
100
AcDbEntity
  8
IMPORTED
  6
CONTINUOUS
 62
              30
100
AcDbLine
 10
-1965.8533191649096
 20
-962.89729647231718
 30
0.0
 11
-1865.8533191649096
 21
-1062.8972964723171
 31
0.0
  0
LINE
  5
29C
100
AcDbEntity
  8
IMPORTED
  6
CONTINUOUS
 62
              30
100
AcDbLine
 10
-1979.9955191649096
 20
-962.89729647231718
 30
0.0
 11
-1879.9955191649096
 21
-1062.8972964723171
 31
0.0
  0
LINE
  5
29D
100
AcDbEntity
  8
IMPORTED
  6
CONTINUOUS
 62
              30
100
AcDbLine
 10
-2115.8533191649099
 20
-962.89729647231718
 30
0.0
 11
-2015.8533191649096
 21
-1062.8972964723171
 31
0.0
  0
LINE
  5
29E
100
AcDbEntity
  8
IMPORTED
  6
CONTINUOUS
 62
              30
100
AcDbLine
 10
-2129.9955191649101
 20
-962.89729647231718
 30
0.0
 11
-2029.9955191649096
 21
-1062.8972964723171
 31
0.0
  0
LINE
  5
29F
100
AcDbEntity
  8
IMPORTED
  6
CONTINUOUS
 62
              30
100
AcDbLine
 10
-2265.8533191649099
 20
-962.89729647231718
 30
0.0
 11
-2165.8533191649099
 21
-1062.8972964723171
 31
0.0
  0
LINE
  5
2A0
100
AcDbEntity
  8
IMPORTED
  6
CONTINUOUS
 62
              30
100
AcDbLine
 10
-2279.9955191649101
 20
-962.89729647231718
 30
0.0
 11
-2179.9955191649101
 21
-1062.8972964723171
 31
0.0
  0
LINE
  5
2A1
100
AcDbEntity
  8
IMPORTED
  6
CONTINUOUS
 62
              30
100
AcDbLine
 10
-2415.8533191649099
 20
-962.89729647231718
 30
0.0
 11
-2315.8533191649099
 21
-1062.8972964723171
 31
0.0
  0
LINE
  5
2A2
100
AcDbEntity
  8
IMPORTED
  6
CONTINUOUS
 62
              30
100
AcDbLine
 10
-2429.9955191649101
 20
-962.89729647231718
 30
0.0
 11
-2329.9955191649101
 21
-1062.8972964723171
 31
0.0
  0
LINE
  5
2A3
100
AcDbEntity
  8
IMPORTED
  6
CONTINUOUS
 62
              30
100
AcDbLine
 10
-1862.9858191649098
 20
-1162.8972964723171
 30
0.0
 11
-1920.7208191649097
 21
-1062.8972964723171
 31
0.0
  0
LINE
  5
2A4
100
AcDbEntity
  8
IMPORTED
  6
CONTINUOUS
 62
              30
100
AcDbLine
 10
-1906.2871191649097
 20
-1087.8972964723171
 30
0.0
 11
-1891.8533191649096
 21
-1062.8972964723171
 31
0.0
  0
LINE
  5
2A5
100
AcDbEntity
  8
IMPORTED
  6
CONTINUOUS
 62
              30
100
AcDbLine
 10
-1877.4196191649096
 20
-1137.8971964723171
 30
0.0
 11
-1891.8534191649096
 21
-1162.8971964723171
 31
0.0
  0
LINE
  5
2A6
100
AcDbEntity
  8
IMPORTED
  6
CONTINUOUS
 62
              30
100
AcDbLine
 10
-1946.9858191649096
 20
-1162.8972964723171
 30
0.0
 11
-2004.7208191649097
 21
-1062.8972964723171
 31
0.0
  0
LINE
  5
2A7
100
AcDbEntity
  8
IMPORTED
  6
CONTINUOUS
 62
              30
100
AcDbLine
 10
-1990.2871191649097
 20
-1087.8972964723171
 30
0.0
 11
-1975.8533191649096
 21
-1062.8972964723171
 31
0.0
  0
LINE
  5
2A8
100
AcDbEntity
  8
IMPORTED
  6
CONTINUOUS
 62
              30
100
AcDbLine
 10
-1961.4196191649096
 20
-1137.8971964723171
 30
0.0
 11
-1975.8534191649096
 21
-1162.8971964723171
 31
0.0
  0
LINE
  5
2A9
100
AcDbEntity
  8
IMPORTED
  6
CONTINUOUS
 62
              30
100
AcDbLine
 10
-2030.9858191649096
 20
-1162.8972964723171
 30
0.0
 11
-2088.7208191649097
 21
-1062.8972964723171
 31
0.0
  0
LINE
  5
2AA
100
AcDbEntity
  8
IMPORTED
  6
CONTINUOUS
 62
              30
100
AcDbLine
 10
-2074.2871191649101
 20
-1087.8972964723171
 30
0.0
 11
-2059.8533191649099
 21
-1062.8972964723171
 31
0.0
  0
LINE
  5
2AB
100
AcDbEntity
  8
IMPORTED
  6
CONTINUOUS
 62
              30
100
AcDbLine
 10
-2045.4196191649096
 20
-1137.8971964723171
 30
0.0
 11
-2059.8534191649101
 21
-1162.8971964723171
 31
0.0
  0
LINE
  5
2AC
100
AcDbEntity
  8
IMPORTED
  6
CONTINUOUS
 62
              30
100
AcDbLine
 10
-2114.98581916491
 20
-1162.8972964723171
 30
0.0
 11
-2172.7208191649097
 21
-1062.8972964723171
 31
0.0
  0
LINE
  5
2AD
100
AcDbEntity
  8
IMPORTED
  6
CONTINUOUS
 62
              30
100
AcDbLine
 10
-2158.2871191649101
 20
-1087.8972964723171
 30
0.0
 11
-2143.8533191649099
 21
-1062.8972964723171
 31
0.0
  0
LINE
  5
2AE
100
AcDbEntity
  8
IMPORTED
  6
CONTINUOUS
 62
              30
100
AcDbLine
 10
-2129.4196191649098
 20
-1137.8971964723171
 30
0.0
 11
-2143.8534191649101
 21
-1162.8971964723171
 31
0.0
  0
LINE
  5
2AF
100
AcDbEntity
  8
IMPORTED
  6
CONTINUOUS
 62
              30
100
AcDbLine
 10
-2198.98581916491
 20
-1162.8972964723171
 30
0.0
 11
-2256.7208191649097
 21
-1062.8972964723171
 31
0.0
  0
LINE
  5
2B0
100
AcDbEntity
  8
IMPORTED
  6
CONTINUOUS
 62
              30
100
AcDbLine
 10
-2242.2871191649101
 20
-1087.8972964723171
 30
0.0
 11
-2227.8533191649099
 21
-1062.8972964723171
 31
0.0
  0
LINE
  5
2B1
100
AcDbEntity
  8
IMPORTED
  6
CONTINUOUS
 62
              30
100
AcDbLine
 10
-2213.4196191649098
 20
-1137.8971964723171
 30
0.0
 11
-2227.8534191649101
 21
-1162.8971964723171
 31
0.0
  0
LINE
  5
2B2
100
AcDbEntity
  8
IMPORTED
  6
CONTINUOUS
 62
              30
100
AcDbLine
 10
-2282.98581916491
 20
-1162.8972964723171
 30
0.0
 11
-2340.7208191649097
 21
-1062.8972964723171
 31
0.0
  0
LINE
  5
2B3
100
AcDbEntity
  8
IMPORTED
  6
CONTINUOUS
 62
              30
100
AcDbLine
 10
-2326.2871191649097
 20
-1087.8972964723171
 30
0.0
 11
-2311.8533191649099
 21
-1062.8972964723171
 31
0.0
  0
LINE
  5
2B4
100
AcDbEntity
  8
IMPORTED
  6
CONTINUOUS
 62
              30
100
AcDbLine
 10
-2297.4196191649098
 20
-1137.8971964723171
 30
0.0
 11
-2311.8534191649101
 21
-1162.8971964723171
 31
0.0
  0
LINE
  5
2B5
100
AcDbEntity
  8
IMPORTED
  6
CONTINUOUS
 62
              30
100
AcDbLine
 10
-2366.98581916491
 20
-1162.8972964723171
 30
0.0
 11
-2424.7208191649097
 21
-1062.8972964723171
 31
0.0
  0
LINE
  5
2B6
100
AcDbEntity
  8
IMPORTED
  6
CONTINUOUS
 62
              30
100
AcDbLine
 10
-2410.2871191649097
 20
-1087.8972964723171
 30
0.0
 11
-2395.8533191649099
 21
-1062.8972964723171
 31
0.0
  0
LINE
  5
2B7
100
AcDbEntity
  8
IMPORTED
  6
CONTINUOUS
 62
              30
100
AcDbLine
 10
-2381.4196191649098
 20
-1137.8971964723171
 30
0.0
 11
-2395.8534191649101
 21
-1162.8971964723171
 31
0.0
  0
POLYLINE
  5
2B8
100
AcDbEntity
  8
IMPORTED
  6
CONTINUOUS
 62
              30
100
AcDb2dPolyline
 66
               1
 10
0.0
 20
0.0
 30
0.0
 70
             129
  0
VERTEX
  5
2B9
100
AcDbEntity
  8
IMPORTED
  6
CONTINUOUS
 62
              30
100
AcDbVertex
100
AcDb2dVertex
 10
-255.85341916490987
 20
-962.89729647231718
 30
0.0
  0
VERTEX
  5
2BA
100
AcDbEntity
  8
IMPORTED
  6
CONTINUOUS
 62
              30
100
AcDbVertex
100
AcDb2dVertex
 10
344.14658083509005
 20
-962.89729647231718
 30
0.0
  0
VERTEX
  5
2BB
100
AcDbEntity
  8
IMPORTED
  6
CONTINUOUS
 62
              30
100
AcDbVertex
100
AcDb2dVertex
 10
344.14658083509005
 20
-1062.8972964723171
 30
0.0
  0
VERTEX
  5
2BC
100
AcDbEntity
  8
IMPORTED
  6
CONTINUOUS
 62
              30
100
AcDbVertex
100
AcDb2dVertex
 10
-255.85341916490987
 20
-1062.8972964723171
 30
0.0
  0
VERTEX
  5
2BD
100
AcDbEntity
  8
IMPORTED
  6
CONTINUOUS
 62
              30
100
AcDbVertex
100
AcDb2dVertex
 10
-255.85341916490987
 20
-962.89729647231718
 30
0.0
  0
SEQEND
  5
2BE
100
AcDbEntity
  8
IMPORTED
  6
CONTINUOUS
 62
              30
  0
POLYLINE
  5
2BF
100
AcDbEntity
  8
IMPORTED
  6
CONTINUOUS
 62
              30
100
AcDb2dPolyline
 66
               1
 10
0.0
 20
0.0
 30
0.0
 70
             129
  0
VERTEX
  5
2C0
100
AcDbEntity
  8
IMPORTED
  6
CONTINUOUS
 62
              30
100
AcDbVertex
100
AcDb2dVertex
 10
-255.85341916490987
 20
-1062.8972964723171
 30
0.0
  0
VERTEX
  5
2C1
100
AcDbEntity
  8
IMPORTED
  6
CONTINUOUS
 62
              30
100
AcDbVertex
100
AcDb2dVertex
 10
344.14658083509005
 20
-1062.8972964723171
 30
0.0
  0
VERTEX
  5
2C2
100
AcDbEntity
  8
IMPORTED
  6
CONTINUOUS
 62
              30
100
AcDbVertex
100
AcDb2dVertex
 10
344.14658083509005
 20
-1162.8972964723171
 30
0.0
  0
VERTEX
  5
2C3
100
AcDbEntity
  8
IMPORTED
  6
CONTINUOUS
 62
              30
100
AcDbVertex
100
AcDb2dVertex
 10
-255.85341916490987
 20
-1162.8972964723171
 30
0.0
  0
VERTEX
  5
2C4
100
AcDbEntity
  8
IMPORTED
  6
CONTINUOUS
 62
              30
100
AcDbVertex
100
AcDb2dVertex
 10
-255.85341916490987
 20
-1062.8972964723171
 30
0.0
  0
SEQEND
  5
2C5
100
AcDbEntity
  8
IMPORTED
  6
CONTINUOUS
 62
              30
  0
POLYLINE
  5
2C6
100
AcDbEntity
  8
IMPORTED
  6
CONTINUOUS
 62
              30
100
AcDb2dPolyline
 66
               1
 10
0.0
 20
0.0
 30
0.0
 70
             129
  0
VERTEX
  5
2C7
100
AcDbEntity
  8
IMPORTED
  6
CONTINUOUS
 62
              30
100
AcDbVertex
100
AcDb2dVertex
 10
-205.85341916490987
 20
-462.89729647231724
 30
0.0
  0
VERTEX
  5
2C8
100
AcDbEntity
  8
IMPORTED
  6
CONTINUOUS
 62
              30
100
AcDbVertex
100
AcDb2dVertex
 10
294.14658083509005
 20
-462.89729647231724
 30
0.0
  0
VERTEX
  5
2C9
100
AcDbEntity
  8
IMPORTED
  6
CONTINUOUS
 62
              30
100
AcDbVertex
100
AcDb2dVertex
 10
294.14658083509005
 20
-962.89729647231718
 30
0.0
  0
VERTEX
  5
2CA
100
AcDbEntity
  8
IMPORTED
  6
CONTINUOUS
 62
              30
100
AcDbVertex
100
AcDb2dVertex
 10
-205.85341916490987
 20
-962.89729647231718
 30
0.0
  0
VERTEX
  5
2CB
100
AcDbEntity
  8
IMPORTED
  6
CONTINUOUS
 62
              30
100
AcDbVertex
100
AcDb2dVertex
 10
-205.85341916490987
 20
-462.89729647231724
 30
0.0
  0
SEQEND
  5
2CC
100
AcDbEntity
  8
IMPORTED
  6
CONTINUOUS
 62
              30
  0
LINE
  5
2CD
100
AcDbEntity
  8
IMPORTED
  6
CONTINUOUS
 62
              30
100
AcDbLine
 10
294.14658083509005
 20
-539.60849647231714
 30
0.0
 11
-129.14221916490987
 21
-962.89729647231718
 31
0.0
  0
LINE
  5
2CE
100
AcDbEntity
  8
IMPORTED
  6
CONTINUOUS
 62
              30
100
AcDbLine
 10
294.14658083509005
 20
-553.75069647231714
 30
0.0
 11
-115.00001916490987
 21
-962.89729647231718
 31
0.0
  0
LINE
  5
2CF
100
AcDbEntity
  8
IMPORTED
  6
CONTINUOUS
 62
              30
100
AcDbLine
 10
294.14658083509005
 20
-525.46629647231714
 30
0.0
 11
-143.28441916490988
 21
-962.89729647231718
 31
0.0
  0
LINE
  5
2D0
100
AcDbEntity
  8
IMPORTED
  6
CONTINUOUS
 62
              30
100
AcDbLine
 10
294.14658083509005
 20
-703.75069647231714
 30
0.0
 11
34.999980835090106
 21
-962.89729647231718
 31
0.0
  0
LINE
  5
2D1
100
AcDbEntity
  8
IMPORTED
  6
CONTINUOUS
 62
              30
100
AcDbLine
 10
294.14658083509005
 20
-689.60849647231714
 30
0.0
 11
20.857780835090111
 21
-962.89729647231718
 31
0.0
  0
LINE
  5
2D2
100
AcDbEntity
  8
IMPORTED
  6
CONTINUOUS
 62
              30
100
AcDbLine
 10
294.14658083509005
 20
-675.46629647231714
 30
0.0
 11
6.7155808350901118
 21
-962.89729647231718
 31
0.0
  0
LINE
  5
2D3
100
AcDbEntity
  8
IMPORTED
  6
CONTINUOUS
 62
              30
100
AcDbLine
 10
294.14658083509005
 20
-853.75069647231714
 30
0.0
 11
184.9999808350901
 21
-962.89729647231718
 31
0.0
  0
LINE
  5
2D4
100
AcDbEntity
  8
IMPORTED
  6
CONTINUOUS
 62
              30
100
AcDbLine
 10
294.14658083509005
 20
-839.60849647231714
 30
0.0
 11
170.8577808350901
 21
-962.89729647231718
 31
0.0
  0
LINE
  5
2D5
100
AcDbEntity
  8
IMPORTED
  6
CONTINUOUS
 62
              30
100
AcDbLine
 10
294.14658083509005
 20
-825.46629647231714
 30
0.0
 11
156.71558083509009
 21
-962.89729647231718
 31
0.0
  0
LINE
  5
2D6
100
AcDbEntity
  8
IMPORTED
  6
CONTINUOUS
 62
              30
100
AcDbLine
 10
234.9999808350901
 20
-462.89729647231724
 30
0.0
 11
-205.85341916490987
 21
-903.75069647231714
 31
0.0
  0
LINE
  5
2D7
100
AcDbEntity
  8
IMPORTED
  6
CONTINUOUS
 62
              30
100
AcDbLine
 10
220.8578808350901
 20
-462.89729647231724
 30
0.0
 11
-205.85331916490986
 21
-889.60849647231714
 31
0.0
  0
LINE
  5
2D8
100
AcDbEntity
  8
IMPORTED
  6
CONTINUOUS
 62
              30
100
AcDbLine
 10
206.7156808350901
 20
-462.89729647231724
 30
0.0
 11
-205.85331916490986
 21
-875.46629647231714
 31
0.0
  0
LINE
  5
2D9
100
AcDbEntity
  8
IMPORTED
  6
CONTINUOUS
 62
              30
100
AcDbLine
 10
85.000080835090117
 20
-462.89729647231724
 30
0.0
 11
-205.85331916490986
 21
-753.75069647231714
 31
0.0
  0
LINE
  5
2DA
100
AcDbEntity
  8
IMPORTED
  6
CONTINUOUS
 62
              30
100
AcDbLine
 10
70.857880835090114
 20
-462.89729647231724
 30
0.0
 11
-205.85331916490986
 21
-739.60849647231714
 31
0.0
  0
LINE
  5
2DB
100
AcDbEntity
  8
IMPORTED
  6
CONTINUOUS
 62
              30
100
AcDbLine
 10
56.715680835090104
 20
-462.89729647231724
 30
0.0
 11
-205.85331916490986
 21
-725.46629647231714
 31
0.0
  0
LINE
  5
2DC
100
AcDbEntity
  8
IMPORTED
  6
CONTINUOUS
 62
              30
100
AcDbLine
 10
-64.999919164909883
 20
-462.89729647231724
 30
0.0
 11
-205.85331916490986
 21
-603.75069647231714
 31
0.0
  0
LINE
  5
2DD
100
AcDbEntity
  8
IMPORTED
  6
CONTINUOUS
 62
              30
100
AcDbLine
 10
-93.284319164909874
 20
-462.89729647231724
 30
0.0
 11
-205.85331916490986
 21
-575.46629647231714
 31
0.0
  0
LINE
  5
2DE
100
AcDbEntity
  8
IMPORTED
  6
CONTINUOUS
 62
              30
100
AcDbLine
 10
-79.142119164909872
 20
-462.89729647231724
 30
0.0
 11
-205.85331916490986
 21
-589.60849647231714
 31
0.0
  0
LINE
  5
2DF
100
AcDbEntity
  8
IMPORTED
  6
CONTINUOUS
 62
              30
100
AcDbLine
 10
224.14658083509011
 20
-962.89729647231718
 30
0.0
 11
324.14658083509005
 21
-1062.8972964723171
 31
0.0
  0
LINE
  5
2E0
100
AcDbEntity
  8
IMPORTED
  6
CONTINUOUS
 62
              30
100
AcDbLine
 10
210.0043808350901
 20
-962.89729647231718
 30
0.0
 11
310.00438083509005
 21
-1062.8972964723171
 31
0.0
  0
LINE
  5
2E1
100
AcDbEntity
  8
IMPORTED
  6
CONTINUOUS
 62
              30
100
AcDbLine
 10
74.146580835090106
 20
-962.89729647231718
 30
0.0
 11
174.14658083509011
 21
-1062.8972964723171
 31
0.0
  0
LINE
  5
2E2
100
AcDbEntity
  8
IMPORTED
  6
CONTINUOUS
 62
              30
100
AcDbLine
 10
60.004380835090103
 20
-962.89729647231718
 30
0.0
 11
160.0043808350901
 21
-1062.8972964723171
 31
0.0
  0
LINE
  5
2E3
100
AcDbEntity
  8
IMPORTED
  6
CONTINUOUS
 62
              30
100
AcDbLine
 10
-75.853319164909877
 20
-962.89729647231718
 30
0.0
 11
24.146680835090109
 21
-1062.8972964723171
 31
0.0
  0
LINE
  5
2E4
100
AcDbEntity
  8
IMPORTED
  6
CONTINUOUS
 62
              30
100
AcDbLine
 10
-89.995519164909879
 20
-962.89729647231718
 30
0.0
 11
10.004480835090112
 21
-1062.8972964723171
 31
0.0
  0
LINE
  5
2E5
100
AcDbEntity
  8
IMPORTED
  6
CONTINUOUS
 62
              30
100
AcDbLine
 10
-225.85331916490986
 20
-962.89729647231718
 30
0.0
 11
-125.85331916490986
 21
-1062.8972964723171
 31
0.0
  0
LINE
  5
2E6
100
AcDbEntity
  8
IMPORTED
  6
CONTINUOUS
 62
              30
100
AcDbLine
 10
-239.99551916490987
 20
-962.89729647231718
 30
0.0
 11
-139.99551916490987
 21
-1062.8972964723171
 31
0.0
  0
LINE
  5
2E7
100
AcDbEntity
  8
IMPORTED
  6
CONTINUOUS
 62
              30
100
AcDbLine
 10
327.01408083509006
 20
-1162.8972964723171
 30
0.0
 11
269.27908083509004
 21
-1062.8972964723171
 31
0.0
  0
LINE
  5
2E8
100
AcDbEntity
  8
IMPORTED
  6
CONTINUOUS
 62
              30
100
AcDbLine
 10
283.71278083509009
 20
-1087.8972964723171
 30
0.0
 11
298.14658083509005
 21
-1062.8972964723171
 31
0.0
  0
LINE
  5
2E9
100
AcDbEntity
  8
IMPORTED
  6
CONTINUOUS
 62
              30
100
AcDbLine
 10
312.58028083509004
 20
-1137.8971964723171
 30
0.0
 11
298.14648083509007
 21
-1162.8972964723171
 31
0.0
  0
LINE
  5
2EA
100
AcDbEntity
  8
IMPORTED
  6
CONTINUOUS
 62
              30
100
AcDbLine
 10
243.01408083509008
 20
-1162.8972964723171
 30
0.0
 11
185.2790808350901
 21
-1062.8972964723171
 31
0.0
  0
LINE
  5
2EB
100
AcDbEntity
  8
IMPORTED
  6
CONTINUOUS
 62
              30
100
AcDbLine
 10
199.71278083509009
 20
-1087.8972964723171
 30
0.0
 11
214.14658083509011
 21
-1062.8972964723171
 31
0.0
  0
LINE
  5
2EC
100
AcDbEntity
  8
IMPORTED
  6
CONTINUOUS
 62
              30
100
AcDbLine
 10
228.58028083509009
 20
-1137.8971964723171
 30
0.0
 11
214.1464808350901
 21
-1162.8972964723171
 31
0.0
  0
LINE
  5
2ED
100
AcDbEntity
  8
IMPORTED
  6
CONTINUOUS
 62
              30
100
AcDbLine
 10
159.01408083509011
 20
-1162.8972964723171
 30
0.0
 11
101.27908083509011
 21
-1062.8972964723171
 31
0.0
  0
LINE
  5
2EE
100
AcDbEntity
  8
IMPORTED
  6
CONTINUOUS
 62
              30
100
AcDbLine
 10
115.7127808350901
 20
-1087.8972964723171
 30
0.0
 11
130.14658083509011
 21
-1062.8972964723171
 31
0.0
  0
LINE
  5
2EF
100
AcDbEntity
  8
IMPORTED
  6
CONTINUOUS
 62
              30
100
AcDbLine
 10
144.58028083509009
 20
-1137.8971964723171
 30
0.0
 11
130.1464808350901
 21
-1162.8972964723171
 31
0.0
  0
LINE
  5
2F0
100
AcDbEntity
  8
IMPORTED
  6
CONTINUOUS
 62
              30
100
AcDbLine
 10
75.014080835090112
 20
-1162.8972964723171
 30
0.0
 11
17.27908083509011
 21
-1062.8972964723171
 31
0.0
  0
LINE
  5
2F1
100
AcDbEntity
  8
IMPORTED
  6
CONTINUOUS
 62
              30
100
AcDbLine
 10
31.712780835090108
 20
-1087.8972964723171
 30
0.0
 11
46.146580835090106
 21
-1062.8972964723171
 31
0.0
  0
LINE
  5
2F2
100
AcDbEntity
  8
IMPORTED
  6
CONTINUOUS
 62
              30
100
AcDbLine
 10
60.580280835090107
 20
-1137.8971964723171
 30
0.0
 11
46.146480835090109
 21
-1162.8972964723171
 31
0.0
  0
LINE
  5
2F3
100
AcDbEntity
  8
IMPORTED
  6
CONTINUOUS
 62
              30
100
AcDbLine
 10
-8.985819164909886
 20
-1162.8972964723171
 30
0.0
 11
-66.720819164909884
 21
-1062.8972964723171
 31
0.0
  0
LINE
  5
2F4
100
AcDbEntity
  8
IMPORTED
  6
CONTINUOUS
 62
              30
100
AcDbLine
 10
-52.287119164909882
 20
-1087.8972964723171
 30
0.0
 11
-37.853319164909884
 21
-1062.8972964723171
 31
0.0
  0
LINE
  5
2F5
100
AcDbEntity
  8
IMPORTED
  6
CONTINUOUS
 62
              30
100
AcDbLine
 10
-23.419619164909889
 20
-1137.8971964723171
 30
0.0
 11
-37.853419164909887
 21
-1162.8972964723171
 31
0.0
  0
LINE
  5
2F6
100
AcDbEntity
  8
IMPORTED
  6
CONTINUOUS
 62
              30
100
AcDbLine
 10
-92.98581916490987
 20
-1162.8972964723171
 30
0.0
 11
-150.72081916490987
 21
-1062.8972964723171
 31
0.0
  0
LINE
  5
2F7
100
AcDbEntity
  8
IMPORTED
  6
CONTINUOUS
 62
              30
100
AcDbLine
 10
-136.28711916490988
 20
-1087.8972964723171
 30
0.0
 11
-121.85331916490986
 21
-1062.8972964723171
 31
0.0
  0
LINE
  5
2F8
100
AcDbEntity
  8
IMPORTED
  6
CONTINUOUS
 62
              30
100
AcDbLine
 10
-107.41961916490988
 20
-1137.8971964723171
 30
0.0
 11
-121.85341916490987
 21
-1162.8972964723171
 31
0.0
  0
LINE
  5
2F9
100
AcDbEntity
  8
IMPORTED
  6
CONTINUOUS
 62
              30
100
AcDbLine
 10
-176.98581916490986
 20
-1162.8972964723171
 30
0.0
 11
-234.72081916490987
 21
-1062.8972964723171
 31
0.0
  0
LINE
  5
2FA
100
AcDbEntity
  8
IMPORTED
  6
CONTINUOUS
 62
              30
100
AcDbLine
 10
-220.28711916490985
 20
-1087.8972964723171
 30
0.0
 11
-205.85331916490986
 21
-1062.8972964723171
 31
0.0
  0
LINE
  5
2FB
100
AcDbEntity
  8
IMPORTED
  6
CONTINUOUS
 62
              30
100
AcDbLine
 10
-191.41961916490988
 20
-1137.8971964723171
 30
0.0
 11
-205.85341916490987
 21
-1162.8972964723171
 31
0.0
  0
POLYLINE
  5
2FC
100
AcDbEntity
  8
IMPORTED
  6
CONTINUOUS
 62
              30
100
AcDb2dPolyline
 66
               1
 10
0.0
 20
0.0
 30
0.0
 70
             128
  0
VERTEX
  5
2FD
100
AcDbEntity
  8
IMPORTED
  6
CONTINUOUS
 62
              30
100
AcDbVertex
100
AcDb2dVertex
 10
-30.853419164909887
 20
1309.6026035276827
 30
0.0
  0
VERTEX
  5
2FE
100
AcDbEntity
  8
IMPORTED
  6
CONTINUOUS
 62
              30
100
AcDbVertex
100
AcDb2dVertex
 10
-30.853419164909887
 20
1732.1026035276825
 30
0.0
  0
VERTEX
  5
2FF
100
AcDbEntity
  8
IMPORTED
  6
CONTINUOUS
 62
              30
100
AcDbVertex
100
AcDb2dVertex
 10
-25.853419164909887
 20
1737.1026035276825
 30
0.0
  0
VERTEX
  5
300
100
AcDbEntity
  8
IMPORTED
  6
CONTINUOUS
 62
              30
100
AcDbVertex
100
AcDb2dVertex
 10
114.14658083509011
 20
1737.1026035276825
 30
0.0
  0
VERTEX
  5
301
100
AcDbEntity
  8
IMPORTED
  6
CONTINUOUS
 62
              30
100
AcDbVertex
100
AcDb2dVertex
 10
119.14658083509011
 20
1732.1026035276825
 30
0.0
  0
VERTEX
  5
302
100
AcDbEntity
  8
IMPORTED
  6
CONTINUOUS
 62
              30
100
AcDbVertex
100
AcDb2dVertex
 10
119.14658083509011
 20
1309.6026035276827
 30
0.0
  0
SEQEND
  5
303
100
AcDbEntity
  8
IMPORTED
  6
CONTINUOUS
 62
              30
  0
POLYLINE
  5
304
100
AcDbEntity
  8
IMPORTED
  6
CONTINUOUS
 62
              30
100
AcDb2dPolyline
 66
               1
 10
0.0
 20
0.0
 30
0.0
 70
             129
  0
VERTEX
  5
305
100
AcDbEntity
  8
IMPORTED
  6
CONTINUOUS
 62
              30
100
AcDbVertex
100
AcDb2dVertex
 10
-3893.9999191649099
 20
2750.9999035276824
 30
0.0
  0
VERTEX
  5
306
100
AcDbEntity
  8
IMPORTED
  6
CONTINUOUS
 62
              30
100
AcDbVertex
100
AcDb2dVertex
 10
3906.0000808350896
 20
2750.9999035276824
 30
0.0
  0
VERTEX
  5
307
100
AcDbEntity
  8
IMPORTED
  6
CONTINUOUS
 62
              30
100
AcDbVertex
100
AcDb2dVertex
 10
3906.0000808350896
 20
-2749.0000964723172
 30
0.0
  0
VERTEX
  5
308
100
AcDbEntity
  8
IMPORTED
  6
CONTINUOUS
 62
              30
100
AcDbVertex
100
AcDb2dVertex
 10
-3893.9999191649099
 20
-2749.0000964723172
 30
0.0
  0
VERTEX
  5
309
100
AcDbEntity
  8
IMPORTED
  6
CONTINUOUS
 62
              30
100
AcDbVertex
100
AcDb2dVertex
 10
-3893.9999191649099
 20
2750.9999035276824
 30
0.0
  0
SEQEND
  5
30A
100
AcDbEntity
  8
IMPORTED
  6
CONTINUOUS
 62
              30
  0
MTEXT
  5
30B
100
AcDbEntity
  8
IMPORTED
 62
              30
100
AcDbMText
 10
2463.7359808350898
 20
2330.7389265901825
 30
0.0
 40
54.2947390625
 41
0.0
 71
               1
 72
               1
  1
記　　号
  7
_______
  0
MTEXT
  5
30C
100
AcDbEntity
  8
IMPORTED
 62
              30
100
AcDbMText
 10
3233.5149808350898
 20
2334.6169265901826
 30
0.0
 40
54.2947390625
 41
0.0
 71
               1
 72
               1
  1
S-020
  7
_______
  0
MTEXT
  5
30D
100
AcDbEntity
  8
IMPORTED
 62
              30
100
AcDbMText
 10
2463.7359808350898
 20
1972.6779265901826
 30
0.0
 40
54.2947390625
 41
0.0
 71
               1
 72
               1
  1
縮　　尺
  7
_______
  0
MTEXT
  5
30E
100
AcDbEntity
  8
IMPORTED
 62
              30
100
AcDbMText
 10
3186.1444808350898
 20
1970.7389265901827
 30
0.0
 40
54.2947390625
 41
0.0
 71
               1
 72
               1
  1
1：20(A3)
  7
_______
  0
MTEXT
  5
30F
100
AcDbEntity
  8
IMPORTED
 62
              30
100
AcDbMText
 10
2463.7359808350898
 20
2510.7389265901825
 30
0.0
 40
54.2947390625
 41
0.0
 71
               1
 72
               1
  1
仕　　様
  7
_______
  0
MTEXT
  5
310
100
AcDbEntity
  8
IMPORTED
 62
              30
100
AcDbMText
 10
2463.7359808350898
 20
2692.6779265901828
 30
0.0
 40
54.2947390625
 41
0.0
 71
               1
 72
               1
  1
品　　名
  7
_______
  0
MTEXT
  5
311
100
AcDbEntity
  8
IMPORTED
 62
              30
100
AcDbMText
 10
3124.3779808350896
 20
2690.7389265901825
 30
0.0
 40
54.2947390625
 41
0.0
 71
               1
 72
               1
  1
ＥＳＷ案内板
  7
_______
  0
LINE
  5
312
100
AcDbEntity
  8
IMPORTED
  6
CONTINUOUS
 62
              30
100
AcDbLine
 10
-3893.9999191649099
 20
-2448.999996472317
 30
0.0
 11
3906.0000808350896
 21
-2448.999996472317
 31
0.0
  0
MTEXT
  5
313
100
AcDbEntity
  8
IMPORTED
 62
              30
100
AcDbMText
 10
2344.7269808350898
 20
-2537.6505277223168
 30
0.0
 40
97.73046875
 41
0.0
 71
               1
 72
               1
  1
イー・トップ株式会社
  7
_______
  0
MTEXT
  5
314
100
AcDbEntity
  8
IMPORTED
 62
              30
100
AcDbMText
 10
2995.6599999999999
 20
2511.3319265901828
 30
0.0
 40
54.2947390625
 41
0.0
 71
               1
 72
               1
  1
ＥＩＮスーパーウッド
  7
_______
  0
LINE
  5
315
100
AcDbEntity
  8
IMPORTED
  6
CONTINUOUS
 62
              30
100
AcDbLine
 10
3905.9999808350894
 20
2570.9999035276824
 30
0.0
 11
2405.9999808350899
 21
2570.9999035276824
 31
0.0
  0
LINE
  5
316
100
AcDbEntity
  8
IMPORTED
  6
CONTINUOUS
 62
              30
100
AcDbLine
 10
3905.9999808350894
 20
2390.9999035276824
 30
0.0
 11
2405.9999808350899
 21
2390.9999035276824
 31
0.0
  0
LINE
  5
317
100
AcDbEntity
  8
IMPORTED
  6
CONTINUOUS
 62
              30
100
AcDbLine
 10
3905.9999808350894
 20
2210.9999035276824
 30
0.0
 11
2405.9999808350899
 21
2210.9999035276824
 31
0.0
  0
LINE
  5
318
100
AcDbEntity
  8
IMPORTED
  6
CONTINUOUS
 62
              30
100
AcDbLine
 10
3905.9999808350894
 20
2030.9999035276826
 30
0.0
 11
2405.9999808350899
 21
2030.9999035276826
 31
0.0
  0
LINE
  5
319
100
AcDbEntity
  8
IMPORTED
  6
CONTINUOUS
 62
              30
100
AcDbLine
 10
3905.9999808350894
 20
1850.9999035276826
 30
0.0
 11
2405.9999808350899
 21
1850.9999035276826
 31
0.0
  0
LINE
  5
31A
100
AcDbEntity
  8
IMPORTED
  6
CONTINUOUS
 62
              30
100
AcDbLine
 10
2805.9999808350894
 20
2750.9999035276824
 30
0.0
 11
2805.9999808350894
 21
1850.9999035276826
 31
0.0
  0
LINE
  5
31B
100
AcDbEntity
  8
IMPORTED
  6
CONTINUOUS
 62
              30
100
AcDbLine
 10
2405.9999808350899
 20
2750.9999035276824
 30
0.0
 11
2405.9999808350899
 21
1850.9999035276826
 31
0.0
  0
MTEXT
  5
31C
100
AcDbEntity
  8
IMPORTED
 62
              30
100
AcDbMText
 10
3142.9511208164331
 20
2154.6169265901826
 30
0.0
 40
54.2947390625
 41
0.0
 71
               1
 72
               1
  1
W1000×H145
  7
_______
  0
MTEXT
  5
31D
100
AcDbEntity
  8
IMPORTED
 62
              30
100
AcDbMText
 10
2463.7359808350898
 20
2150.7389265901825
 30
0.0
 40
54.2947390625
 41
0.0
 71
               1
 72
               1
  1
規格寸法
  7
_______
  0
POLYLINE
  5
31E
100
AcDbEntity
  8
IMPORTED
  6
CONTINUOUS
 62
              30
100
AcDb2dPolyline
 66
               1
 10
0.0
 20
0.0
 30
0.0
 70
             129
  0
VERTEX
  5
31F
100
AcDbEntity
  8
IMPORTED
  6
CONTINUOUS
 62
              30
100
AcDbVertex
100
AcDb2dVertex
 10
-30.853419164909887
 20
-462.89729647231724
 30
0.0
  0
VERTEX
  5
320
100
AcDbEntity
  8
IMPORTED
  6
CONTINUOUS
 62
              30
100
AcDbVertex
100
AcDb2dVertex
 10
119.14658083509011
 20
-462.89729647231724
 30
0.0
  0
VERTEX
  5
321
100
AcDbEntity
  8
IMPORTED
  6
CONTINUOUS
 62
              30
100
AcDbVertex
100
AcDb2dVertex
 10
119.14658083509011
 20
-962.89729647231718
 30
0.0
  0
VERTEX
  5
322
100
AcDbEntity
  8
IMPORTED
  6
CONTINUOUS
 62
              30
100
AcDbVertex
100
AcDb2dVertex
 10
-30.853419164909887
 20
-962.89729647231718
 30
0.0
  0
SEQEND
  5
323
100
AcDbEntity
  8
IMPORTED
  6
CONTINUOUS
 62
              30
  0
LINE
  5
324
100
AcDbEntity
  8
IMPORTED
  6
CONTINUOUS
 62
              30
100
AcDbLine
 10
-30.853319164909884
 20
-472.79519647231723
 30
0.0
 11
-20.955519164909887
 21
-462.89739647231727
 31
0.0
  0
LINE
  5
325
100
AcDbEntity
  8
IMPORTED
  6
CONTINUOUS
 62
              30
100
AcDbLine
 10
-30.853419164909887
 20
-561.18349647231719
 30
0.0
 11
67.432780835090114
 21
-462.89729647231724
 31
0.0
  0
LINE
  5
326
100
AcDbEntity
  8
IMPORTED
  6
CONTINUOUS
 62
              30
100
AcDbLine
 10
-30.853419164909887
 20
-649.57189647231723
 30
0.0
 11
119.14658083509011
 21
-499.57189647231723
 31
0.0
  0
LINE
  5
327
100
AcDbEntity
  8
IMPORTED
  6
CONTINUOUS
 62
              30
100
AcDbLine
 10
-30.853419164909887
 20
-737.96019647231719
 30
0.0
 11
119.14658083509011
 21
-587.96019647231719
 31
0.0
  0
LINE
  5
328
100
AcDbEntity
  8
IMPORTED
  6
CONTINUOUS
 62
              30
100
AcDbLine
 10
-30.853419164909887
 20
-826.34849647231715
 30
0.0
 11
119.14658083509011
 21
-676.34849647231715
 31
0.0
  0
LINE
  5
329
100
AcDbEntity
  8
IMPORTED
  6
CONTINUOUS
 62
              30
100
AcDbLine
 10
-30.853419164909887
 20
-914.73679647231711
 30
0.0
 11
119.14658083509011
 21
-764.73679647231722
 31
0.0
  0
LINE
  5
32A
100
AcDbEntity
  8
IMPORTED
  6
CONTINUOUS
 62
              30
100
AcDbLine
 10
9.374480835090111
 20
-962.89719647231721
 30
0.0
 11
119.1464808350901
 21
-853.12519647231716
 31
0.0
  0
LINE
  5
32B
100
AcDbEntity
  8
IMPORTED
  6
CONTINUOUS
 62
              30
100
AcDbLine
 10
97.762780835090112
 20
-962.89729647231718
 30
0.0
 11
119.14658083509011
 21
-941.51349647231712
 31
0.0
  0
LINE
  5
32C
100
AcDbEntity
  8
IMPORTED
  6
CONTINUOUS
 62
              30
100
AcDbLine
 10
-9.374519164909886
 20
-962.89719647231721
 30
0.0
 11
-30.853319164909884
 21
-941.41839647231711
 31
0.0
  0
LINE
  5
32D
100
AcDbEntity
  8
IMPORTED
  6
CONTINUOUS
 62
              30
100
AcDbLine
 10
79.013880835090106
 20
-962.89719647231721
 30
0.0
 11
-30.853319164909884
 21
-853.02999647231718
 31
0.0
  0
LINE
  5
32E
100
AcDbEntity
  8
IMPORTED
  6
CONTINUOUS
 62
              30
100
AcDbLine
 10
119.14658083509011
 20
-914.64169647231711
 30
0.0
 11
-30.853419164909887
 21
-764.64169647231722
 31
0.0
  0
LINE
  5
32F
100
AcDbEntity
  8
IMPORTED
  6
CONTINUOUS
 62
              30
100
AcDbLine
 10
119.14658083509011
 20
-826.25329647231717
 30
0.0
 11
-30.853419164909887
 21
-676.25329647231717
 31
0.0
  0
LINE
  5
330
100
AcDbEntity
  8
IMPORTED
  6
CONTINUOUS
 62
              30
100
AcDbLine
 10
119.14658083509011
 20
-737.86509647231719
 30
0.0
 11
-30.853419164909887
 21
-587.86509647231719
 31
0.0
  0
LINE
  5
331
100
AcDbEntity
  8
IMPORTED
  6
CONTINUOUS
 62
              30
100
AcDbLine
 10
119.14658083509011
 20
-649.47669647231714
 30
0.0
 11
-30.853419164909887
 21
-499.47669647231726
 31
0.0
  0
LINE
  5
332
100
AcDbEntity
  8
IMPORTED
  6
CONTINUOUS
 62
              30
100
AcDbLine
 10
119.1464808350901
 20
-561.08839647231719
 30
0.0
 11
20.955480835090111
 21
-462.89739647231727
 31
0.0
  0
LINE
  5
333
100
AcDbEntity
  8
IMPORTED
  6
CONTINUOUS
 62
              30
100
AcDbLine
 10
119.1464808350901
 20
-472.69999647231725
 30
0.0
 11
109.3438808350901
 21
-462.89739647231727
 31
0.0
  0
LINE
  5
334
100
AcDbEntity
  8
IMPORTED
  6
CONTINUOUS
 62
              30
100
AcDbLine
 10
-2220.8532191649097
 20
-472.79519647231723
 30
0.0
 11
-2210.9554191649099
 21
-462.89739647231727
 31
0.0
  0
LINE
  5
335
100
AcDbEntity
  8
IMPORTED
  6
CONTINUOUS
 62
              30
100
AcDbLine
 10
-2220.8533191649099
 20
-561.18349647231719
 30
0.0
 11
-2122.5671191649099
 21
-462.89729647231724
 31
0.0
  0
LINE
  5
336
100
AcDbEntity
  8
IMPORTED
  6
CONTINUOUS
 62
              30
100
AcDbLine
 10
-2220.8533191649099
 20
-649.57189647231723
 30
0.0
 11
-2070.8533191649099
 21
-499.57189647231723
 31
0.0
  0
LINE
  5
337
100
AcDbEntity
  8
IMPORTED
  6
CONTINUOUS
 62
              30
100
AcDbLine
 10
-2220.8533191649099
 20
-737.96019647231719
 30
0.0
 11
-2070.8533191649099
 21
-587.96019647231719
 31
0.0
  0
LINE
  5
338
100
AcDbEntity
  8
IMPORTED
  6
CONTINUOUS
 62
              30
100
AcDbLine
 10
-2220.8533191649099
 20
-826.34849647231715
 30
0.0
 11
-2070.8533191649099
 21
-676.34849647231715
 31
0.0
  0
LINE
  5
339
100
AcDbEntity
  8
IMPORTED
  6
CONTINUOUS
 62
              30
100
AcDbLine
 10
-2220.8533191649099
 20
-914.73679647231711
 30
0.0
 11
-2070.8533191649099
 21
-764.73679647231722
 31
0.0
  0
LINE
  5
33A
100
AcDbEntity
  8
IMPORTED
  6
CONTINUOUS
 62
              30
100
AcDbLine
 10
-2180.62541916491
 20
-962.89719647231721
 30
0.0
 11
-2070.8534191649101
 21
-853.12519647231716
 31
0.0
  0
LINE
  5
33B
100
AcDbEntity
  8
IMPORTED
  6
CONTINUOUS
 62
              30
100
AcDbLine
 10
-2092.2371191649099
 20
-962.89729647231718
 30
0.0
 11
-2070.8533191649099
 21
-941.51349647231712
 31
0.0
  0
LINE
  5
33C
100
AcDbEntity
  8
IMPORTED
  6
CONTINUOUS
 62
              30
100
AcDbLine
 10
-2199.3744191649098
 20
-962.89719647231721
 30
0.0
 11
-2220.8532191649097
 21
-941.41839647231711
 31
0.0
  0
LINE
  5
33D
100
AcDbEntity
  8
IMPORTED
  6
CONTINUOUS
 62
              30
100
AcDbLine
 10
-2110.98601916491
 20
-962.89719647231721
 30
0.0
 11
-2220.8532191649097
 21
-853.02999647231718
 31
0.0
  0
LINE
  5
33E
100
AcDbEntity
  8
IMPORTED
  6
CONTINUOUS
 62
              30
100
AcDbLine
 10
-2070.8533191649099
 20
-914.64169647231711
 30
0.0
 11
-2220.8533191649099
 21
-764.64169647231722
 31
0.0
  0
LINE
  5
33F
100
AcDbEntity
  8
IMPORTED
  6
CONTINUOUS
 62
              30
100
AcDbLine
 10
-2070.8533191649099
 20
-826.25329647231717
 30
0.0
 11
-2220.8533191649099
 21
-676.25329647231717
 31
0.0
  0
LINE
  5
340
100
AcDbEntity
  8
IMPORTED
  6
CONTINUOUS
 62
              30
100
AcDbLine
 10
-2070.8533191649099
 20
-737.86509647231719
 30
0.0
 11
-2220.8533191649099
 21
-587.86509647231719
 31
0.0
  0
LINE
  5
341
100
AcDbEntity
  8
IMPORTED
  6
CONTINUOUS
 62
              30
100
AcDbLine
 10
-2070.8533191649099
 20
-649.47669647231714
 30
0.0
 11
-2220.8533191649099
 21
-499.47669647231726
 31
0.0
  0
LINE
  5
342
100
AcDbEntity
  8
IMPORTED
  6
CONTINUOUS
 62
              30
100
AcDbLine
 10
-2070.8534191649101
 20
-561.08839647231719
 30
0.0
 11
-2169.0444191649099
 21
-462.89739647231727
 31
0.0
  0
LINE
  5
343
100
AcDbEntity
  8
IMPORTED
  6
CONTINUOUS
 62
              30
100
AcDbLine
 10
-2070.8534191649101
 20
-472.69999647231725
 30
0.0
 11
-2080.65601916491
 21
-462.89739647231727
 31
0.0
  0
LINE
  5
344
100
AcDbEntity
  8
IMPORTED
  6
CONTINUOUS
 62
              30
100
AcDbLine
 10
-30.853419164909887
 20
1732.1026035276825
 30
0.0
 11
119.14658083509011
 21
1732.1026035276825
 31
0.0
  0
LINE
  5
345
100
AcDbEntity
  8
IMPORTED
  6
CONTINUOUS
 62
              30
100
AcDbLine
 10
114.14658083509011
 20
1737.1026035276825
 30
0.0
 11
114.14658083509011
 21
1309.6026035276827
 31
0.0
  0
LINE
  5
346
100
AcDbEntity
  8
IMPORTED
  6
CONTINUOUS
 62
              30
100
AcDbLine
 10
-25.853319164909884
 20
-962.89739647231715
 30
0.0
 11
-25.853319164909884
 21
999.60260352768262
 31
0.0
  0
LINE
  5
347
100
AcDbEntity
  8
IMPORTED
  6
CONTINUOUS
 62
              30
100
AcDbLine
 10
-2220.8533191649099
 20
1732.1026035276825
 30
0.0
 11
-2070.8533191649099
 21
1732.1026035276825
 31
0.0
  0
LINE
  5
348
100
AcDbEntity
  8
IMPORTED
  6
CONTINUOUS
 62
              30
100
AcDbLine
 10
-2215.8533191649099
 20
-962.89739647231715
 30
0.0
 11
-2215.8533191649099
 21
1329.6026035276827
 31
0.0
  0
LINE
  5
349
100
AcDbEntity
  8
IMPORTED
  6
CONTINUOUS
 62
              30
100
AcDbLine
 10
-2075.8533191649099
 20
1737.1026035276825
 30
0.0
 11
-2075.8533191649099
 21
1639.6026035276825
 31
0.0
  0
LINE
  5
34A
100
AcDbEntity
  8
IMPORTED
  6
CONTINUOUS
 62
              30
100
AcDbLine
 10
-2075.8533191649099
 20
1329.6026035276827
 30
0.0
 11
-2075.8533191649099
 21
-962.89739647231715
 31
0.0
  0
POLYLINE
  5
34B
100
AcDbEntity
  8
IMPORTED
  6
CONTINUOUS
 62
              30
100
AcDb2dPolyline
 66
               1
 10
0.0
 20
0.0
 30
0.0
 70
             128
  0
VERTEX
  5
34C
100
AcDbEntity
  8
IMPORTED
  6
CONTINUOUS
 62
              30
100
AcDbVertex
100
AcDb2dVertex
 10
-2070.8533191649099
 20
1329.6026035276827
 30
0.0
  0
VERTEX
  5
34D
100
AcDbEntity
  8
IMPORTED
  6
CONTINUOUS
 62
              30
100
AcDbVertex
100
AcDb2dVertex
 10
-2070.8533191649099
 20
-962.89739647231715
 30
0.0
  0
VERTEX
  5
34E
100
AcDbEntity
  8
IMPORTED
  6
CONTINUOUS
 62
              30
100
AcDbVertex
100
AcDb2dVertex
 10
-2220.8533191649099
 20
-962.89739647231715
 30
0.0
  0
VERTEX
  5
34F
100
AcDbEntity
  8
IMPORTED
  6
CONTINUOUS
 62
              30
100
AcDbVertex
100
AcDb2dVertex
 10
-2220.8533191649099
 20
1329.6026035276827
 30
0.0
  0
SEQEND
  5
350
100
AcDbEntity
  8
IMPORTED
  6
CONTINUOUS
 62
              30
  0
POLYLINE
  5
351
100
AcDbEntity
  8
IMPORTED
  6
CONTINUOUS
 62
              30
100
AcDb2dPolyline
 66
               1
 10
0.0
 20
0.0
 30
0.0
 70
             128
  0
VERTEX
  5
352
100
AcDbEntity
  8
IMPORTED
  6
CONTINUOUS
 62
              30
100
AcDbVertex
100
AcDb2dVertex
 10
-2220.8533191649099
 20
1639.6026035276825
 30
0.0
  0
VERTEX
  5
353
100
AcDbEntity
  8
IMPORTED
  6
CONTINUOUS
 62
              30
100
AcDbVertex
100
AcDb2dVertex
 10
-2220.8533191649099
 20
1732.1026035276825
 30
0.0
  0
VERTEX
  5
354
100
AcDbEntity
  8
IMPORTED
  6
CONTINUOUS
 62
              30
100
AcDbVertex
100
AcDb2dVertex
 10
-2215.8533191649099
 20
1737.1026035276825
 30
0.0
  0
VERTEX
  5
355
100
AcDbEntity
  8
IMPORTED
  6
CONTINUOUS
 62
              30
100
AcDbVertex
100
AcDb2dVertex
 10
-2075.8533191649099
 20
1737.1026035276825
 30
0.0
  0
VERTEX
  5
356
100
AcDbEntity
  8
IMPORTED
  6
CONTINUOUS
 62
              30
100
AcDbVertex
100
AcDb2dVertex
 10
-2070.8533191649099
 20
1732.1026035276825
 30
0.0
  0
VERTEX
  5
357
100
AcDbEntity
  8
IMPORTED
  6
CONTINUOUS
 62
              30
100
AcDbVertex
100
AcDb2dVertex
 10
-2070.8533191649099
 20
1639.6026035276825
 30
0.0
  0
SEQEND
  5
358
100
AcDbEntity
  8
IMPORTED
  6
CONTINUOUS
 62
              30
  0
LINE
  5
359
100
AcDbEntity
  8
IMPORTED
  6
CONTINUOUS
 62
              30
100
AcDbLine
 10
-2215.8533191649099
 20
1639.6026035276825
 30
0.0
 11
-2215.8533191649099
 21
1737.1026035276825
 31
0.0
  0
LINE
  5
35A
100
AcDbEntity
  8
IMPORTED
  6
CONTINUOUS
 62
              30
100
AcDbLine
 10
-25.853319164909884
 20
1309.6026035276827
 30
0.0
 11
-25.853319164909884
 21
1737.1026035276825
 31
0.0
  0
POLYLINE
  5
35B
100
AcDbEntity
  8
IMPORTED
  6
CONTINUOUS
 62
              30
100
AcDb2dPolyline
 66
               1
 10
0.0
 20
0.0
 30
0.0
 70
             128
  0
VERTEX
  5
35C
100
AcDbEntity
  8
IMPORTED
  6
CONTINUOUS
 62
              30
100
AcDbVertex
100
AcDb2dVertex
 10
119.14658083509011
 20
999.60260352768262
 30
0.0
  0
VERTEX
  5
35D
100
AcDbEntity
  8
IMPORTED
  6
CONTINUOUS
 62
              30
100
AcDbVertex
100
AcDb2dVertex
 10
119.14658083509011
 20
-962.89739647231715
 30
0.0
  0
VERTEX
  5
35E
100
AcDbEntity
  8
IMPORTED
  6
CONTINUOUS
 62
              30
100
AcDbVertex
100
AcDb2dVertex
 10
-30.853419164909887
 20
-962.89739647231715
 30
0.0
  0
VERTEX
  5
35F
100
AcDbEntity
  8
IMPORTED
  6
CONTINUOUS
 62
              30
100
AcDbVertex
100
AcDb2dVertex
 10
-30.853419164909887
 20
999.60260352768262
 30
0.0
  0
SEQEND
  5
360
100
AcDbEntity
  8
IMPORTED
  6
CONTINUOUS
 62
              30
  0
LINE
  5
361
100
AcDbEntity
  8
IMPORTED
  6
CONTINUOUS
 62
              30
100
AcDbLine
 10
114.14658083509011
 20
999.60260352768262
 30
0.0
 11
114.14658083509011
 21
-962.89739647231715
 31
0.0
  0
POLYLINE
  5
362
100
AcDbEntity
  8
IMPORTED
  6
CONTINUOUS
 62
              30
100
AcDb2dPolyline
 66
               1
 10
0.0
 20
0.0
 30
0.0
 70
             129
  0
VERTEX
  5
363
100
AcDbEntity
  8
IMPORTED
  6
CONTINUOUS
 62
              30
100
AcDbVertex
100
AcDb2dVertex
 10
-1698.8533191649096
 20
1492.1026035276827
 30
0.0
  0
VERTEX
  5
364
100
AcDbEntity
  8
IMPORTED
  6
CONTINUOUS
 62
              30
100
AcDbVertex
100
AcDb2dVertex
 10
-1695.8533191649096
 20
1495.1026035276827
 30
0.0
  0
VERTEX
  5
365
100
AcDbEntity
  8
IMPORTED
  6
CONTINUOUS
 62
              30
100
AcDbVertex
100
AcDb2dVertex
 10
-1695.8533191649096
 20
1634.1026035276825
 30
0.0
  0
VERTEX
  5
366
100
AcDbEntity
  8
IMPORTED
  6
CONTINUOUS
 62
              30
100
AcDbVertex
100
AcDb2dVertex
 10
-1698.8533191649096
 20
1637.1026035276825
 30
0.0
  0
VERTEX
  5
367
100
AcDbEntity
  8
IMPORTED
  6
CONTINUOUS
 62
              30
100
AcDbVertex
100
AcDb2dVertex
 10
-2552.9962191649097
 20
1637.1026035276825
 30
0.0
  0
VERTEX
  5
368
100
AcDbEntity
  8
IMPORTED
  6
CONTINUOUS
 62
              30
100
AcDbVertex
100
AcDb2dVertex
 10
-2695.8533191649099
 20
1564.6026035276827
 30
0.0
  0
VERTEX
  5
369
100
AcDbEntity
  8
IMPORTED
  6
CONTINUOUS
 62
              30
100
AcDbVertex
100
AcDb2dVertex
 10
-2552.9962191649097
 20
1492.1026035276827
 30
0.0
  0
SEQEND
  5
36A
100
AcDbEntity
  8
IMPORTED
  6
CONTINUOUS
 62
              30
  0
POLYLINE
  5
36B
100
AcDbEntity
  8
IMPORTED
  6
CONTINUOUS
 62
              30
100
AcDb2dPolyline
 66
               1
 10
0.0
 20
0.0
 30
0.0
 70
             129
  0
VERTEX
  5
36C
100
AcDbEntity
  8
IMPORTED
  6
CONTINUOUS
 62
              30
100
AcDbVertex
100
AcDb2dVertex
 10
-2592.8533191649099
 20
1327.1026035276827
 30
0.0
  0
VERTEX
  5
36D
100
AcDbEntity
  8
IMPORTED
  6
CONTINUOUS
 62
              30
100
AcDbVertex
100
AcDb2dVertex
 10
-2595.8533191649099
 20
1330.1026035276827
 30
0.0
  0
VERTEX
  5
36E
100
AcDbEntity
  8
IMPORTED
  6
CONTINUOUS
 62
              30
100
AcDbVertex
100
AcDb2dVertex
 10
-2595.8533191649099
 20
1469.1026035276827
 30
0.0
  0
VERTEX
  5
36F
100
AcDbEntity
  8
IMPORTED
  6
CONTINUOUS
 62
              30
100
AcDbVertex
100
AcDb2dVertex
 10
-2592.8533191649099
 20
1472.1026035276827
 30
0.0
  0
VERTEX
  5
370
100
AcDbEntity
  8
IMPORTED
  6
CONTINUOUS
 62
              30
100
AcDbVertex
100
AcDb2dVertex
 10
-1738.7104191649098
 20
1472.1026035276827
 30
0.0
  0
VERTEX
  5
371
100
AcDbEntity
  8
IMPORTED
  6
CONTINUOUS
 62
              30
100
AcDbVertex
100
AcDb2dVertex
 10
-1595.8533191649096
 20
1399.6026035276827
 30
0.0
  0
VERTEX
  5
372
100
AcDbEntity
  8
IMPORTED
  6
CONTINUOUS
 62
              30
100
AcDbVertex
100
AcDb2dVertex
 10
-1738.7104191649098
 20
1327.1026035276827
 30
0.0
  0
SEQEND
  5
373
100
AcDbEntity
  8
IMPORTED
  6
CONTINUOUS
 62
              30
  0
LINE
  5
374
100
AcDbEntity
  8
IMPORTED
  6
CONTINUOUS
 62
              30
100
AcDbLine
 10
-2220.8533191649099
 20
1472.1026035276827
 30
0.0
 11
-2220.8533191649099
 21
1492.1026035276827
 31
0.0
  0
LINE
  5
375
100
AcDbEntity
  8
IMPORTED
  6
CONTINUOUS
 62
              30
100
AcDbLine
 10
-2215.8533191649099
 20
1472.1026035276827
 30
0.0
 11
-2215.8533191649099
 21
1492.1026035276827
 31
0.0
  0
LINE
  5
376
100
AcDbEntity
  8
IMPORTED
  6
CONTINUOUS
 62
              30
100
AcDbLine
 10
-2070.8533191649099
 20
1492.1026035276827
 30
0.0
 11
-2070.8533191649099
 21
1472.1026035276827
 31
0.0
  0
LINE
  5
377
100
AcDbEntity
  8
IMPORTED
  6
CONTINUOUS
 62
              30
100
AcDbLine
 10
-2075.8533191649099
 20
1492.1026035276827
 30
0.0
 11
-2075.8533191649099
 21
1472.1026035276827
 31
0.0
  0
LINE
  5
378
100
AcDbEntity
  8
IMPORTED
  6
STYLE_05
 62
              30
100
AcDbLine
 10
-2220.8533191649099
 20
1637.1026035276825
 30
0.0
 11
-2220.8533191649099
 21
1492.1026035276827
 31
0.0
  0
LINE
  5
379
100
AcDbEntity
  8
IMPORTED
  6
STYLE_05
 62
              30
100
AcDbLine
 10
-2215.8533191649099
 20
1637.1026035276825
 30
0.0
 11
-2215.8533191649099
 21
1492.1026035276827
 31
0.0
  0
LINE
  5
37A
100
AcDbEntity
  8
IMPORTED
  6
STYLE_05
 62
              30
100
AcDbLine
 10
-2070.8533191649099
 20
1637.1026035276825
 30
0.0
 11
-2070.8533191649099
 21
1492.1026035276827
 31
0.0
  0
LINE
  5
37B
100
AcDbEntity
  8
IMPORTED
  6
STYLE_05
 62
              30
100
AcDbLine
 10
-2075.8533191649099
 20
1637.1026035276825
 30
0.0
 11
-2075.8533191649099
 21
1492.1026035276827
 31
0.0
  0
LINE
  5
37C
100
AcDbEntity
  8
IMPORTED
  6
STYLE_05
 62
              30
100
AcDbLine
 10
-2215.8533191649099
 20
1472.1026035276827
 30
0.0
 11
-2215.8533191649099
 21
1327.1026035276827
 31
0.0
  0
LINE
  5
37D
100
AcDbEntity
  8
IMPORTED
  6
STYLE_05
 62
              30
100
AcDbLine
 10
-2220.8533191649099
 20
1472.1026035276827
 30
0.0
 11
-2220.8533191649099
 21
1327.1026035276827
 31
0.0
  0
LINE
  5
37E
100
AcDbEntity
  8
IMPORTED
  6
STYLE_05
 62
              30
100
AcDbLine
 10
-2070.8533191649099
 20
1472.1026035276827
 30
0.0
 11
-2070.8533191649099
 21
1327.1026035276827
 31
0.0
  0
LINE
  5
37F
100
AcDbEntity
  8
IMPORTED
  6
STYLE_05
 62
              30
100
AcDbLine
 10
-2075.8533191649099
 20
1472.1026035276827
 30
0.0
 11
-2075.8533191649099
 21
1327.1026035276827
 31
0.0
  0
LINE
  5
380
100
AcDbEntity
  8
IMPORTED
  6
CONTINUOUS
 62
              30
100
AcDbLine
 10
-1698.8533191649096
 20
1637.1026035276825
 30
0.0
 11
-1698.8533191649096
 21
1492.1026035276827
 31
0.0
  0
LINE
  5
381
100
AcDbEntity
  8
IMPORTED
  6
CONTINUOUS
 62
              30
100
AcDbLine
 10
-1695.8533191649096
 20
1495.1026035276827
 30
0.0
 11
-2552.9075191649099
 21
1495.1026035276827
 31
0.0
  0
LINE
  5
382
100
AcDbEntity
  8
IMPORTED
  6
CONTINUOUS
 62
              30
100
AcDbLine
 10
-2689.8533191649099
 20
1564.6026035276827
 30
0.0
 11
-2552.9075191649099
 21
1495.1026035276827
 31
0.0
  0
LINE
  5
383
100
AcDbEntity
  8
IMPORTED
  6
CONTINUOUS
 62
              30
100
AcDbLine
 10
-1695.8533191649096
 20
1634.1026035276825
 30
0.0
 11
-2552.9075191649099
 21
1634.1026035276825
 31
0.0
  0
LINE
  5
384
100
AcDbEntity
  8
IMPORTED
  6
CONTINUOUS
 62
              30
100
AcDbLine
 10
-2689.8533191649099
 20
1564.6026035276827
 30
0.0
 11
-2552.9075191649099
 21
1634.1026035276825
 31
0.0
  0
LINE
  5
385
100
AcDbEntity
  8
IMPORTED
  6
CONTINUOUS
 62
              30
100
AcDbLine
 10
-2595.8533191649099
 20
1469.1026035276827
 30
0.0
 11
-1738.7991191649096
 21
1469.1026035276827
 31
0.0
  0
LINE
  5
386
100
AcDbEntity
  8
IMPORTED
  6
CONTINUOUS
 62
              30
100
AcDbLine
 10
-2592.8533191649099
 20
1472.1026035276827
 30
0.0
 11
-2592.8533191649099
 21
1327.1026035276827
 31
0.0
  0
LINE
  5
387
100
AcDbEntity
  8
IMPORTED
  6
CONTINUOUS
 62
              30
100
AcDbLine
 10
-2595.8533191649099
 20
1330.1026035276827
 30
0.0
 11
-1738.7991191649096
 21
1330.1026035276827
 31
0.0
  0
LINE
  5
388
100
AcDbEntity
  8
IMPORTED
  6
CONTINUOUS
 62
              30
100
AcDbLine
 10
-1738.7991191649096
 20
1330.1026035276827
 30
0.0
 11
-1601.8533191649096
 21
1399.6026035276827
 31
0.0
  0
LINE
  5
389
100
AcDbEntity
  8
IMPORTED
  6
CONTINUOUS
 62
              30
100
AcDbLine
 10
-1738.7991191649096
 20
1469.1026035276827
 30
0.0
 11
-1601.8533191649096
 21
1399.6026035276827
 31
0.0
  0
POLYLINE
  5
38A
100
AcDbEntity
  8
IMPORTED
  6
CONTINUOUS
 62
              30
100
AcDb2dPolyline
 66
               1
 10
0.0
 20
0.0
 30
0.0
 70
               1
 75
               5
  0
VERTEX
  5
38B
100
AcDbEntity
  8
IMPORTED
  6
CONTINUOUS
 62
              30
100
AcDbVertex
100
AcDb2dVertex
 10
-2048.8533191649099
 20
1307.1026035276827
 30
0.0
  0
VERTEX
  5
38C
100
AcDbEntity
  8
IMPORTED
  6
CONTINUOUS
 62
              30
100
AcDbVertex
100
AcDb2dVertex
 10
-2067.8534191649101
 20
1307.1026035276827
 30
0.0
  0
VERTEX
  5
38D
100
AcDbEntity
  8
IMPORTED
  6
CONTINUOUS
 62
              30
100
AcDbVertex
100
AcDb2dVertex
 10
-2070.8533191649099
 20
1304.1027035276827
 30
0.0
  0
VERTEX
  5
38E
100
AcDbEntity
  8
IMPORTED
  6
CONTINUOUS
 62
              30
100
AcDbVertex
100
AcDb2dVertex
 10
-2070.8533191649099
 20
1165.1026035276827
 30
0.0
  0
VERTEX
  5
38F
100
AcDbEntity
  8
IMPORTED
  6
CONTINUOUS
 62
              30
100
AcDbVertex
100
AcDb2dVertex
 10
-2067.8533191649099
 20
1162.1026035276827
 30
0.0
  0
VERTEX
  5
390
100
AcDbEntity
  8
IMPORTED
  6
CONTINUOUS
 62
              30
100
AcDbVertex
100
AcDb2dVertex
 10
-2048.8533191649099
 20
1162.1026035276827
 30
0.0
  0
VERTEX
  5
391
100
AcDbEntity
  8
IMPORTED
  6
CONTINUOUS
 62
              30
100
AcDbVertex
100
AcDb2dVertex
 10
-2045.8533191649096
 20
1165.1026035276827
 30
0.0
  0
VERTEX
  5
392
100
AcDbEntity
  8
IMPORTED
  6
CONTINUOUS
 62
              30
100
AcDbVertex
100
AcDb2dVertex
 10
-2045.8533191649096
 20
1304.1026035276827
 30
0.0
  0
SEQEND
  5
393
100
AcDbEntity
  8
IMPORTED
  6
CONTINUOUS
 62
              30
  0
POLYLINE
  5
395
100
AcDbEntity
  8
IMPORTED
  6
CONTINUOUS
 62
              30
100
AcDb2dPolyline
 66
               1
 10
0.0
 20
0.0
 30
0.0
 70
               1
 75
               5
  0
VERTEX
  5
396
100
AcDbEntity
  8
IMPORTED
  6
CONTINUOUS
 62
              30
100
AcDbVertex
100
AcDb2dVertex
 10
-2048.8533191649099
 20
1142.1026035276827
 30
0.0
  0
VERTEX
  5
397
100
AcDbEntity
  8
IMPORTED
  6
CONTINUOUS
 62
              30
100
AcDbVertex
100
AcDb2dVertex
 10
-2067.8533191649099
 20
1142.1026035276827
 30
0.0
  0
VERTEX
  5
398
100
AcDbEntity
  8
IMPORTED
  6
CONTINUOUS
 62
              30
100
AcDbVertex
100
AcDb2dVertex
 10
-2070.8533191649099
 20
1139.1026035276827
 30
0.0
  0
VERTEX
  5
399
100
AcDbEntity
  8
IMPORTED
  6
CONTINUOUS
 62
              30
100
AcDbVertex
100
AcDb2dVertex
 10
-2070.8533191649099
 20
1000.1026035276826
 30
0.0
  0
VERTEX
  5
39A
100
AcDbEntity
  8
IMPORTED
  6
CONTINUOUS
 62
              30
100
AcDbVertex
100
AcDb2dVertex
 10
-2067.8533191649099
 20
997.10260352768262
 30
0.0
  0
VERTEX
  5
39B
100
AcDbEntity
  8
IMPORTED
  6
CONTINUOUS
 62
              30
100
AcDbVertex
100
AcDb2dVertex
 10
-2048.8533191649099
 20
997.10260352768262
 30
0.0
  0
VERTEX
  5
39C
100
AcDbEntity
  8
IMPORTED
  6
CONTINUOUS
 62
              30
100
AcDbVertex
100
AcDb2dVertex
 10
-2045.8533191649096
 20
1000.1026035276826
 30
0.0
  0
VERTEX
  5
39D
100
AcDbEntity
  8
IMPORTED
  6
CONTINUOUS
 62
              30
100
AcDbVertex
100
AcDb2dVertex
 10
-2045.8533191649096
 20
1139.1026035276827
 30
0.0
  0
SEQEND
  5
39E
100
AcDbEntity
  8
IMPORTED
  6
CONTINUOUS
 62
              30
  0
LINE
  5
3A0
100
AcDbEntity
  8
IMPORTED
  6
CONTINUOUS
 62
              30
100
AcDbLine
 10
-2070.8533191649099
 20
1304.1027035276827
 30
0.0
 11
-2045.8533191649096
 21
1304.1026035276827
 31
0.0
  0
LINE
  5
3A1
100
AcDbEntity
  8
IMPORTED
  6
CONTINUOUS
 62
              30
100
AcDbLine
 10
-2048.8533191649099
 20
1307.1026035276827
 30
0.0
 11
-2048.8533191649099
 21
1162.1026035276827
 31
0.0
  0
LINE
  5
3A2
100
AcDbEntity
  8
IMPORTED
  6
CONTINUOUS
 62
              30
100
AcDbLine
 10
-2045.8533191649096
 20
1165.1026035276827
 30
0.0
 11
-2070.8533191649099
 21
1165.1026035276827
 31
0.0
  0
LINE
  5
3A3
100
AcDbEntity
  8
IMPORTED
  6
CONTINUOUS
 62
              30
100
AcDbLine
 10
-2067.8533191649099
 20
1162.1026035276827
 30
0.0
 11
-2067.8534191649101
 21
1307.1026035276827
 31
0.0
  0
LINE
  5
3A4
100
AcDbEntity
  8
IMPORTED
  6
CONTINUOUS
 62
              30
100
AcDbLine
 10
-2070.8533191649099
 20
1000.1026035276826
 30
0.0
 11
-2045.8533191649096
 21
1000.1026035276826
 31
0.0
  0
LINE
  5
3A5
100
AcDbEntity
  8
IMPORTED
  6
CONTINUOUS
 62
              30
100
AcDbLine
 10
-2070.8533191649099
 20
1139.1026035276827
 30
0.0
 11
-2045.8533191649096
 21
1139.1026035276827
 31
0.0
  0
LINE
  5
3A6
100
AcDbEntity
  8
IMPORTED
  6
CONTINUOUS
 62
              30
100
AcDbLine
 10
-2048.8533191649099
 20
1142.1026035276827
 30
0.0
 11
-2048.8533191649099
 21
997.10260352768262
 31
0.0
  0
LINE
  5
3A7
100
AcDbEntity
  8
IMPORTED
  6
CONTINUOUS
 62
              30
100
AcDbLine
 10
-2067.8533191649099
 20
997.10260352768262
 30
0.0
 11
-2067.8533191649099
 21
1142.1026035276827
 31
0.0
  0
POLYLINE
  5
3A8
100
AcDbEntity
  8
IMPORTED
  6
CONTINUOUS
 62
              30
100
AcDb2dPolyline
 66
               1
 10
0.0
 20
0.0
 30
0.0
 70
               1
 75
               5
  0
VERTEX
  5
3A9
100
AcDbEntity
  8
IMPORTED
  6
CONTINUOUS
 62
              30
100
AcDbVertex
100
AcDb2dVertex
 10
2471.9999808350899
 20
-284.99999647231726
 30
0.0
  0
VERTEX
  5
3AA
100
AcDbEntity
  8
IMPORTED
  6
CONTINUOUS
 62
              30
100
AcDbVertex
100
AcDb2dVertex
 10
2452.9999808350899
 20
-284.99999647231726
 30
0.0
  0
VERTEX
  5
3AB
100
AcDbEntity
  8
IMPORTED
  6
CONTINUOUS
 62
              30
100
AcDbVertex
100
AcDb2dVertex
 10
2449.9999808350899
 20
-287.99999647231726
 30
0.0
  0
VERTEX
  5
3AC
100
AcDbEntity
  8
IMPORTED
  6
CONTINUOUS
 62
              30
100
AcDbVertex
100
AcDb2dVertex
 10
2449.9999808350899
 20
-1284.9999964723172
 30
0.0
  0
VERTEX
  5
3AD
100
AcDbEntity
  8
IMPORTED
  6
CONTINUOUS
 62
              30
100
AcDbVertex
100
AcDb2dVertex
 10
2474.9999808350899
 20
-1284.9999964723172
 30
0.0
  0
VERTEX
  5
3AE
100
AcDbEntity
  8
IMPORTED
  6
CONTINUOUS
 62
              30
100
AcDbVertex
100
AcDb2dVertex
 10
2474.9999808350899
 20
-287.99999647231726
 30
0.0
  0
SEQEND
  5
3AF
100
AcDbEntity
  8
IMPORTED
  6
CONTINUOUS
 62
              30
  0
POLYLINE
  5
3B1
100
AcDbEntity
  8
IMPORTED
  6
CONTINUOUS
 62
              30
100
AcDb2dPolyline
 66
               1
 10
0.0
 20
0.0
 30
0.0
 70
             129
  0
VERTEX
  5
3B2
100
AcDbEntity
  8
IMPORTED
  6
CONTINUOUS
 62
              30
100
AcDbVertex
100
AcDb2dVertex
 10
2449.9999808350899
 20
-1284.9999964723172
 30
0.0
  0
VERTEX
  5
3B3
100
AcDbEntity
  8
IMPORTED
  6
CONTINUOUS
 62
              30
100
AcDbVertex
100
AcDb2dVertex
 10
2474.9999808350899
 20
-1284.9999964723172
 30
0.0
  0
VERTEX
  5
3B4
100
AcDbEntity
  8
IMPORTED
  6
CONTINUOUS
 62
              30
100
AcDbVertex
100
AcDb2dVertex
 10
2474.9999808350899
 20
-1381.9999964723172
 30
0.0
  0
VERTEX
  5
3B5
100
AcDbEntity
  8
IMPORTED
  6
CONTINUOUS
 62
              30
100
AcDbVertex
100
AcDb2dVertex
 10
2471.9999808350899
 20
-1384.9999964723172
 30
0.0
  0
VERTEX
  5
3B6
100
AcDbEntity
  8
IMPORTED
  6
CONTINUOUS
 62
              30
100
AcDbVertex
100
AcDb2dVertex
 10
2452.9999808350899
 20
-1384.9999964723172
 30
0.0
  0
VERTEX
  5
3B7
100
AcDbEntity
  8
IMPORTED
  6
CONTINUOUS
 62
              30
100
AcDbVertex
100
AcDb2dVertex
 10
2449.9999808350899
 20
-1381.9999964723172
 30
0.0
  0
VERTEX
  5
3B8
100
AcDbEntity
  8
IMPORTED
  6
CONTINUOUS
 62
              30
100
AcDbVertex
100
AcDb2dVertex
 10
2449.9999808350899
 20
-1284.9999964723172
 30
0.0
  0
SEQEND
  5
3B9
100
AcDbEntity
  8
IMPORTED
  6
CONTINUOUS
 62
              30
  0
LINE
  5
3BA
100
AcDbEntity
  8
IMPORTED
  6
CONTINUOUS
 62
              30
100
AcDbLine
 10
2449.9999808350899
 20
-287.99999647231726
 30
0.0
 11
2474.9999808350899
 21
-287.99999647231726
 31
0.0
  0
LINE
  5
3BB
100
AcDbEntity
  8
IMPORTED
  6
CONTINUOUS
 62
              30
100
AcDbLine
 10
2471.9999808350899
 20
-284.99999647231726
 30
0.0
 11
2471.9999808350899
 21
-1384.9999964723172
 31
0.0
  0
LINE
  5
3BC
100
AcDbEntity
  8
IMPORTED
  6
CONTINUOUS
 62
              30
100
AcDbLine
 10
2452.9999808350899
 20
-1384.9999964723172
 30
0.0
 11
2452.9999808350899
 21
-284.99999647231726
 31
0.0
  0
LINE
  5
3BD
100
AcDbEntity
  8
IMPORTED
  6
CONTINUOUS
 62
              30
100
AcDbLine
 10
2449.9999808350899
 20
-1381.9999964723172
 30
0.0
 11
2474.9999808350899
 21
-1381.9999964723172
 31
0.0
  0
POLYLINE
  5
3BE
100
AcDbEntity
  8
IMPORTED
  6
CONTINUOUS
 62
              30
100
AcDb2dPolyline
 66
               1
 10
0.0
 20
0.0
 30
0.0
 70
               1
 75
               5
  0
VERTEX
  5
3BF
100
AcDbEntity
  8
IMPORTED
  6
CONTINUOUS
 62
              30
100
AcDbVertex
100
AcDb2dVertex
 10
1824.9999808350899
 20
-912.99999647231721
 30
0.0
  0
VERTEX
  5
3C0
100
AcDbEntity
  8
IMPORTED
  6
CONTINUOUS
 62
              30
100
AcDbVertex
100
AcDb2dVertex
 10
1824.9999808350899
 20
-931.99999647231721
 30
0.0
  0
VERTEX
  5
3C1
100
AcDbEntity
  8
IMPORTED
  6
CONTINUOUS
 62
              30
100
AcDbVertex
100
AcDb2dVertex
 10
1827.9999808350899
 20
-934.99999647231721
 30
0.0
  0
VERTEX
  5
3C2
100
AcDbEntity
  8
IMPORTED
  6
CONTINUOUS
 62
              30
100
AcDbVertex
100
AcDb2dVertex
 10
2824.9999808350894
 20
-934.99999647231721
 30
0.0
  0
VERTEX
  5
3C3
100
AcDbEntity
  8
IMPORTED
  6
CONTINUOUS
 62
              30
100
AcDbVertex
100
AcDb2dVertex
 10
2824.9999808350894
 20
-909.99999647231721
 30
0.0
  0
VERTEX
  5
3C4
100
AcDbEntity
  8
IMPORTED
  6
CONTINUOUS
 62
              30
100
AcDbVertex
100
AcDb2dVertex
 10
1827.9999808350899
 20
-909.99999647231721
 30
0.0
  0
SEQEND
  5
3C5
100
AcDbEntity
  8
IMPORTED
  6
CONTINUOUS
 62
              30
  0
POLYLINE
  5
3C7
100
AcDbEntity
  8
IMPORTED
  6
CONTINUOUS
 62
              30
100
AcDb2dPolyline
 66
               1
 10
0.0
 20
0.0
 30
0.0
 70
             129
  0
VERTEX
  5
3C8
100
AcDbEntity
  8
IMPORTED
  6
CONTINUOUS
 62
              30
100
AcDbVertex
100
AcDb2dVertex
 10
2824.9999808350894
 20
-934.99999647231721
 30
0.0
  0
VERTEX
  5
3C9
100
AcDbEntity
  8
IMPORTED
  6
CONTINUOUS
 62
              30
100
AcDbVertex
100
AcDb2dVertex
 10
2824.9999808350894
 20
-909.99999647231721
 30
0.0
  0
VERTEX
  5
3CA
100
AcDbEntity
  8
IMPORTED
  6
CONTINUOUS
 62
              30
100
AcDbVertex
100
AcDb2dVertex
 10
2921.9999808350894
 20
-909.99999647231721
 30
0.0
  0
VERTEX
  5
3CB
100
AcDbEntity
  8
IMPORTED
  6
CONTINUOUS
 62
              30
100
AcDbVertex
100
AcDb2dVertex
 10
2924.9999808350894
 20
-912.99999647231721
 30
0.0
  0
VERTEX
  5
3CC
100
AcDbEntity
  8
IMPORTED
  6
CONTINUOUS
 62
              30
100
AcDbVertex
100
AcDb2dVertex
 10
2924.9999808350894
 20
-931.99999647231721
 30
0.0
  0
VERTEX
  5
3CD
100
AcDbEntity
  8
IMPORTED
  6
CONTINUOUS
 62
              30
100
AcDbVertex
100
AcDb2dVertex
 10
2921.9999808350894
 20
-934.99999647231721
 30
0.0
  0
VERTEX
  5
3CE
100
AcDbEntity
  8
IMPORTED
  6
CONTINUOUS
 62
              30
100
AcDbVertex
100
AcDb2dVertex
 10
2824.9999808350894
 20
-934.99999647231721
 30
0.0
  0
SEQEND
  5
3CF
100
AcDbEntity
  8
IMPORTED
  6
CONTINUOUS
 62
              30
  0
LINE
  5
3D0
100
AcDbEntity
  8
IMPORTED
  6
CONTINUOUS
 62
              30
100
AcDbLine
 10
1827.9999808350899
 20
-934.99999647231721
 30
0.0
 11
1827.9999808350899
 21
-909.99999647231721
 31
0.0
  0
LINE
  5
3D1
100
AcDbEntity
  8
IMPORTED
  6
CONTINUOUS
 62
              30
100
AcDbLine
 10
1824.9999808350899
 20
-912.99999647231721
 30
0.0
 11
2924.9999808350894
 21
-912.99999647231721
 31
0.0
  0
LINE
  5
3D2
100
AcDbEntity
  8
IMPORTED
  6
CONTINUOUS
 62
              30
100
AcDbLine
 10
2924.9999808350894
 20
-931.99999647231721
 30
0.0
 11
1824.9999808350899
 21
-931.99999647231721
 31
0.0
  0
LINE
  5
3D3
100
AcDbEntity
  8
IMPORTED
  6
CONTINUOUS
 62
              30
100
AcDbLine
 10
2921.9999808350894
 20
-934.99999647231721
 30
0.0
 11
2921.9999808350894
 21
-909.99999647231721
 31
0.0
  0
MTEXT
  5
3D4
100
AcDbEntity
  8
IMPORTED
 62
              30
100
AcDbMText
 10
-575.60291916490985
 20
-288.22367340981725
 30
0.0
 40
54.2947390625
 41
0.0
 71
               1
 72
               1
  1
▽GL
  7
_______
  0
CIRCLE
  5
3D5
100
AcDbEntity
  8
IMPORTED
  6
CONTINUOUS
 62
              30
100
AcDbCircle
 10
-2090.8533191649099
 20
1607.1026035276825
 30
0.0
 40
6.3000000000001819
  0
POLYLINE
  5
3D6
100
AcDbEntity
  8
IMPORTED
  6
CONTINUOUS
 62
              30
100
AcDb2dPolyline
 66
               1
 10
0.0
 20
0.0
 30
0.0
 70
             129
  0
VERTEX
  5
3D7
100
AcDbEntity
  8
IMPORTED
  6
CONTINUOUS
 62
              30
100
AcDbVertex
100
AcDb2dVertex
 10
-2091.8033191649097
 20
1611.0401035276825
 30
0.0
  0
VERTEX
  5
3D8
100
AcDbEntity
  8
IMPORTED
  6
CONTINUOUS
 62
              30
100
AcDbVertex
100
AcDb2dVertex
 10
-2089.90331916491
 20
1611.0401035276825
 30
0.0
  0
VERTEX
  5
3D9
100
AcDbEntity
  8
IMPORTED
  6
CONTINUOUS
 62
              30
100
AcDbVertex
100
AcDb2dVertex
 10
-2089.90331916491
 20
1609.5463535276826
 30
0.0
 42
0.4142135623731842
 70
               2
  0
VERTEX
  5
3DA
100
AcDbEntity
  8
IMPORTED
  6
CONTINUOUS
 62
              30
100
AcDbVertex
100
AcDb2dVertex
 10
-2088.40956916491
 20
1608.0526035276825
 30
0.0
  0
VERTEX
  5
3DB
100
AcDbEntity
  8
IMPORTED
  6
CONTINUOUS
 62
              30
100
AcDbVertex
100
AcDb2dVertex
 10
-2086.9158191649099
 20
1608.0526035276825
 30
0.0
  0
VERTEX
  5
3DC
100
AcDbEntity
  8
IMPORTED
  6
CONTINUOUS
 62
              30
100
AcDbVertex
100
AcDb2dVertex
 10
-2086.9158191649099
 20
1606.1526035276825
 30
0.0
  0
VERTEX
  5
3DD
100
AcDbEntity
  8
IMPORTED
  6
CONTINUOUS
 62
              30
100
AcDbVertex
100
AcDb2dVertex
 10
-2088.40956916491
 20
1606.1526035276825
 30
0.0
 42
0.4142135623730505
 70
               2
 50
9.3574199307792870E+17
  0
VERTEX
  5
3DE
100
AcDbEntity
  8
IMPORTED
  6
CONTINUOUS
 62
              30
100
AcDbVertex
100
AcDb2dVertex
 10
-2089.90331916491
 20
1604.6588535276824
 30
0.0
  0
VERTEX
  5
3DF
100
AcDbEntity
  8
IMPORTED
  6
CONTINUOUS
 62
              30
100
AcDbVertex
100
AcDb2dVertex
 10
-2089.90331916491
 20
1603.1651035276825
 30
0.0
  0
VERTEX
  5
3E0
100
AcDbEntity
  8
IMPORTED
  6
CONTINUOUS
 62
              30
100
AcDbVertex
100
AcDb2dVertex
 10
-2091.8033191649097
 20
1603.1651035276825
 30
0.0
  0
VERTEX
  5
3E1
100
AcDbEntity
  8
IMPORTED
  6
CONTINUOUS
 62
              30
100
AcDbVertex
100
AcDb2dVertex
 10
-2091.8033191649097
 20
1604.6588535276824
 30
0.0
 42
0.4142135623731842
 70
               2
  0
VERTEX
  5
3E2
100
AcDbEntity
  8
IMPORTED
  6
CONTINUOUS
 62
              30
100
AcDbVertex
100
AcDb2dVertex
 10
-2093.2970691649098
 20
1606.1526035276825
 30
0.0
  0
VERTEX
  5
3E3
100
AcDbEntity
  8
IMPORTED
  6
CONTINUOUS
 62
              30
100
AcDbVertex
100
AcDb2dVertex
 10
-2094.7908191649099
 20
1606.1526035276825
 30
0.0
  0
VERTEX
  5
3E4
100
AcDbEntity
  8
IMPORTED
  6
CONTINUOUS
 62
              30
100
AcDbVertex
100
AcDb2dVertex
 10
-2094.7908191649099
 20
1608.0526035276825
 30
0.0
  0
VERTEX
  5
3E5
100
AcDbEntity
  8
IMPORTED
  6
CONTINUOUS
 62
              30
100
AcDbVertex
100
AcDb2dVertex
 10
-2093.2970691649098
 20
1608.0526035276825
 30
0.0
 42
0.4142135623730505
 70
               2
 50
3.1191399769264294E+17
  0
VERTEX
  5
3E6
100
AcDbEntity
  8
IMPORTED
  6
CONTINUOUS
 62
              30
100
AcDbVertex
100
AcDb2dVertex
 10
-2091.8033191649097
 20
1609.5463535276826
 30
0.0
  0
SEQEND
  5
3E7
100
AcDbEntity
  8
IMPORTED
  6
CONTINUOUS
 62
              30
  0
CIRCLE
  5
3E8
100
AcDbEntity
  8
IMPORTED
  6
CONTINUOUS
 62
              30
100
AcDbCircle
 10
-2200.8533191649099
 20
1522.1026035276827
 30
0.0
 40
6.3000000000001819
  0
POLYLINE
  5
3E9
100
AcDbEntity
  8
IMPORTED
  6
CONTINUOUS
 62
              30
100
AcDb2dPolyline
 66
               1
 10
0.0
 20
0.0
 30
0.0
 70
             129
  0
VERTEX
  5
3EA
100
AcDbEntity
  8
IMPORTED
  6
CONTINUOUS
 62
              30
100
AcDbVertex
100
AcDb2dVertex
 10
-2201.8033191649097
 20
1526.0401035276827
 30
0.0
  0
VERTEX
  5
3EB
100
AcDbEntity
  8
IMPORTED
  6
CONTINUOUS
 62
              30
100
AcDbVertex
100
AcDb2dVertex
 10
-2199.90331916491
 20
1526.0401035276827
 30
0.0
  0
VERTEX
  5
3EC
100
AcDbEntity
  8
IMPORTED
  6
CONTINUOUS
 62
              30
100
AcDbVertex
100
AcDb2dVertex
 10
-2199.90331916491
 20
1524.5463535276829
 30
0.0
 42
0.4142135623731842
 70
               2
  0
VERTEX
  5
3ED
100
AcDbEntity
  8
IMPORTED
  6
CONTINUOUS
 62
              30
100
AcDbVertex
100
AcDb2dVertex
 10
-2198.40956916491
 20
1523.0526035276828
 30
0.0
  0
VERTEX
  5
3EE
100
AcDbEntity
  8
IMPORTED
  6
CONTINUOUS
 62
              30
100
AcDbVertex
100
AcDb2dVertex
 10
-2196.9158191649099
 20
1523.0526035276828
 30
0.0
  0
VERTEX
  5
3EF
100
AcDbEntity
  8
IMPORTED
  6
CONTINUOUS
 62
              30
100
AcDbVertex
100
AcDb2dVertex
 10
-2196.9158191649099
 20
1521.1526035276827
 30
0.0
  0
VERTEX
  5
3F0
100
AcDbEntity
  8
IMPORTED
  6
CONTINUOUS
 62
              30
100
AcDbVertex
100
AcDb2dVertex
 10
-2198.40956916491
 20
1521.1526035276827
 30
0.0
 42
0.4142135623730505
 70
               2
 50
9.3574199307792870E+17
  0
VERTEX
  5
3F1
100
AcDbEntity
  8
IMPORTED
  6
CONTINUOUS
 62
              30
100
AcDbVertex
100
AcDb2dVertex
 10
-2199.90331916491
 20
1519.6588535276826
 30
0.0
  0
VERTEX
  5
3F2
100
AcDbEntity
  8
IMPORTED
  6
CONTINUOUS
 62
              30
100
AcDbVertex
100
AcDb2dVertex
 10
-2199.90331916491
 20
1518.1651035276827
 30
0.0
  0
VERTEX
  5
3F3
100
AcDbEntity
  8
IMPORTED
  6
CONTINUOUS
 62
              30
100
AcDbVertex
100
AcDb2dVertex
 10
-2201.8033191649097
 20
1518.1651035276827
 30
0.0
  0
VERTEX
  5
3F4
100
AcDbEntity
  8
IMPORTED
  6
CONTINUOUS
 62
              30
100
AcDbVertex
100
AcDb2dVertex
 10
-2201.8033191649097
 20
1519.6588535276826
 30
0.0
 42
0.4142135623731842
 70
               2
  0
VERTEX
  5
3F5
100
AcDbEntity
  8
IMPORTED
  6
CONTINUOUS
 62
              30
100
AcDbVertex
100
AcDb2dVertex
 10
-2203.2970691649098
 20
1521.1526035276827
 30
0.0
  0
VERTEX
  5
3F6
100
AcDbEntity
  8
IMPORTED
  6
CONTINUOUS
 62
              30
100
AcDbVertex
100
AcDb2dVertex
 10
-2204.7908191649099
 20
1521.1526035276827
 30
0.0
  0
VERTEX
  5
3F7
100
AcDbEntity
  8
IMPORTED
  6
CONTINUOUS
 62
              30
100
AcDbVertex
100
AcDb2dVertex
 10
-2204.7908191649099
 20
1523.0526035276828
 30
0.0
  0
VERTEX
  5
3F8
100
AcDbEntity
  8
IMPORTED
  6
CONTINUOUS
 62
              30
100
AcDbVertex
100
AcDb2dVertex
 10
-2203.2970691649098
 20
1523.0526035276828
 30
0.0
 42
0.4142135623730505
 70
               2
 50
3.1191399769264294E+17
  0
VERTEX
  5
3F9
100
AcDbEntity
  8
IMPORTED
  6
CONTINUOUS
 62
              30
100
AcDbVertex
100
AcDb2dVertex
 10
-2201.8033191649097
 20
1524.5463535276829
 30
0.0
  0
SEQEND
  5
3FA
100
AcDbEntity
  8
IMPORTED
  6
CONTINUOUS
 62
              30
  0
CIRCLE
  5
3FB
100
AcDbEntity
  8
IMPORTED
  6
CONTINUOUS
 62
              30
100
AcDbCircle
 10
-2090.8533191649099
 20
1442.1026035276825
 30
0.0
 40
6.3000000000001819
  0
POLYLINE
  5
3FC
100
AcDbEntity
  8
IMPORTED
  6
CONTINUOUS
 62
              30
100
AcDb2dPolyline
 66
               1
 10
0.0
 20
0.0
 30
0.0
 70
             129
  0
VERTEX
  5
3FD
100
AcDbEntity
  8
IMPORTED
  6
CONTINUOUS
 62
              30
100
AcDbVertex
100
AcDb2dVertex
 10
-2091.8033191649097
 20
1446.0401035276825
 30
0.0
  0
VERTEX
  5
3FE
100
AcDbEntity
  8
IMPORTED
  6
CONTINUOUS
 62
              30
100
AcDbVertex
100
AcDb2dVertex
 10
-2089.90331916491
 20
1446.0401035276825
 30
0.0
  0
VERTEX
  5
3FF
100
AcDbEntity
  8
IMPORTED
  6
CONTINUOUS
 62
              30
100
AcDbVertex
100
AcDb2dVertex
 10
-2089.90331916491
 20
1444.5463535276826
 30
0.0
 42
0.4142135623731842
 70
               2
  0
VERTEX
  5
400
100
AcDbEntity
  8
IMPORTED
  6
CONTINUOUS
 62
              30
100
AcDbVertex
100
AcDb2dVertex
 10
-2088.40956916491
 20
1443.0526035276825
 30
0.0
  0
VERTEX
  5
401
100
AcDbEntity
  8
IMPORTED
  6
CONTINUOUS
 62
              30
100
AcDbVertex
100
AcDb2dVertex
 10
-2086.9158191649099
 20
1443.0526035276825
 30
0.0
  0
VERTEX
  5
402
100
AcDbEntity
  8
IMPORTED
  6
CONTINUOUS
 62
              30
100
AcDbVertex
100
AcDb2dVertex
 10
-2086.9158191649099
 20
1441.1526035276825
 30
0.0
  0
VERTEX
  5
403
100
AcDbEntity
  8
IMPORTED
  6
CONTINUOUS
 62
              30
100
AcDbVertex
100
AcDb2dVertex
 10
-2088.40956916491
 20
1441.1526035276825
 30
0.0
 42
0.4142135623730505
 70
               2
 50
9.3574199307792870E+17
  0
VERTEX
  5
404
100
AcDbEntity
  8
IMPORTED
  6
CONTINUOUS
 62
              30
100
AcDbVertex
100
AcDb2dVertex
 10
-2089.90331916491
 20
1439.6588535276824
 30
0.0
  0
VERTEX
  5
405
100
AcDbEntity
  8
IMPORTED
  6
CONTINUOUS
 62
              30
100
AcDbVertex
100
AcDb2dVertex
 10
-2089.90331916491
 20
1438.1651035276825
 30
0.0
  0
VERTEX
  5
406
100
AcDbEntity
  8
IMPORTED
  6
CONTINUOUS
 62
              30
100
AcDbVertex
100
AcDb2dVertex
 10
-2091.8033191649097
 20
1438.1651035276825
 30
0.0
  0
VERTEX
  5
407
100
AcDbEntity
  8
IMPORTED
  6
CONTINUOUS
 62
              30
100
AcDbVertex
100
AcDb2dVertex
 10
-2091.8033191649097
 20
1439.6588535276824
 30
0.0
 42
0.4142135623731842
 70
               2
  0
VERTEX
  5
408
100
AcDbEntity
  8
IMPORTED
  6
CONTINUOUS
 62
              30
100
AcDbVertex
100
AcDb2dVertex
 10
-2093.2970691649098
 20
1441.1526035276825
 30
0.0
  0
VERTEX
  5
409
100
AcDbEntity
  8
IMPORTED
  6
CONTINUOUS
 62
              30
100
AcDbVertex
100
AcDb2dVertex
 10
-2094.7908191649099
 20
1441.1526035276825
 30
0.0
  0
VERTEX
  5
40A
100
AcDbEntity
  8
IMPORTED
  6
CONTINUOUS
 62
              30
100
AcDbVertex
100
AcDb2dVertex
 10
-2094.7908191649099
 20
1443.0526035276825
 30
0.0
  0
VERTEX
  5
40B
100
AcDbEntity
  8
IMPORTED
  6
CONTINUOUS
 62
              30
100
AcDbVertex
100
AcDb2dVertex
 10
-2093.2970691649098
 20
1443.0526035276825
 30
0.0
 42
0.4142135623730505
 70
               2
 50
3.1191399769264294E+17
  0
VERTEX
  5
40C
100
AcDbEntity
  8
IMPORTED
  6
CONTINUOUS
 62
              30
100
AcDbVertex
100
AcDb2dVertex
 10
-2091.8033191649097
 20
1444.5463535276826
 30
0.0
  0
SEQEND
  5
40D
100
AcDbEntity
  8
IMPORTED
  6
CONTINUOUS
 62
              30
  0
CIRCLE
  5
40E
100
AcDbEntity
  8
IMPORTED
  6
CONTINUOUS
 62
              30
100
AcDbCircle
 10
-2200.8533191649099
 20
1357.1026035276827
 30
0.0
 40
6.3000000000001819
  0
POLYLINE
  5
40F
100
AcDbEntity
  8
IMPORTED
  6
CONTINUOUS
 62
              30
100
AcDb2dPolyline
 66
               1
 10
0.0
 20
0.0
 30
0.0
 70
             129
  0
VERTEX
  5
410
100
AcDbEntity
  8
IMPORTED
  6
CONTINUOUS
 62
              30
100
AcDbVertex
100
AcDb2dVertex
 10
-2201.8033191649097
 20
1361.0401035276827
 30
0.0
  0
VERTEX
  5
411
100
AcDbEntity
  8
IMPORTED
  6
CONTINUOUS
 62
              30
100
AcDbVertex
100
AcDb2dVertex
 10
-2199.90331916491
 20
1361.0401035276827
 30
0.0
  0
VERTEX
  5
412
100
AcDbEntity
  8
IMPORTED
  6
CONTINUOUS
 62
              30
100
AcDbVertex
100
AcDb2dVertex
 10
-2199.90331916491
 20
1359.5463535276829
 30
0.0
 42
0.4142135623731842
 70
               2
  0
VERTEX
  5
413
100
AcDbEntity
  8
IMPORTED
  6
CONTINUOUS
 62
              30
100
AcDbVertex
100
AcDb2dVertex
 10
-2198.40956916491
 20
1358.0526035276828
 30
0.0
  0
VERTEX
  5
414
100
AcDbEntity
  8
IMPORTED
  6
CONTINUOUS
 62
              30
100
AcDbVertex
100
AcDb2dVertex
 10
-2196.9158191649099
 20
1358.0526035276828
 30
0.0
  0
VERTEX
  5
415
100
AcDbEntity
  8
IMPORTED
  6
CONTINUOUS
 62
              30
100
AcDbVertex
100
AcDb2dVertex
 10
-2196.9158191649099
 20
1356.1526035276827
 30
0.0
  0
VERTEX
  5
416
100
AcDbEntity
  8
IMPORTED
  6
CONTINUOUS
 62
              30
100
AcDbVertex
100
AcDb2dVertex
 10
-2198.40956916491
 20
1356.1526035276827
 30
0.0
 42
0.4142135623730505
 70
               2
 50
9.3574199307792870E+17
  0
VERTEX
  5
417
100
AcDbEntity
  8
IMPORTED
  6
CONTINUOUS
 62
              30
100
AcDbVertex
100
AcDb2dVertex
 10
-2199.90331916491
 20
1354.6588535276826
 30
0.0
  0
VERTEX
  5
418
100
AcDbEntity
  8
IMPORTED
  6
CONTINUOUS
 62
              30
100
AcDbVertex
100
AcDb2dVertex
 10
-2199.90331916491
 20
1353.1651035276827
 30
0.0
  0
VERTEX
  5
419
100
AcDbEntity
  8
IMPORTED
  6
CONTINUOUS
 62
              30
100
AcDbVertex
100
AcDb2dVertex
 10
-2201.8033191649097
 20
1353.1651035276827
 30
0.0
  0
VERTEX
  5
41A
100
AcDbEntity
  8
IMPORTED
  6
CONTINUOUS
 62
              30
100
AcDbVertex
100
AcDb2dVertex
 10
-2201.8033191649097
 20
1354.6588535276826
 30
0.0
 42
0.4142135623731842
 70
               2
  0
VERTEX
  5
41B
100
AcDbEntity
  8
IMPORTED
  6
CONTINUOUS
 62
              30
100
AcDbVertex
100
AcDb2dVertex
 10
-2203.2970691649098
 20
1356.1526035276827
 30
0.0
  0
VERTEX
  5
41C
100
AcDbEntity
  8
IMPORTED
  6
CONTINUOUS
 62
              30
100
AcDbVertex
100
AcDb2dVertex
 10
-2204.7908191649099
 20
1356.1526035276827
 30
0.0
  0
VERTEX
  5
41D
100
AcDbEntity
  8
IMPORTED
  6
CONTINUOUS
 62
              30
100
AcDbVertex
100
AcDb2dVertex
 10
-2204.7908191649099
 20
1358.0526035276828
 30
0.0
  0
VERTEX
  5
41E
100
AcDbEntity
  8
IMPORTED
  6
CONTINUOUS
 62
              30
100
AcDbVertex
100
AcDb2dVertex
 10
-2203.2970691649098
 20
1358.0526035276828
 30
0.0
 42
0.4142135623730505
 70
               2
 50
3.1191399769264294E+17
  0
VERTEX
  5
41F
100
AcDbEntity
  8
IMPORTED
  6
CONTINUOUS
 62
              30
100
AcDbVertex
100
AcDb2dVertex
 10
-2201.8033191649097
 20
1359.5463535276829
 30
0.0
  0
SEQEND
  5
420
100
AcDbEntity
  8
IMPORTED
  6
CONTINUOUS
 62
              30
  0
CIRCLE
  5
421
100
AcDbEntity
  8
IMPORTED
  6
CONTINUOUS
 62
              30
100
AcDbCircle
 10
99.146580835090106
 20
1277.1026035276827
 30
0.0
 40
6.2999999999999972
  0
POLYLINE
  5
422
100
AcDbEntity
  8
IMPORTED
  6
CONTINUOUS
 62
              30
100
AcDb2dPolyline
 66
               1
 10
0.0
 20
0.0
 30
0.0
 70
             129
  0
VERTEX
  5
423
100
AcDbEntity
  8
IMPORTED
  6
CONTINUOUS
 62
              30
100
AcDbVertex
100
AcDb2dVertex
 10
98.196580835090103
 20
1281.0401035276827
 30
0.0
  0
VERTEX
  5
424
100
AcDbEntity
  8
IMPORTED
  6
CONTINUOUS
 62
              30
100
AcDbVertex
100
AcDb2dVertex
 10
100.09658083509011
 20
1281.0401035276827
 30
0.0
  0
VERTEX
  5
425
100
AcDbEntity
  8
IMPORTED
  6
CONTINUOUS
 62
              30
100
AcDbVertex
100
AcDb2dVertex
 10
100.09658083509011
 20
1279.5463535276829
 30
0.0
 42
0.4142135623730867
 70
               2
  0
VERTEX
  5
426
100
AcDbEntity
  8
IMPORTED
  6
CONTINUOUS
 62
              30
100
AcDbVertex
100
AcDb2dVertex
 10
101.59033083509011
 20
1278.0526035276828
 30
0.0
  0
VERTEX
  5
427
100
AcDbEntity
  8
IMPORTED
  6
CONTINUOUS
 62
              30
100
AcDbVertex
100
AcDb2dVertex
 10
103.08408083509011
 20
1278.0526035276828
 30
0.0
  0
VERTEX
  5
428
100
AcDbEntity
  8
IMPORTED
  6
CONTINUOUS
 62
              30
100
AcDbVertex
100
AcDb2dVertex
 10
103.08408083509011
 20
1276.1526035276827
 30
0.0
  0
VERTEX
  5
429
100
AcDbEntity
  8
IMPORTED
  6
CONTINUOUS
 62
              30
100
AcDbVertex
100
AcDb2dVertex
 10
101.59033083509011
 20
1276.1526035276827
 30
0.0
 42
0.414213562373095
 70
               2
 50
9.3574199307792870E+17
  0
VERTEX
  5
42A
100
AcDbEntity
  8
IMPORTED
  6
CONTINUOUS
 62
              30
100
AcDbVertex
100
AcDb2dVertex
 10
100.09658083509011
 20
1274.6588535276826
 30
0.0
  0
VERTEX
  5
42B
100
AcDbEntity
  8
IMPORTED
  6
CONTINUOUS
 62
              30
100
AcDbVertex
100
AcDb2dVertex
 10
100.09658083509011
 20
1273.1651035276827
 30
0.0
  0
VERTEX
  5
42C
100
AcDbEntity
  8
IMPORTED
  6
CONTINUOUS
 62
              30
100
AcDbVertex
100
AcDb2dVertex
 10
98.196580835090103
 20
1273.1651035276827
 30
0.0
  0
VERTEX
  5
42D
100
AcDbEntity
  8
IMPORTED
  6
CONTINUOUS
 62
              30
100
AcDbVertex
100
AcDb2dVertex
 10
98.196580835090103
 20
1274.6588535276826
 30
0.0
 42
0.4142135623730867
 70
               2
  0
VERTEX
  5
42E
100
AcDbEntity
  8
IMPORTED
  6
CONTINUOUS
 62
              30
100
AcDbVertex
100
AcDb2dVertex
 10
96.702830835090097
 20
1276.1526035276827
 30
0.0
  0
VERTEX
  5
42F
100
AcDbEntity
  8
IMPORTED
  6
CONTINUOUS
 62
              30
100
AcDbVertex
100
AcDb2dVertex
 10
95.209080835090106
 20
1276.1526035276827
 30
0.0
  0
VERTEX
  5
430
100
AcDbEntity
  8
IMPORTED
  6
CONTINUOUS
 62
              30
100
AcDbVertex
100
AcDb2dVertex
 10
95.209080835090106
 20
1278.0526035276828
 30
0.0
  0
VERTEX
  5
431
100
AcDbEntity
  8
IMPORTED
  6
CONTINUOUS
 62
              30
100
AcDbVertex
100
AcDb2dVertex
 10
96.702830835090097
 20
1278.0526035276828
 30
0.0
 42
0.414213562373095
 70
               2
 50
3.1191399769264294E+17
  0
VERTEX
  5
432
100
AcDbEntity
  8
IMPORTED
  6
CONTINUOUS
 62
              30
100
AcDbVertex
100
AcDb2dVertex
 10
98.196580835090103
 20
1279.5463535276829
 30
0.0
  0
SEQEND
  5
433
100
AcDbEntity
  8
IMPORTED
  6
CONTINUOUS
 62
              30
  0
CIRCLE
  5
434
100
AcDbEntity
  8
IMPORTED
  6
CONTINUOUS
 62
              30
100
AcDbCircle
 10
-10.853419164909885
 20
1192.1026035276827
 30
0.0
 40
6.3000000000000007
  0
POLYLINE
  5
435
100
AcDbEntity
  8
IMPORTED
  6
CONTINUOUS
 62
              30
100
AcDb2dPolyline
 66
               1
 10
0.0
 20
0.0
 30
0.0
 70
             129
  0
VERTEX
  5
436
100
AcDbEntity
  8
IMPORTED
  6
CONTINUOUS
 62
              30
100
AcDbVertex
100
AcDb2dVertex
 10
-11.803419164909885
 20
1196.0401035276827
 30
0.0
  0
VERTEX
  5
437
100
AcDbEntity
  8
IMPORTED
  6
CONTINUOUS
 62
              30
100
AcDbVertex
100
AcDb2dVertex
 10
-9.9034191649098862
 20
1196.0401035276827
 30
0.0
  0
VERTEX
  5
438
100
AcDbEntity
  8
IMPORTED
  6
CONTINUOUS
 62
              30
100
AcDbVertex
100
AcDb2dVertex
 10
-9.9034191649098862
 20
1194.5463535276829
 30
0.0
 42
0.414213562373086
 70
               2
  0
VERTEX
  5
439
100
AcDbEntity
  8
IMPORTED
  6
CONTINUOUS
 62
              30
100
AcDbVertex
100
AcDb2dVertex
 10
-8.4096691649098876
 20
1193.0526035276828
 30
0.0
  0
VERTEX
  5
43A
100
AcDbEntity
  8
IMPORTED
  6
CONTINUOUS
 62
              30
100
AcDbVertex
100
AcDb2dVertex
 10
-6.9159191649098855
 20
1193.0526035276828
 30
0.0
  0
VERTEX
  5
43B
100
AcDbEntity
  8
IMPORTED
  6
CONTINUOUS
 62
              30
100
AcDbVertex
100
AcDb2dVertex
 10
-6.9159191649098855
 20
1191.1526035276827
 30
0.0
  0
VERTEX
  5
43C
100
AcDbEntity
  8
IMPORTED
  6
CONTINUOUS
 62
              30
100
AcDbVertex
100
AcDb2dVertex
 10
-8.4096691649098876
 20
1191.1526035276827
 30
0.0
 42
0.414213562373095
 70
               2
 50
9.3574199307792870E+17
  0
VERTEX
  5
43D
100
AcDbEntity
  8
IMPORTED
  6
CONTINUOUS
 62
              30
100
AcDbVertex
100
AcDb2dVertex
 10
-9.9034191649098862
 20
1189.6588535276826
 30
0.0
  0
VERTEX
  5
43E
100
AcDbEntity
  8
IMPORTED
  6
CONTINUOUS
 62
              30
100
AcDbVertex
100
AcDb2dVertex
 10
-9.9034191649098862
 20
1188.1651035276827
 30
0.0
  0
VERTEX
  5
43F
100
AcDbEntity
  8
IMPORTED
  6
CONTINUOUS
 62
              30
100
AcDbVertex
100
AcDb2dVertex
 10
-11.803419164909885
 20
1188.1651035276827
 30
0.0
  0
VERTEX
  5
440
100
AcDbEntity
  8
IMPORTED
  6
CONTINUOUS
 62
              30
100
AcDbVertex
100
AcDb2dVertex
 10
-11.803419164909885
 20
1189.6588535276826
 30
0.0
 42
0.414213562373086
 70
               2
  0
VERTEX
  5
441
100
AcDbEntity
  8
IMPORTED
  6
CONTINUOUS
 62
              30
100
AcDbVertex
100
AcDb2dVertex
 10
-13.297169164909883
 20
1191.1526035276827
 30
0.0
  0
VERTEX
  5
442
100
AcDbEntity
  8
IMPORTED
  6
CONTINUOUS
 62
              30
100
AcDbVertex
100
AcDb2dVertex
 10
-14.790919164909885
 20
1191.1526035276827
 30
0.0
  0
VERTEX
  5
443
100
AcDbEntity
  8
IMPORTED
  6
CONTINUOUS
 62
              30
100
AcDbVertex
100
AcDb2dVertex
 10
-14.790919164909885
 20
1193.0526035276828
 30
0.0
  0
VERTEX
  5
444
100
AcDbEntity
  8
IMPORTED
  6
CONTINUOUS
 62
              30
100
AcDbVertex
100
AcDb2dVertex
 10
-13.297169164909883
 20
1193.0526035276828
 30
0.0
 42
0.414213562373095
 70
               2
 50
3.1191399769264294E+17
  0
VERTEX
  5
445
100
AcDbEntity
  8
IMPORTED
  6
CONTINUOUS
 62
              30
100
AcDbVertex
100
AcDb2dVertex
 10
-11.803419164909885
 20
1194.5463535276829
 30
0.0
  0
SEQEND
  5
446
100
AcDbEntity
  8
IMPORTED
  6
CONTINUOUS
 62
              30
  0
LINE
  5
447
100
AcDbEntity
  8
IMPORTED
  6
CONTINUOUS
 62
              30
100
AcDbLine
 10
-30.853419164909887
 20
977.10260352768273
 30
0.0
 11
-30.853419164909887
 21
997.10260352768273
 31
0.0
  0
LINE
  5
448
100
AcDbEntity
  8
IMPORTED
  6
CONTINUOUS
 62
              30
100
AcDbLine
 10
-25.853419164909887
 20
977.10260352768273
 30
0.0
 11
-25.853419164909887
 21
997.10260352768273
 31
0.0
  0
LINE
  5
449
100
AcDbEntity
  8
IMPORTED
  6
CONTINUOUS
 62
              30
100
AcDbLine
 10
-25.853319164909884
 20
977.10260352768273
 30
0.0
 11
-25.853319164909884
 21
997.10260352768273
 31
0.0
  0
LINE
  5
44A
100
AcDbEntity
  8
IMPORTED
  6
CONTINUOUS
 62
              30
100
AcDbLine
 10
-30.853319164909884
 20
977.10260352768273
 30
0.0
 11
-30.853319164909884
 21
997.10260352768273
 31
0.0
  0
CIRCLE
  5
44B
100
AcDbEntity
  8
IMPORTED
  6
CONTINUOUS
 62
              30
100
AcDbCircle
 10
99.146580835090106
 20
1112.1026035276827
 30
0.0
 40
6.2999999999999972
  0
POLYLINE
  5
44C
100
AcDbEntity
  8
IMPORTED
  6
CONTINUOUS
 62
              30
100
AcDb2dPolyline
 66
               1
 10
0.0
 20
0.0
 30
0.0
 70
             129
  0
VERTEX
  5
44D
100
AcDbEntity
  8
IMPORTED
  6
CONTINUOUS
 62
              30
100
AcDbVertex
100
AcDb2dVertex
 10
98.196580835090103
 20
1116.0401035276827
 30
0.0
  0
VERTEX
  5
44E
100
AcDbEntity
  8
IMPORTED
  6
CONTINUOUS
 62
              30
100
AcDbVertex
100
AcDb2dVertex
 10
100.09658083509011
 20
1116.0401035276827
 30
0.0
  0
VERTEX
  5
44F
100
AcDbEntity
  8
IMPORTED
  6
CONTINUOUS
 62
              30
100
AcDbVertex
100
AcDb2dVertex
 10
100.09658083509011
 20
1114.5463535276829
 30
0.0
 42
0.4142135623730867
 70
               2
  0
VERTEX
  5
450
100
AcDbEntity
  8
IMPORTED
  6
CONTINUOUS
 62
              30
100
AcDbVertex
100
AcDb2dVertex
 10
101.59033083509011
 20
1113.0526035276828
 30
0.0
  0
VERTEX
  5
451
100
AcDbEntity
  8
IMPORTED
  6
CONTINUOUS
 62
              30
100
AcDbVertex
100
AcDb2dVertex
 10
103.08408083509011
 20
1113.0526035276828
 30
0.0
  0
VERTEX
  5
452
100
AcDbEntity
  8
IMPORTED
  6
CONTINUOUS
 62
              30
100
AcDbVertex
100
AcDb2dVertex
 10
103.08408083509011
 20
1111.1526035276827
 30
0.0
  0
VERTEX
  5
453
100
AcDbEntity
  8
IMPORTED
  6
CONTINUOUS
 62
              30
100
AcDbVertex
100
AcDb2dVertex
 10
101.59033083509011
 20
1111.1526035276827
 30
0.0
 42
0.414213562373095
 70
               2
 50
9.3574199307792870E+17
  0
VERTEX
  5
454
100
AcDbEntity
  8
IMPORTED
  6
CONTINUOUS
 62
              30
100
AcDbVertex
100
AcDb2dVertex
 10
100.09658083509011
 20
1109.6588535276826
 30
0.0
  0
VERTEX
  5
455
100
AcDbEntity
  8
IMPORTED
  6
CONTINUOUS
 62
              30
100
AcDbVertex
100
AcDb2dVertex
 10
100.09658083509011
 20
1108.1651035276827
 30
0.0
  0
VERTEX
  5
456
100
AcDbEntity
  8
IMPORTED
  6
CONTINUOUS
 62
              30
100
AcDbVertex
100
AcDb2dVertex
 10
98.196580835090103
 20
1108.1651035276827
 30
0.0
  0
VERTEX
  5
457
100
AcDbEntity
  8
IMPORTED
  6
CONTINUOUS
 62
              30
100
AcDbVertex
100
AcDb2dVertex
 10
98.196580835090103
 20
1109.6588535276826
 30
0.0
 42
0.4142135623730867
 70
               2
  0
VERTEX
  5
458
100
AcDbEntity
  8
IMPORTED
  6
CONTINUOUS
 62
              30
100
AcDbVertex
100
AcDb2dVertex
 10
96.702830835090097
 20
1111.1526035276827
 30
0.0
  0
VERTEX
  5
459
100
AcDbEntity
  8
IMPORTED
  6
CONTINUOUS
 62
              30
100
AcDbVertex
100
AcDb2dVertex
 10
95.209080835090106
 20
1111.1526035276827
 30
0.0
  0
VERTEX
  5
45A
100
AcDbEntity
  8
IMPORTED
  6
CONTINUOUS
 62
              30
100
AcDbVertex
100
AcDb2dVertex
 10
95.209080835090106
 20
1113.0526035276828
 30
0.0
  0
VERTEX
  5
45B
100
AcDbEntity
  8
IMPORTED
  6
CONTINUOUS
 62
              30
100
AcDbVertex
100
AcDb2dVertex
 10
96.702830835090097
 20
1113.0526035276828
 30
0.0
 42
0.414213562373095
 70
               2
 50
3.1191399769264294E+17
  0
VERTEX
  5
45C
100
AcDbEntity
  8
IMPORTED
  6
CONTINUOUS
 62
              30
100
AcDbVertex
100
AcDb2dVertex
 10
98.196580835090103
 20
1114.5463535276829
 30
0.0
  0
SEQEND
  5
45D
100
AcDbEntity
  8
IMPORTED
  6
CONTINUOUS
 62
              30
  0
CIRCLE
  5
45E
100
AcDbEntity
  8
IMPORTED
  6
CONTINUOUS
 62
              30
100
AcDbCircle
 10
-10.853419164909885
 20
1027.1026035276827
 30
0.0
 40
6.3000000000000007
  0
POLYLINE
  5
45F
100
AcDbEntity
  8
IMPORTED
  6
CONTINUOUS
 62
              30
100
AcDb2dPolyline
 66
               1
 10
0.0
 20
0.0
 30
0.0
 70
             129
  0
VERTEX
  5
460
100
AcDbEntity
  8
IMPORTED
  6
CONTINUOUS
 62
              30
100
AcDbVertex
100
AcDb2dVertex
 10
-11.803419164909885
 20
1031.0401035276827
 30
0.0
  0
VERTEX
  5
461
100
AcDbEntity
  8
IMPORTED
  6
CONTINUOUS
 62
              30
100
AcDbVertex
100
AcDb2dVertex
 10
-9.9034191649098862
 20
1031.0401035276827
 30
0.0
  0
VERTEX
  5
462
100
AcDbEntity
  8
IMPORTED
  6
CONTINUOUS
 62
              30
100
AcDbVertex
100
AcDb2dVertex
 10
-9.9034191649098862
 20
1029.5463535276829
 30
0.0
 42
0.414213562373086
 70
               2
  0
VERTEX
  5
463
100
AcDbEntity
  8
IMPORTED
  6
CONTINUOUS
 62
              30
100
AcDbVertex
100
AcDb2dVertex
 10
-8.4096691649098876
 20
1028.0526035276828
 30
0.0
  0
VERTEX
  5
464
100
AcDbEntity
  8
IMPORTED
  6
CONTINUOUS
 62
              30
100
AcDbVertex
100
AcDb2dVertex
 10
-6.9159191649098855
 20
1028.0526035276828
 30
0.0
  0
VERTEX
  5
465
100
AcDbEntity
  8
IMPORTED
  6
CONTINUOUS
 62
              30
100
AcDbVertex
100
AcDb2dVertex
 10
-6.9159191649098855
 20
1026.1526035276827
 30
0.0
  0
VERTEX
  5
466
100
AcDbEntity
  8
IMPORTED
  6
CONTINUOUS
 62
              30
100
AcDbVertex
100
AcDb2dVertex
 10
-8.4096691649098876
 20
1026.1526035276827
 30
0.0
 42
0.414213562373095
 70
               2
 50
9.3574199307792870E+17
  0
VERTEX
  5
467
100
AcDbEntity
  8
IMPORTED
  6
CONTINUOUS
 62
              30
100
AcDbVertex
100
AcDb2dVertex
 10
-9.9034191649098862
 20
1024.6588535276826
 30
0.0
  0
VERTEX
  5
468
100
AcDbEntity
  8
IMPORTED
  6
CONTINUOUS
 62
              30
100
AcDbVertex
100
AcDb2dVertex
 10
-9.9034191649098862
 20
1023.1651035276827
 30
0.0
  0
VERTEX
  5
469
100
AcDbEntity
  8
IMPORTED
  6
CONTINUOUS
 62
              30
100
AcDbVertex
100
AcDb2dVertex
 10
-11.803419164909885
 20
1023.1651035276827
 30
0.0
  0
VERTEX
  5
46A
100
AcDbEntity
  8
IMPORTED
  6
CONTINUOUS
 62
              30
100
AcDbVertex
100
AcDb2dVertex
 10
-11.803419164909885
 20
1024.6588535276826
 30
0.0
 42
0.414213562373086
 70
               2
  0
VERTEX
  5
46B
100
AcDbEntity
  8
IMPORTED
  6
CONTINUOUS
 62
              30
100
AcDbVertex
100
AcDb2dVertex
 10
-13.297169164909883
 20
1026.1526035276827
 30
0.0
  0
VERTEX
  5
46C
100
AcDbEntity
  8
IMPORTED
  6
CONTINUOUS
 62
              30
100
AcDbVertex
100
AcDb2dVertex
 10
-14.790919164909885
 20
1026.1526035276827
 30
0.0
  0
VERTEX
  5
46D
100
AcDbEntity
  8
IMPORTED
  6
CONTINUOUS
 62
              30
100
AcDbVertex
100
AcDb2dVertex
 10
-14.790919164909885
 20
1028.0526035276828
 30
0.0
  0
VERTEX
  5
46E
100
AcDbEntity
  8
IMPORTED
  6
CONTINUOUS
 62
              30
100
AcDbVertex
100
AcDb2dVertex
 10
-13.297169164909883
 20
1028.0526035276828
 30
0.0
 42
0.414213562373095
 70
               2
 50
3.1191399769264294E+17
  0
VERTEX
  5
46F
100
AcDbEntity
  8
IMPORTED
  6
CONTINUOUS
 62
              30
100
AcDbVertex
100
AcDb2dVertex
 10
-11.803419164909885
 20
1029.5463535276829
 30
0.0
  0
SEQEND
  5
470
100
AcDbEntity
  8
IMPORTED
  6
CONTINUOUS
 62
              30
  0
POLYLINE
  5
471
100
AcDbEntity
  8
IMPORTED
  6
STYLE_05
 62
              30
100
AcDb2dPolyline
 66
               1
 10
0.0
 20
0.0
 30
0.0
 70
               1
 75
               5
  0
VERTEX
  5
472
100
AcDbEntity
  8
IMPORTED
  6
STYLE_05
 62
              30
100
AcDbVertex
100
AcDb2dVertex
 10
2433.2999808350896
 20
-782.99999647231721
 30
0.0
  0
VERTEX
  5
473
100
AcDbEntity
  8
IMPORTED
  6
STYLE_05
 62
              30
100
AcDbVertex
100
AcDb2dVertex
 10
2424.9999808350899
 20
-779.99999647231721
 30
0.0
  0
VERTEX
  5
474
100
AcDbEntity
  8
IMPORTED
  6
STYLE_05
 62
              30
100
AcDbVertex
100
AcDb2dVertex
 10
2433.2999808350896
 20
-776.99999647231721
 30
0.0
  0
VERTEX
  5
475
100
AcDbEntity
  8
IMPORTED
  6
STYLE_05
 62
              30
100
AcDbVertex
100
AcDb2dVertex
 10
2471.6999808350897
 20
-776.99999647231721
 30
0.0
  0
VERTEX
  5
476
100
AcDbEntity
  8
IMPORTED
  6
STYLE_05
 62
              30
100
AcDbVertex
100
AcDb2dVertex
 10
2471.6999808350897
 20
-782.99999647231721
 30
0.0
  0
SEQEND
  5
477
100
AcDbEntity
  8
IMPORTED
  6
STYLE_05
 62
              30
  0
POLYLINE
  5
479
100
AcDbEntity
  8
IMPORTED
  6
STYLE_05
 62
              30
100
AcDb2dPolyline
 66
               1
 10
0.0
 20
0.0
 30
0.0
 70
               1
 75
               5
  0
VERTEX
  5
47A
100
AcDbEntity
  8
IMPORTED
  6
STYLE_05
 62
              30
100
AcDbVertex
100
AcDb2dVertex
 10
2471.6999808350897
 20
-776.99999647231721
 30
0.0
  0
VERTEX
  5
47B
100
AcDbEntity
  8
IMPORTED
  6
STYLE_05
 62
              30
100
AcDbVertex
100
AcDb2dVertex
 10
2474.9999808350899
 20
-773.69999647231703
 30
0.0
  0
VERTEX
  5
47C
100
AcDbEntity
  8
IMPORTED
  6
STYLE_05
 62
              30
100
AcDbVertex
100
AcDb2dVertex
 10
2474.9999808350899
 20
-786.29999647231739
 30
0.0
  0
VERTEX
  5
47D
100
AcDbEntity
  8
IMPORTED
  6
STYLE_05
 62
              30
100
AcDbVertex
100
AcDb2dVertex
 10
2471.6999808350897
 20
-782.99999647231721
 30
0.0
  0
SEQEND
  5
47E
100
AcDbEntity
  8
IMPORTED
  6
STYLE_05
 62
              30
  0
POLYLINE
  5
480
100
AcDbEntity
  8
IMPORTED
  6
STYLE_05
 62
              30
100
AcDb2dPolyline
 66
               1
 10
0.0
 20
0.0
 30
0.0
 70
               1
 75
               5
  0
VERTEX
  5
481
100
AcDbEntity
  8
IMPORTED
  6
STYLE_05
 62
              30
100
AcDbVertex
100
AcDb2dVertex
 10
2433.2999808350896
 20
-886.99999647231721
 30
0.0
  0
VERTEX
  5
482
100
AcDbEntity
  8
IMPORTED
  6
STYLE_05
 62
              30
100
AcDbVertex
100
AcDb2dVertex
 10
2424.9999808350899
 20
-889.99999647231721
 30
0.0
  0
VERTEX
  5
483
100
AcDbEntity
  8
IMPORTED
  6
STYLE_05
 62
              30
100
AcDbVertex
100
AcDb2dVertex
 10
2433.2999808350896
 20
-892.99999647231721
 30
0.0
  0
VERTEX
  5
484
100
AcDbEntity
  8
IMPORTED
  6
STYLE_05
 62
              30
100
AcDbVertex
100
AcDb2dVertex
 10
2471.6999808350897
 20
-892.99999647231721
 30
0.0
  0
VERTEX
  5
485
100
AcDbEntity
  8
IMPORTED
  6
STYLE_05
 62
              30
100
AcDbVertex
100
AcDb2dVertex
 10
2471.6999808350897
 20
-886.99999647231721
 30
0.0
  0
SEQEND
  5
486
100
AcDbEntity
  8
IMPORTED
  6
STYLE_05
 62
              30
  0
POLYLINE
  5
488
100
AcDbEntity
  8
IMPORTED
  6
STYLE_05
 62
              30
100
AcDb2dPolyline
 66
               1
 10
0.0
 20
0.0
 30
0.0
 70
               1
 75
               5
  0
VERTEX
  5
489
100
AcDbEntity
  8
IMPORTED
  6
STYLE_05
 62
              30
100
AcDbVertex
100
AcDb2dVertex
 10
2471.6999808350897
 20
-892.99999647231721
 30
0.0
  0
VERTEX
  5
48A
100
AcDbEntity
  8
IMPORTED
  6
STYLE_05
 62
              30
100
AcDbVertex
100
AcDb2dVertex
 10
2474.9999808350899
 20
-896.29999647231739
 30
0.0
  0
VERTEX
  5
48B
100
AcDbEntity
  8
IMPORTED
  6
STYLE_05
 62
              30
100
AcDbVertex
100
AcDb2dVertex
 10
2474.9999808350899
 20
-883.69999647231703
 30
0.0
  0
VERTEX
  5
48C
100
AcDbEntity
  8
IMPORTED
  6
STYLE_05
 62
              30
100
AcDbVertex
100
AcDb2dVertex
 10
2471.6999808350897
 20
-886.99999647231721
 30
0.0
  0
SEQEND
  5
48D
100
AcDbEntity
  8
IMPORTED
  6
STYLE_05
 62
              30
  0
POLYLINE
  5
48F
100
AcDbEntity
  8
IMPORTED
  6
STYLE_05
 62
              30
100
AcDb2dPolyline
 66
               1
 10
0.0
 20
0.0
 30
0.0
 70
               1
 75
               5
  0
VERTEX
  5
490
100
AcDbEntity
  8
IMPORTED
  6
STYLE_05
 62
              30
100
AcDbVertex
100
AcDb2dVertex
 10
2322.9999808350899
 20
-893.29999647231693
 30
0.0
  0
VERTEX
  5
491
100
AcDbEntity
  8
IMPORTED
  6
STYLE_05
 62
              30
100
AcDbVertex
100
AcDb2dVertex
 10
2319.9999808350899
 20
-884.99999647231721
 30
0.0
  0
VERTEX
  5
492
100
AcDbEntity
  8
IMPORTED
  6
STYLE_05
 62
              30
100
AcDbVertex
100
AcDb2dVertex
 10
2316.9999808350899
 20
-893.29999647231693
 30
0.0
  0
VERTEX
  5
493
100
AcDbEntity
  8
IMPORTED
  6
STYLE_05
 62
              30
100
AcDbVertex
100
AcDb2dVertex
 10
2316.9999808350899
 20
-931.69999647231703
 30
0.0
  0
VERTEX
  5
494
100
AcDbEntity
  8
IMPORTED
  6
STYLE_05
 62
              30
100
AcDbVertex
100
AcDb2dVertex
 10
2322.9999808350899
 20
-931.69999647231703
 30
0.0
  0
SEQEND
  5
495
100
AcDbEntity
  8
IMPORTED
  6
STYLE_05
 62
              30
  0
POLYLINE
  5
497
100
AcDbEntity
  8
IMPORTED
  6
STYLE_05
 62
              30
100
AcDb2dPolyline
 66
               1
 10
0.0
 20
0.0
 30
0.0
 70
               1
 75
               5
  0
VERTEX
  5
498
100
AcDbEntity
  8
IMPORTED
  6
STYLE_05
 62
              30
100
AcDbVertex
100
AcDb2dVertex
 10
2316.9999808350899
 20
-931.69999647231703
 30
0.0
  0
VERTEX
  5
499
100
AcDbEntity
  8
IMPORTED
  6
STYLE_05
 62
              30
100
AcDbVertex
100
AcDb2dVertex
 10
2313.6999808350897
 20
-934.99999647231721
 30
0.0
  0
VERTEX
  5
49A
100
AcDbEntity
  8
IMPORTED
  6
STYLE_05
 62
              30
100
AcDbVertex
100
AcDb2dVertex
 10
2326.2999808350901
 20
-934.99999647231721
 30
0.0
  0
VERTEX
  5
49B
100
AcDbEntity
  8
IMPORTED
  6
STYLE_05
 62
              30
100
AcDbVertex
100
AcDb2dVertex
 10
2322.9999808350899
 20
-931.69999647231703
 30
0.0
  0
SEQEND
  5
49C
100
AcDbEntity
  8
IMPORTED
  6
STYLE_05
 62
              30
  0
POLYLINE
  5
49E
100
AcDbEntity
  8
IMPORTED
  6
STYLE_05
 62
              30
100
AcDb2dPolyline
 66
               1
 10
0.0
 20
0.0
 30
0.0
 70
               1
 75
               5
  0
VERTEX
  5
49F
100
AcDbEntity
  8
IMPORTED
  6
STYLE_05
 62
              30
100
AcDbVertex
100
AcDb2dVertex
 10
2426.9999808350899
 20
-893.29999647231693
 30
0.0
  0
VERTEX
  5
4A0
100
AcDbEntity
  8
IMPORTED
  6
STYLE_05
 62
              30
100
AcDbVertex
100
AcDb2dVertex
 10
2429.9999808350899
 20
-884.99999647231721
 30
0.0
  0
VERTEX
  5
4A1
100
AcDbEntity
  8
IMPORTED
  6
STYLE_05
 62
              30
100
AcDbVertex
100
AcDb2dVertex
 10
2432.9999808350899
 20
-893.29999647231693
 30
0.0
  0
VERTEX
  5
4A2
100
AcDbEntity
  8
IMPORTED
  6
STYLE_05
 62
              30
100
AcDbVertex
100
AcDb2dVertex
 10
2432.9999808350899
 20
-931.69999647231703
 30
0.0
  0
VERTEX
  5
4A3
100
AcDbEntity
  8
IMPORTED
  6
STYLE_05
 62
              30
100
AcDbVertex
100
AcDb2dVertex
 10
2426.9999808350899
 20
-931.69999647231703
 30
0.0
  0
SEQEND
  5
4A4
100
AcDbEntity
  8
IMPORTED
  6
STYLE_05
 62
              30
  0
POLYLINE
  5
4A6
100
AcDbEntity
  8
IMPORTED
  6
STYLE_05
 62
              30
100
AcDb2dPolyline
 66
               1
 10
0.0
 20
0.0
 30
0.0
 70
               1
 75
               5
  0
VERTEX
  5
4A7
100
AcDbEntity
  8
IMPORTED
  6
STYLE_05
 62
              30
100
AcDbVertex
100
AcDb2dVertex
 10
2432.9999808350899
 20
-931.69999647231703
 30
0.0
  0
VERTEX
  5
4A8
100
AcDbEntity
  8
IMPORTED
  6
STYLE_05
 62
              30
100
AcDbVertex
100
AcDb2dVertex
 10
2436.2999808350901
 20
-934.99999647231721
 30
0.0
  0
VERTEX
  5
4A9
100
AcDbEntity
  8
IMPORTED
  6
STYLE_05
 62
              30
100
AcDbVertex
100
AcDb2dVertex
 10
2423.6999808350897
 20
-934.99999647231721
 30
0.0
  0
VERTEX
  5
4AA
100
AcDbEntity
  8
IMPORTED
  6
STYLE_05
 62
              30
100
AcDbVertex
100
AcDb2dVertex
 10
2426.9999808350899
 20
-931.69999647231703
 30
0.0
  0
SEQEND
  5
4AB
100
AcDbEntity
  8
IMPORTED
  6
STYLE_05
 62
              30
  0
MTEXT
  5
4AD
100
AcDbEntity
  8
IMPORTED
 62
              30
100
AcDbMText
 10
1329.755415860735
 20
-1934.9045335166827
 30
0.0
 40
48.865234375000007
 41
0.0
 71
               1
 72
               1
  1
※特記事項\P・ESWは、木粉50％以上、ポリプロピレン40％以上の配合で、\P  表面をサンディング加工した再生木材「EINスーパーウッド」の略称。\P・ESW塗装は、ESWの表面をアクリルシリコン系水性塗料で仕上げた製品。\P
  7
_______
  0
ENDSEC
  0
SECTION
  2
OBJECTS
  0
DICTIONARY
  5
19
100
AcDbDictionary
  3
ACAD_GROUP
350
1A
  3
ACAD_MLINESTYLE
350
1B
  0
DICTIONARY
  5
1A
102
{ACAD_REACTORS
330
19
102
}
100
AcDbDictionary
  0
DICTIONARY
  5
1B
102
{ACAD_REACTORS
330
19
102
}
100
AcDbDictionary
  3
STANDARD
350
1C
  0
MLINESTYLE
  5
1C
102
{ACAD_REACTORS
330
1B
102
}
100
AcDbMlineStyle
  2
STANDARD
 70
               0
  3

 62
               0
 51
90.0
 52
90.0
 71
               2
 49
0.5
 62
             256
  6
BYLAYER
 49
-0.5
 62
             256
  6
BYLAYER
  0
ENDSEC
  0
EOF
