  0
SECTION
  2
HEADER
  9
$ACADVER
  1
AC1012
  9
$DWGCODEPAGE
  3
dos932
  9
$INSBASE
 10
0.0
 20
0.0
 30
0.0
  9
$EXTMIN
 10
-3893.9999833933507
 20
-2749.0000253850958
 30
0.0
  9
$EXTMAX
 10
3906.0000166066488
 20
2750.9999746149037
 30
0.0
  9
$LIMMIN
 10
0.0
 20
0.0
  9
$LIMMAX
 10
0.0
 20
0.0
  9
$ORTHOMODE
 70
               0
  9
$REGENMODE
 70
               1
  9
$FILLMODE
 70
               1
  9
$QTEXTMODE
 70
               0
  9
$MIRRTEXT
 70
               1
  9
$DRAGMODE
 70
               2
  9
$LTSCALE
 40
101.59999999999999
  9
$OSMODE
 70
               0
  9
$ATTMODE
 70
               1
  9
$TEXTSIZE
 40
0.2
  9
$TRACEWID
 40
1.0
  9
$TEXTSTYLE
  7
STANDARD
  9
$CLAYER
  8
IMPORTED
  9
$CELTYPE
  6
CONTINUOUS
  9
$CECOLOR
 62
             256
  9
$CELTSCALE
 40
1.0
  9
$DELOBJ
 70
               1
  9
$DISPSILH
 70
               0
  9
$DIMSCALE
 40
1.0
  9
$DIMASZ
 40
0.18
  9
$DIMEXO
 40
0.0625
  9
$DIMDLI
 40
0.38
  9
$DIMRND
 40
0.0
  9
$DIMDLE
 40
0.0
  9
$DIMEXE
 40
0.18
  9
$DIMTP
 40
0.0
  9
$DIMTM
 40
0.0
  9
$DIMTXT
 40
0.18
  9
$DIMCEN
 40
0.09
  9
$DIMTSZ
 40
0.0
  9
$DIMTOL
 70
               0
  9
$DIMLIM
 70
               0
  9
$DIMTIH
 70
               1
  9
$DIMTOH
 70
               1
  9
$DIMSE1
 70
               0
  9
$DIMSE2
 70
               0
  9
$DIMTAD
 70
               0
  9
$DIMZIN
 70
               0
  9
$DIMBLK
  1

  9
$DIMASO
 70
               1
  9
$DIMSHO
 70
               1
  9
$DIMPOST
  1

  9
$DIMAPOST
  1

  9
$DIMALT
 70
               0
  9
$DIMALTD
 70
               2
  9
$DIMALTF
 40
25.399999999999999
  9
$DIMLFAC
 40
1.0
  9
$DIMTOFL
 70
               0
  9
$DIMTVP
 40
0.0
  9
$DIMTIX
 70
               0
  9
$DIMSOXD
 70
               0
  9
$DIMSAH
 70
               0
  9
$DIMBLK1
  1

  9
$DIMBLK2
  1

  9
$DIMSTYLE
  2
STANDARD
  9
$DIMCLRD
 70
               0
  9
$DIMCLRE
 70
               0
  9
$DIMCLRT
 70
               0
  9
$DIMTFAC
 40
1.0
  9
$DIMGAP
 40
0.09
  9
$DIMJUST
 70
               0
  9
$DIMSD1
 70
               0
  9
$DIMSD2
 70
               0
  9
$DIMTOLJ
 70
               1
  9
$DIMTZIN
 70
               0
  9
$DIMALTZ
 70
               0
  9
$DIMALTTZ
 70
               0
  9
$DIMFIT
 70
               3
  9
$DIMUPT
 70
               0
  9
$DIMUNIT
 70
               2
  9
$DIMDEC
 70
               4
  9
$DIMTDEC
 70
               4
  9
$DIMALTU
 70
               2
  9
$DIMALTTD
 70
               2
  9
$DIMTXSTY
  7
STANDARD
  9
$DIMAUNIT
 70
               0
  9
$LUNITS
 70
               2
  9
$LUPREC
 70
               4
  9
$SKETCHINC
 40
0.1
  9
$FILLETRAD
 40
0.0
  9
$AUNITS
 70
               0
  9
$AUPREC
 70
               0
  9
$MENU
  1
acad
  9
$ELEVATION
 40
0.0
  9
$PELEVATION
 40
0.0
  9
$THICKNESS
 40
0.0
  9
$LIMCHECK
 70
               0
  9
$BLIPMODE
 70
               0
  9
$CHAMFERA
 40
0.0
  9
$CHAMFERB
 40
0.0
  9
$CHAMFERC
 40
0.0
  9
$CHAMFERD
 40
0.0
  9
$SKPOLY
 70
               0
  9
$TDCREATE
 40
2459227.611909722
  9
$TDUPDATE
 40
2459227.611909722
  9
$TDINDWG
 40
0.0000000000
  9
$TDUSRTIMER
 40
0.0000000000
  9
$USRTIMER
 70
               1
  9
$ANGBASE
 50
0.0
  9
$ANGDIR
 70
               0
  9
$PDMODE
 70
               1
  9
$PDSIZE
 40
-2.0
  9
$PLINEWID
 40
0.0
  9
$COORDS
 70
               0
  9
$SPLFRAME
 70
               0
  9
$SPLINETYPE
 70
               6
  9
$SPLINESEGS
 70
               8
  9
$ATTDIA
 70
               0
  9
$ATTREQ
 70
               1
  9
$HANDLING
 70
               1
  9
$HANDSEED
  5
34A
  9
$SURFTAB1
 70
               6
  9
$SURFTAB2
 70
               6
  9
$SURFTYPE
 70
               6
  9
$SURFU
 70
               6
  9
$SURFV
 70
               6
  9
$UCSNAME
  2

  9
$UCSORG
 10
0.0
 20
0.0
 30
0.0
  9
$UCSXDIR
 10
1.0
 20
0.0
 30
0.0
  9
$UCSYDIR
 10
0.0
 20
1.0
 30
0.0
  9
$PUCSNAME
  2

  9
$PUCSORG
 10
0.0
 20
0.0
 30
0.0
  9
$PUCSXDIR
 10
1.0
 20
0.0
 30
0.0
  9
$PUCSYDIR
 10
0.0
 20
1.0
 30
0.0
  9
$USERI1
 70
               0
  9
$USERI2
 70
               0
  9
$USERI3
 70
               0
  9
$USERI4
 70
               0
  9
$USERI5
 70
               0
  9
$USERR1
 40
0.0
  9
$USERR2
 40
0.0
  9
$USERR3
 40
0.0
  9
$USERR4
 40
0.0
  9
$USERR5
 40
0.0
  9
$WORLDVIEW
 70
               1
  9
$SHADEDGE
 70
               3
  9
$SHADEDIF
 70
              70
  9
$TILEMODE
 70
               1
  9
$MAXACTVP
 70
              64
  9
$PINSBASE
 10
0.0
 20
0.0
 30
0.0
  9
$PLIMCHECK
 70
               0
  9
$PEXTMIN
 10
1.0000000000000000E+20
 20
1.0000000000000000E+20
 30
1.0000000000000000E+20
  9
$PEXTMAX
 10
-1.0000000000000000E+20
 20
-1.0000000000000000E+20
 30
-1.0000000000000000E+20
  9
$PLIMMIN
 10
0.0
 20
0.0
  9
$PLIMMAX
 10
12.0
 20
9.0
  9
$UNITMODE
 70
               0
  9
$VISRETAIN
 70
               0
  9
$PLINEGEN
 70
               1
  9
$PSLTSCALE
 70
               0
  9
$TREEDEPTH
 70
            3020
  9
$PICKSTYLE
 70
               1
  9
$CMLSTYLE
  2
STANDARD
  9
$CMLJUST
 70
               0
  9
$CMLSCALE
 40
1.0
  9
$SAVEIMAGES
 70
               0
  0
ENDSEC
  0
SECTION
  2
CLASSES
  0
CLASS
  1
LWPOLYLINE
  2
AcDbPolyline
  3
"AutoCAD"
 90
    32768
280
               0
281
               1
  0
CLASS
  1
IMAGE
  2
AcDbRasterImage
  3
ISM
 90
    32895
280
               0
281
               1
  0
CLASS
  1
OLE2FRAME
  2
AcDbOle2Frame
  3
""
 90
    32768
280
               0
281
               1
  0
CLASS
  1
HATCH
  2
AcDbHatch
  3
"ACAD_SEDONA"
 90
    32768
280
               0
281
               1
  0
CLASS
  1
DICTIONARYVAR
  2
AcDbDictionaryVar
  3
"AutoCAD"
 90
    32768
280
               0
281
               0
  0
CLASS
  1
RASTERVARIABLES
  2
AcDbRasterVariables
  3
ISM
 90
    32768
280
               0
281
               0
  0
CLASS
  1
IMAGEDEF
  2
AcDbRasterImageDef
  3
ISM
 90
    32768
280
               0
281
               0
  0
CLASS
  1
IMAGEDEF_REACTOR
  2
AcDbRasterImageDefReactor
  3
ISM
 90
    32769
280
               0
281
               0
  0
CLASS
  1
IDBUFFER
  2
AcDbIdBuffer
  3
"Acad"
 90
    32768
280
               0
281
               0
  0
CLASS
  1
SPATIAL_FILTER
  2
AcDbSpatialFilter
  3
"Acad"
 90
    32768
280
               0
281
               0
  0
CLASS
  1
XRECORD
  2
AcDbXrecord
  3
"<Built In>"
 90
    32768
280
               0
281
               0
  0
CLASS
  1
SORTENTSTABLE
  2
AcDbSortentsTable
  3
"AutoCAD"
 90
    32768
280
               0
281
               0
  0
CLASS
  1
LAYER_INDEX
  2
AcDbLayerIndex
  3
"Acad"
 90
    32768
280
               0
281
               0
  0
CLASS
  1
SPATIAL_INDEX
  2
AcDbSpatialIndex
  3
"Acad"
 90
    32768
280
               0
281
               0
  0
CLASS
  1
OBJECT_PTR
  2
CAseDLPNTableRecord
  3
"ASE-LPNTableRecord"
 90
    32769
280
               0
281
               0
  0
CLASS
  1
LAYOUT
  2
AcDbLayout
  3
"AutoCAD 2000"
 90
    32768
280
               0
281
               0
  0
CLASS
  1
PLOTSETTINGS
  2
AcDbPlotSettings
  3
"AutoCAD 2000"
 90
    32768
280
               0
281
               0
  0
CLASS
  1
ACDBDICTIONARYWDFLT
  2
AcDbDictionaryWithDefault
  3
"AutoCAD 2000"
 90
    32768
280
               0
281
               0
  0
CLASS
  1
ACDBPLACEHOLDER
  2
AcDbPlaceHolder
  3
"AutoCAD 2000"
 90
    32768
280
               0
281
               0
  0
ENDSEC
  0
SECTION
  2
TABLES
  0
TABLE
  2
VPORT
  5
7
100
AcDbSymbolTable
 70
               1
  0
VPORT
  5
15
100
AcDbSymbolTableRecord
100
AcDbViewportTableRecord
  2
*ACTIVE
 70
               0
 10
0.0
 20
0.0
 11
1.0
 21
1.0
 12
6.0000166066492966
 22
0.9999746149042039
 13
0.0
 23
0.0
 14
1.0
 24
1.0
 15
0.0
 25
0.0
 16
0.0
 26
0.0
 36
1.0
 17
0.0
 27
0.0
 37
0.0
 40
5500.0
 41
0.688564
 42
50.0
 43
0.0
 44
0.0
 50
0.0
 51
0.0
 71
               0
 72
            2000
 73
               1
 74
               1
 75
               0
 76
               0
 77
               0
 78
               0
  0
ENDTAB
  0
TABLE
  2
LTYPE
  5
4
100
AcDbSymbolTable
 70
              14
  0
LTYPE
  5
11
100
AcDbSymbolTableRecord
100
AcDbLinetypeTableRecord
  2
BYBLOCK
 70
              64
  3

 72
              65
 73
               0
 40
0.0
  0
LTYPE
  5
12
100
AcDbSymbolTableRecord
100
AcDbLinetypeTableRecord
  2
BYLAYER
 70
              64
  3

 72
              65
 73
               0
 40
0.0
  0
LTYPE
  5
13
100
AcDbSymbolTableRecord
100
AcDbLinetypeTableRecord
  2
CONTINUOUS
 70
              64
  3
Solid line
 72
              65
 73
               0
 40
0.0
  0
LTYPE
  5
1E
100
AcDbSymbolTableRecord
100
AcDbLinetypeTableRecord
  2
STYLE_01
 70
               0
  3

 72
              65
 73
               2
 40
0.4166412353515625
 49
0.208282470703125
 74
               0
 49
-0.2083587646484375
 74
               0
  0
LTYPE
  5
1F
100
AcDbSymbolTableRecord
100
AcDbLinetypeTableRecord
  2
STYLE_02
 70
               0
  3

 72
              65
 73
               2
 40
0.694427490234375
 49
0.4860687255859375
 74
               0
 49
-0.2083587646484375
 74
               0
  0
LTYPE
  5
20
100
AcDbSymbolTableRecord
100
AcDbLinetypeTableRecord
  2
STYLE_03
 70
               0
  3

 72
              65
 73
               2
 40
1.25
 49
1.0416412353515625
 74
               0
 49
-0.2083587646484375
 74
               0
  0
LTYPE
  5
21
100
AcDbSymbolTableRecord
100
AcDbLinetypeTableRecord
  2
STYLE_04
 70
               0
  3

 72
              65
 73
               2
 40
1.5277099609375
 49
1.319427490234375
 74
               0
 49
-0.208282470703125
 74
               0
  0
LTYPE
  5
22
100
AcDbSymbolTableRecord
100
AcDbLinetypeTableRecord
  2
STYLE_05
 70
               0
  3

 72
              65
 73
               2
 40
0.208282470703125
 49
0.069427490234375
 74
               0
 49
-0.13885498046875
 74
               0
  0
LTYPE
  5
23
100
AcDbSymbolTableRecord
100
AcDbLinetypeTableRecord
  2
STYLE_06
 70
               0
  3

 72
              65
 73
               4
 40
1.0416412353515625
 49
0.625
 74
               0
 49
-0.208282470703125
 74
               0
 49
0.069427490234375
 74
               0
 49
-0.1389312744140625
 74
               0
  0
LTYPE
  5
24
100
AcDbSymbolTableRecord
100
AcDbLinetypeTableRecord
  2
STYLE_07
 70
               0
  3

 72
              65
 73
               6
 40
1.875
 49
0.625
 74
               0
 49
-0.208282470703125
 74
               0
 49
0.625
 74
               0
 49
-0.2083587646484375
 74
               0
 49
0.069427490234375
 74
               0
 49
-0.1389312744140625
 74
               0
  0
LTYPE
  5
25
100
AcDbSymbolTableRecord
100
AcDbLinetypeTableRecord
  2
STYLE_08
 70
               0
  3

 72
              65
 73
               6
 40
1.25
 49
0.625
 74
               0
 49
-0.208282470703125
 74
               0
 49
0.069427490234375
 74
               0
 49
-0.1389312744140625
 74
               0
 49
0.069427490234375
 74
               0
 49
-0.1389312744140625
 74
               0
  0
LTYPE
  5
26
100
AcDbSymbolTableRecord
100
AcDbLinetypeTableRecord
  2
STYLE_09
 70
               0
  3

 72
              65
 73
               2
 40
0.1476287841796875
 49
0.098419189453125
 74
               0
 49
-0.0492095947265625
 74
               0
  0
LTYPE
  5
27
100
AcDbSymbolTableRecord
100
AcDbLinetypeTableRecord
  2
STYLE_10
 70
               0
  3

 72
              65
 73
               6
 40
5.9375
 49
3.75
 74
               0
 49
-0.2777862548828125
 74
               0
 49
0.694427490234375
 74
               0
 49
-0.2777862548828125
 74
               0
 49
0.625
 74
               0
 49
-0.3125
 74
               0
  0
LTYPE
  5
28
100
AcDbSymbolTableRecord
100
AcDbLinetypeTableRecord
  2
STYLE_11
 70
               0
  3

 72
              65
 73
               2
 40
0.208282470703125
 49
0.069427490234375
 74
               0
 49
-0.13885498046875
 74
               0
  0
ENDTAB
  0
TABLE
  2
LAYER
  5
2
100
AcDbSymbolTable
 70
               2
  0
LAYER
  5
14
100
AcDbSymbolTableRecord
100
AcDbLayerTableRecord
  2
0
 70
               0
 62
               7
  6
CONTINUOUS
  0
LAYER
  5
29
100
AcDbSymbolTableRecord
100
AcDbLayerTableRecord
  2
IMPORTED
 70
               0
 62
               7
  6
CONTINUOUS
  0
ENDTAB
  0
TABLE
  2
STYLE
  5
3
100
AcDbSymbolTable
 70
               2
  0
STYLE
  5
17
100
AcDbSymbolTableRecord
100
AcDbTextStyleTableRecord
  2
STANDARD
 70
               0
 40
0.0
 41
1.0
 50
0.0
 71
               0
 42
0.0
  3
txt
  4
BIGFONT.SHX
  0
STYLE
  5
1D
100
AcDbSymbolTableRecord
100
AcDbTextStyleTableRecord
  2
_______
 70
               0
 40
0.0
 41
1.0
 50
0.0
 71
               0
 42
0.0
  3

  4
ＭＳ ゴシック
1001
ACAD
1000
ＭＳ ゴシック
1071
        0
  0
ENDTAB
  0
TABLE
  2
VIEW
  5
5
100
AcDbSymbolTable
 70
               0
  0
ENDTAB
  0
TABLE
  2
UCS
  5
6
100
AcDbSymbolTable
 70
               0
  0
ENDTAB
  0
TABLE
  2
APPID
  5
8
100
AcDbSymbolTable
 70
               1
  0
APPID
  5
16
100
AcDbSymbolTableRecord
100
AcDbRegAppTableRecord
  2
ACAD
 70
               0
  0
ENDTAB
  0
TABLE
  2
DIMSTYLE
  5
9
100
AcDbSymbolTable
 70
               1
  0
DIMSTYLE
105
18
100
AcDbSymbolTableRecord
100
AcDbDimStyleTableRecord
  2
STANDARD
 70
               0
  3

  4

  5

  6

  7

 40
1.0
 41
0.18
 42
0.0625
 43
0.38
 44
0.18
 45
0.0
 46
0.0
 47
0.0
 48
0.0
 71
               0
 72
               0
 73
               1
 74
               1
 75
               0
 76
               0
 77
               0
 78
               0
140
0.18
141
0.09
142
0.0
143
25.399999999999999
144
1.0
145
0.0
146
1.0
147
0.09
170
               0
171
               2
172
               0
173
               0
174
               0
175
               0
176
               0
177
               0
178
               0
270
               2
271
               4
272
               4
273
               2
274
               2
275
               0
280
               0
281
               0
282
               0
283
               1
284
               0
285
               0
286
               0
287
               3
288
               0
340
17
  0
ENDTAB
  0
TABLE
  2
BLOCK_RECORD
  5
1
100
AcDbSymbolTable
 70
               0
  0
BLOCK_RECORD
  5
A
100
AcDbSymbolTableRecord
100
AcDbBlockTableRecord
  2
*MODEL_SPACE
  0
BLOCK_RECORD
  5
B
100
AcDbSymbolTableRecord
100
AcDbBlockTableRecord
  2
*PAPER_SPACE
  0
ENDTAB
  0
ENDSEC
  0
SECTION
  2
BLOCKS
  0
BLOCK
  5
D
100
AcDbEntity
  8
0
100
AcDbBlockBegin
  2
*MODEL_SPACE
 70
               0
 10
0.0
 20
0.0
 30
0.0
  3
*MODEL_SPACE
  1

  0
ENDBLK
  5
E
100
AcDbEntity
  8
0
100
AcDbBlockEnd
  0
BLOCK
  5
F
100
AcDbEntity
 67
               1
  8
0
100
AcDbBlockBegin
  2
*PAPER_SPACE
 70
               0
 10
0.0
 20
0.0
 30
0.0
  3
*PAPER_SPACE
  1

  0
ENDBLK
  5
10
100
AcDbEntity
 67
               1
  8
0
100
AcDbBlockEnd
  0
ENDSEC
  0
SECTION
  2
ENTITIES
  0
POLYLINE
  5
2A
100
AcDbEntity
  8
IMPORTED
  6
STYLE_11
 62
              30
100
AcDb2dPolyline
 66
               1
 10
0.0
 20
0.0
 30
0.0
 70
             129
  0
VERTEX
  5
2B
100
AcDbEntity
  8
IMPORTED
  6
STYLE_11
 62
              30
100
AcDbVertex
100
AcDb2dVertex
 10
-874.99998339335036
 20
-1162.666625385096
 30
0.0
  0
VERTEX
  5
2C
100
AcDbEntity
  8
IMPORTED
  6
STYLE_11
 62
              30
100
AcDbVertex
100
AcDb2dVertex
 10
-869.99998339335036
 20
-1167.666625385096
 30
0.0
  0
VERTEX
  5
2D
100
AcDbEntity
  8
IMPORTED
  6
STYLE_11
 62
              30
100
AcDbVertex
100
AcDb2dVertex
 10
-869.99998339335036
 20
-1277.6666253850965
 30
0.0
  0
VERTEX
  5
2E
100
AcDbEntity
  8
IMPORTED
  6
STYLE_11
 62
              30
100
AcDbVertex
100
AcDb2dVertex
 10
-874.99998339335036
 20
-1282.6666253850965
 30
0.0
  0
VERTEX
  5
2F
100
AcDbEntity
  8
IMPORTED
  6
STYLE_11
 62
              30
100
AcDbVertex
100
AcDb2dVertex
 10
-984.99998339335082
 20
-1282.6666253850965
 30
0.0
  0
VERTEX
  5
30
100
AcDbEntity
  8
IMPORTED
  6
STYLE_11
 62
              30
100
AcDbVertex
100
AcDb2dVertex
 10
-989.99998339335082
 20
-1277.6666253850965
 30
0.0
  0
VERTEX
  5
31
100
AcDbEntity
  8
IMPORTED
  6
STYLE_11
 62
              30
100
AcDbVertex
100
AcDb2dVertex
 10
-989.99998339335082
 20
-1167.666625385096
 30
0.0
  0
VERTEX
  5
32
100
AcDbEntity
  8
IMPORTED
  6
STYLE_11
 62
              30
100
AcDbVertex
100
AcDb2dVertex
 10
-984.99998339335082
 20
-1162.666625385096
 30
0.0
  0
SEQEND
  5
33
100
AcDbEntity
  8
IMPORTED
  6
STYLE_11
 62
              30
  0
POLYLINE
  5
34
100
AcDbEntity
  8
IMPORTED
  6
STYLE_11
 62
              30
100
AcDb2dPolyline
 66
               1
 10
0.0
 20
0.0
 30
0.0
 70
             129
  0
VERTEX
  5
35
100
AcDbEntity
  8
IMPORTED
  6
STYLE_11
 62
              30
100
AcDbVertex
100
AcDb2dVertex
 10
-875.99998339335036
 20
-1232.6666253850965
 30
0.0
  0
VERTEX
  5
36
100
AcDbEntity
  8
IMPORTED
  6
STYLE_11
 62
              30
100
AcDbVertex
100
AcDb2dVertex
 10
-879.49998339335036
 20
-1227.6666253850965
 30
0.0
  0
VERTEX
  5
37
100
AcDbEntity
  8
IMPORTED
  6
STYLE_11
 62
              30
100
AcDbVertex
100
AcDb2dVertex
 10
-879.49998339335036
 20
-1217.666625385096
 30
0.0
  0
VERTEX
  5
38
100
AcDbEntity
  8
IMPORTED
  6
STYLE_11
 62
              30
100
AcDbVertex
100
AcDb2dVertex
 10
-875.99998339335036
 20
-1212.666625385096
 30
0.0
  0
VERTEX
  5
39
100
AcDbEntity
  8
IMPORTED
  6
STYLE_11
 62
              30
100
AcDbVertex
100
AcDb2dVertex
 10
-875.99998339335036
 20
-1207.666625385096
 30
0.0
  0
VERTEX
  5
3A
100
AcDbEntity
  8
IMPORTED
  6
STYLE_11
 62
              30
100
AcDbVertex
100
AcDb2dVertex
 10
-875.99998339335036
 20
-1201.666625385096
 30
0.0
  0
VERTEX
  5
3B
100
AcDbEntity
  8
IMPORTED
  6
STYLE_11
 62
              30
100
AcDbVertex
100
AcDb2dVertex
 10
-875.99998339335036
 20
-1183.6666253850969
 30
0.0
  0
VERTEX
  5
3C
100
AcDbEntity
  8
IMPORTED
  6
STYLE_11
 62
              30
100
AcDbVertex
100
AcDb2dVertex
 10
-878.99998339335036
 20
-1178.666625385096
 30
0.0
  0
VERTEX
  5
3D
100
AcDbEntity
  8
IMPORTED
  6
STYLE_11
 62
              30
100
AcDbVertex
100
AcDb2dVertex
 10
-878.99998339335036
 20
-1174.666625385096
 30
0.0
  0
VERTEX
  5
3E
100
AcDbEntity
  8
IMPORTED
  6
STYLE_11
 62
              30
100
AcDbVertex
100
AcDb2dVertex
 10
-878.99998339335036
 20
-1174.666625385096
 30
0.0
 42
0.414213562373095
 70
               2
  0
VERTEX
  5
3F
100
AcDbEntity
  8
IMPORTED
  6
STYLE_11
 62
              30
100
AcDbVertex
100
AcDb2dVertex
 10
-881.99998339335036
 20
-1171.666625385096
 30
0.0
  0
VERTEX
  5
40
100
AcDbEntity
  8
IMPORTED
  6
STYLE_11
 62
              30
100
AcDbVertex
100
AcDb2dVertex
 10
-885.99998339335036
 20
-1171.666625385096
 30
0.0
  0
VERTEX
  5
41
100
AcDbEntity
  8
IMPORTED
  6
STYLE_11
 62
              30
100
AcDbVertex
100
AcDb2dVertex
 10
-890.99998339335036
 20
-1168.666625385096
 30
0.0
  0
VERTEX
  5
42
100
AcDbEntity
  8
IMPORTED
  6
STYLE_11
 62
              30
100
AcDbVertex
100
AcDb2dVertex
 10
-908.99998339335036
 20
-1168.666625385096
 30
0.0
  0
VERTEX
  5
43
100
AcDbEntity
  8
IMPORTED
  6
STYLE_11
 62
              30
100
AcDbVertex
100
AcDb2dVertex
 10
-914.99998339335036
 20
-1168.666625385096
 30
0.0
  0
VERTEX
  5
44
100
AcDbEntity
  8
IMPORTED
  6
STYLE_11
 62
              30
100
AcDbVertex
100
AcDb2dVertex
 10
-919.99998339335036
 20
-1168.666625385096
 30
0.0
  0
VERTEX
  5
45
100
AcDbEntity
  8
IMPORTED
  6
STYLE_11
 62
              30
100
AcDbVertex
100
AcDb2dVertex
 10
-924.99998339335036
 20
-1172.166625385096
 30
0.0
  0
VERTEX
  5
46
100
AcDbEntity
  8
IMPORTED
  6
STYLE_11
 62
              30
100
AcDbVertex
100
AcDb2dVertex
 10
-934.99998339335036
 20
-1172.166625385096
 30
0.0
  0
VERTEX
  5
47
100
AcDbEntity
  8
IMPORTED
  6
STYLE_11
 62
              30
100
AcDbVertex
100
AcDb2dVertex
 10
-939.99998339335082
 20
-1168.666625385096
 30
0.0
  0
VERTEX
  5
48
100
AcDbEntity
  8
IMPORTED
  6
STYLE_11
 62
              30
100
AcDbVertex
100
AcDb2dVertex
 10
-944.99998339335082
 20
-1168.666625385096
 30
0.0
  0
VERTEX
  5
49
100
AcDbEntity
  8
IMPORTED
  6
STYLE_11
 62
              30
100
AcDbVertex
100
AcDb2dVertex
 10
-950.99998339335082
 20
-1168.666625385096
 30
0.0
  0
VERTEX
  5
4A
100
AcDbEntity
  8
IMPORTED
  6
STYLE_11
 62
              30
100
AcDbVertex
100
AcDb2dVertex
 10
-968.99998339335082
 20
-1168.666625385096
 30
0.0
  0
VERTEX
  5
4B
100
AcDbEntity
  8
IMPORTED
  6
STYLE_11
 62
              30
100
AcDbVertex
100
AcDb2dVertex
 10
-973.99998339335082
 20
-1171.666625385096
 30
0.0
  0
VERTEX
  5
4C
100
AcDbEntity
  8
IMPORTED
  6
STYLE_11
 62
              30
100
AcDbVertex
100
AcDb2dVertex
 10
-977.99998339335082
 20
-1171.666625385096
 30
0.0
  0
VERTEX
  5
4D
100
AcDbEntity
  8
IMPORTED
  6
STYLE_11
 62
              30
100
AcDbVertex
100
AcDb2dVertex
 10
-977.99998339335082
 20
-1171.666625385096
 30
0.0
 42
0.414213562373095
 70
               2
 50
9.3574199307792870E+17
  0
VERTEX
  5
4E
100
AcDbEntity
  8
IMPORTED
  6
STYLE_11
 62
              30
100
AcDbVertex
100
AcDb2dVertex
 10
-980.99998339335082
 20
-1174.666625385096
 30
0.0
  0
VERTEX
  5
4F
100
AcDbEntity
  8
IMPORTED
  6
STYLE_11
 62
              30
100
AcDbVertex
100
AcDb2dVertex
 10
-980.99998339335082
 20
-1178.666625385096
 30
0.0
  0
VERTEX
  5
50
100
AcDbEntity
  8
IMPORTED
  6
STYLE_11
 62
              30
100
AcDbVertex
100
AcDb2dVertex
 10
-983.99998339335082
 20
-1183.6666253850969
 30
0.0
  0
VERTEX
  5
51
100
AcDbEntity
  8
IMPORTED
  6
STYLE_11
 62
              30
100
AcDbVertex
100
AcDb2dVertex
 10
-983.99998339335082
 20
-1201.666625385096
 30
0.0
  0
VERTEX
  5
52
100
AcDbEntity
  8
IMPORTED
  6
STYLE_11
 62
              30
100
AcDbVertex
100
AcDb2dVertex
 10
-983.99998339335082
 20
-1207.666625385096
 30
0.0
  0
VERTEX
  5
53
100
AcDbEntity
  8
IMPORTED
  6
STYLE_11
 62
              30
100
AcDbVertex
100
AcDb2dVertex
 10
-983.99998339335082
 20
-1212.666625385096
 30
0.0
  0
VERTEX
  5
54
100
AcDbEntity
  8
IMPORTED
  6
STYLE_11
 62
              30
100
AcDbVertex
100
AcDb2dVertex
 10
-980.49998339335082
 20
-1217.666625385096
 30
0.0
  0
VERTEX
  5
55
100
AcDbEntity
  8
IMPORTED
  6
STYLE_11
 62
              30
100
AcDbVertex
100
AcDb2dVertex
 10
-980.49998339335082
 20
-1227.6666253850965
 30
0.0
  0
VERTEX
  5
56
100
AcDbEntity
  8
IMPORTED
  6
STYLE_11
 62
              30
100
AcDbVertex
100
AcDb2dVertex
 10
-983.99998339335082
 20
-1232.6666253850965
 30
0.0
  0
VERTEX
  5
57
100
AcDbEntity
  8
IMPORTED
  6
STYLE_11
 62
              30
100
AcDbVertex
100
AcDb2dVertex
 10
-983.99998339335082
 20
-1237.6666253850965
 30
0.0
  0
VERTEX
  5
58
100
AcDbEntity
  8
IMPORTED
  6
STYLE_11
 62
              30
100
AcDbVertex
100
AcDb2dVertex
 10
-983.99998339335082
 20
-1243.6666253850965
 30
0.0
  0
VERTEX
  5
59
100
AcDbEntity
  8
IMPORTED
  6
STYLE_11
 62
              30
100
AcDbVertex
100
AcDb2dVertex
 10
-983.99998339335082
 20
-1261.666625385096
 30
0.0
  0
VERTEX
  5
5A
100
AcDbEntity
  8
IMPORTED
  6
STYLE_11
 62
              30
100
AcDbVertex
100
AcDb2dVertex
 10
-980.99998339335082
 20
-1266.6666253850965
 30
0.0
  0
VERTEX
  5
5B
100
AcDbEntity
  8
IMPORTED
  6
STYLE_11
 62
              30
100
AcDbVertex
100
AcDb2dVertex
 10
-980.99998339335082
 20
-1270.6666253850965
 30
0.0
  0
VERTEX
  5
5C
100
AcDbEntity
  8
IMPORTED
  6
STYLE_11
 62
              30
100
AcDbVertex
100
AcDb2dVertex
 10
-980.99998339335082
 20
-1270.6666253850965
 30
0.0
 42
0.414213562373095
 70
               2
  0
VERTEX
  5
5D
100
AcDbEntity
  8
IMPORTED
  6
STYLE_11
 62
              30
100
AcDbVertex
100
AcDb2dVertex
 10
-977.99998339335082
 20
-1273.6666253850965
 30
0.0
  0
VERTEX
  5
5E
100
AcDbEntity
  8
IMPORTED
  6
STYLE_11
 62
              30
100
AcDbVertex
100
AcDb2dVertex
 10
-973.99998339335082
 20
-1273.6666253850965
 30
0.0
  0
VERTEX
  5
5F
100
AcDbEntity
  8
IMPORTED
  6
STYLE_11
 62
              30
100
AcDbVertex
100
AcDb2dVertex
 10
-968.99998339335082
 20
-1276.6666253850965
 30
0.0
  0
VERTEX
  5
60
100
AcDbEntity
  8
IMPORTED
  6
STYLE_11
 62
              30
100
AcDbVertex
100
AcDb2dVertex
 10
-950.99998339335082
 20
-1276.6666253850965
 30
0.0
  0
VERTEX
  5
61
100
AcDbEntity
  8
IMPORTED
  6
STYLE_11
 62
              30
100
AcDbVertex
100
AcDb2dVertex
 10
-944.99998339335082
 20
-1276.6666253850965
 30
0.0
  0
VERTEX
  5
62
100
AcDbEntity
  8
IMPORTED
  6
STYLE_11
 62
              30
100
AcDbVertex
100
AcDb2dVertex
 10
-939.99998339335082
 20
-1276.6666253850965
 30
0.0
  0
VERTEX
  5
63
100
AcDbEntity
  8
IMPORTED
  6
STYLE_11
 62
              30
100
AcDbVertex
100
AcDb2dVertex
 10
-934.99998339335036
 20
-1273.1666253850965
 30
0.0
  0
VERTEX
  5
64
100
AcDbEntity
  8
IMPORTED
  6
STYLE_11
 62
              30
100
AcDbVertex
100
AcDb2dVertex
 10
-924.99998339335036
 20
-1273.1666253850965
 30
0.0
  0
VERTEX
  5
65
100
AcDbEntity
  8
IMPORTED
  6
STYLE_11
 62
              30
100
AcDbVertex
100
AcDb2dVertex
 10
-919.99998339335036
 20
-1276.6666253850965
 30
0.0
  0
VERTEX
  5
66
100
AcDbEntity
  8
IMPORTED
  6
STYLE_11
 62
              30
100
AcDbVertex
100
AcDb2dVertex
 10
-914.99998339335036
 20
-1276.6666253850965
 30
0.0
  0
VERTEX
  5
67
100
AcDbEntity
  8
IMPORTED
  6
STYLE_11
 62
              30
100
AcDbVertex
100
AcDb2dVertex
 10
-908.99998339335036
 20
-1276.6666253850965
 30
0.0
  0
VERTEX
  5
68
100
AcDbEntity
  8
IMPORTED
  6
STYLE_11
 62
              30
100
AcDbVertex
100
AcDb2dVertex
 10
-890.99998339335036
 20
-1276.6666253850965
 30
0.0
  0
VERTEX
  5
69
100
AcDbEntity
  8
IMPORTED
  6
STYLE_11
 62
              30
100
AcDbVertex
100
AcDb2dVertex
 10
-885.99998339335036
 20
-1273.6666253850965
 30
0.0
  0
VERTEX
  5
6A
100
AcDbEntity
  8
IMPORTED
  6
STYLE_11
 62
              30
100
AcDbVertex
100
AcDb2dVertex
 10
-881.99998339335036
 20
-1273.6666253850965
 30
0.0
  0
VERTEX
  5
6B
100
AcDbEntity
  8
IMPORTED
  6
STYLE_11
 62
              30
100
AcDbVertex
100
AcDb2dVertex
 10
-881.99998339335036
 20
-1273.6666253850965
 30
0.0
 42
0.414213562373095
 70
               2
 50
3.1191399769264294E+17
  0
VERTEX
  5
6C
100
AcDbEntity
  8
IMPORTED
  6
STYLE_11
 62
              30
100
AcDbVertex
100
AcDb2dVertex
 10
-878.99998339335036
 20
-1270.6666253850965
 30
0.0
  0
VERTEX
  5
6D
100
AcDbEntity
  8
IMPORTED
  6
STYLE_11
 62
              30
100
AcDbVertex
100
AcDb2dVertex
 10
-878.99998339335036
 20
-1266.6666253850965
 30
0.0
  0
VERTEX
  5
6E
100
AcDbEntity
  8
IMPORTED
  6
STYLE_11
 62
              30
100
AcDbVertex
100
AcDb2dVertex
 10
-875.99998339335036
 20
-1261.666625385096
 30
0.0
  0
VERTEX
  5
6F
100
AcDbEntity
  8
IMPORTED
  6
STYLE_11
 62
              30
100
AcDbVertex
100
AcDb2dVertex
 10
-875.99998339335036
 20
-1243.6666253850965
 30
0.0
  0
VERTEX
  5
70
100
AcDbEntity
  8
IMPORTED
  6
STYLE_11
 62
              30
100
AcDbVertex
100
AcDb2dVertex
 10
-875.99998339335036
 20
-1237.6666253850965
 30
0.0
  0
SEQEND
  5
71
100
AcDbEntity
  8
IMPORTED
  6
STYLE_11
 62
              30
  0
POLYLINE
  5
72
100
AcDbEntity
  8
IMPORTED
  6
STYLE_11
 62
              30
100
AcDb2dPolyline
 66
               1
 10
0.0
 20
0.0
 30
0.0
 70
             129
  0
VERTEX
  5
73
100
AcDbEntity
  8
IMPORTED
  6
STYLE_11
 62
              30
100
AcDbVertex
100
AcDb2dVertex
 10
-929.99998339335036
 20
-1172.666625385096
 30
0.0
  0
VERTEX
  5
74
100
AcDbEntity
  8
IMPORTED
  6
STYLE_11
 62
              30
100
AcDbVertex
100
AcDb2dVertex
 10
-975.39998339335045
 20
-1172.666625385096
 30
0.0
  0
VERTEX
  5
75
100
AcDbEntity
  8
IMPORTED
  6
STYLE_11
 62
              30
100
AcDbVertex
100
AcDb2dVertex
 10
-975.39998339335079
 20
-1172.666625385096
 30
0.0
 42
0.414213562373095
 70
               2
 50
9.3574199307792870E+17
  0
VERTEX
  5
76
100
AcDbEntity
  8
IMPORTED
  6
STYLE_11
 62
              30
100
AcDbVertex
100
AcDb2dVertex
 10
-979.99998339335082
 20
-1177.2666253850964
 30
0.0
  0
VERTEX
  5
77
100
AcDbEntity
  8
IMPORTED
  6
STYLE_11
 62
              30
100
AcDbVertex
100
AcDb2dVertex
 10
-979.99998339335082
 20
-1222.6666253850965
 30
0.0
  0
VERTEX
  5
78
100
AcDbEntity
  8
IMPORTED
  6
STYLE_11
 62
              30
100
AcDbVertex
100
AcDb2dVertex
 10
-979.99998339335082
 20
-1268.0666253850966
 30
0.0
  0
VERTEX
  5
79
100
AcDbEntity
  8
IMPORTED
  6
STYLE_11
 62
              30
100
AcDbVertex
100
AcDb2dVertex
 10
-979.99998339335082
 20
-1268.0666253850966
 30
0.0
 42
0.414213562373124
 70
               2
  0
VERTEX
  5
7A
100
AcDbEntity
  8
IMPORTED
  6
STYLE_11
 62
              30
100
AcDbVertex
100
AcDb2dVertex
 10
-975.39998339335045
 20
-1272.6666253850965
 30
0.0
  0
VERTEX
  5
7B
100
AcDbEntity
  8
IMPORTED
  6
STYLE_11
 62
              30
100
AcDbVertex
100
AcDb2dVertex
 10
-929.99998339335036
 20
-1272.6666253850965
 30
0.0
  0
VERTEX
  5
7C
100
AcDbEntity
  8
IMPORTED
  6
STYLE_11
 62
              30
100
AcDbVertex
100
AcDb2dVertex
 10
-884.59998339335073
 20
-1272.6666253850965
 30
0.0
  0
VERTEX
  5
7D
100
AcDbEntity
  8
IMPORTED
  6
STYLE_11
 62
              30
100
AcDbVertex
100
AcDb2dVertex
 10
-884.59998339335073
 20
-1272.6666253850965
 30
0.0
 42
0.4142135623730661
 70
               2
 50
3.1191399769264294E+17
  0
VERTEX
  5
7E
100
AcDbEntity
  8
IMPORTED
  6
STYLE_11
 62
              30
100
AcDbVertex
100
AcDb2dVertex
 10
-879.99998339335036
 20
-1268.0666253850966
 30
0.0
  0
VERTEX
  5
7F
100
AcDbEntity
  8
IMPORTED
  6
STYLE_11
 62
              30
100
AcDbVertex
100
AcDb2dVertex
 10
-879.99998339335036
 20
-1222.6666253850965
 30
0.0
  0
VERTEX
  5
80
100
AcDbEntity
  8
IMPORTED
  6
STYLE_11
 62
              30
100
AcDbVertex
100
AcDb2dVertex
 10
-879.99998339335036
 20
-1177.2666253850964
 30
0.0
  0
VERTEX
  5
81
100
AcDbEntity
  8
IMPORTED
  6
STYLE_11
 62
              30
100
AcDbVertex
100
AcDb2dVertex
 10
-879.99998339335036
 20
-1177.2666253850959
 30
0.0
 42
0.414213562373095
 70
               2
  0
VERTEX
  5
82
100
AcDbEntity
  8
IMPORTED
  6
STYLE_11
 62
              30
100
AcDbVertex
100
AcDb2dVertex
 10
-884.59998339335073
 20
-1172.666625385096
 30
0.0
  0
SEQEND
  5
83
100
AcDbEntity
  8
IMPORTED
  6
STYLE_11
 62
              30
  0
POLYLINE
  5
84
100
AcDbEntity
  8
IMPORTED
  6
STYLE_11
 62
              30
100
AcDb2dPolyline
 66
               1
 10
0.0
 20
0.0
 30
0.0
 70
             129
  0
VERTEX
  5
85
100
AcDbEntity
  8
IMPORTED
  6
STYLE_11
 62
              30
100
AcDbVertex
100
AcDb2dVertex
 10
-884.59998339335073
 20
-1174.9666253850962
 30
0.0
  0
VERTEX
  5
86
100
AcDbEntity
  8
IMPORTED
  6
STYLE_11
 62
              30
100
AcDbVertex
100
AcDb2dVertex
 10
-884.5999833933505
 20
-1174.9666253850962
 30
0.0
 42
-0.4142135623730806
 70
               2
 50
1144904797513215.0
  0
VERTEX
  5
87
100
AcDbEntity
  8
IMPORTED
  6
STYLE_11
 62
              30
100
AcDbVertex
100
AcDb2dVertex
 10
-882.29998339335054
 20
-1177.2666253850964
 30
0.0
  0
VERTEX
  5
88
100
AcDbEntity
  8
IMPORTED
  6
STYLE_11
 62
              30
100
AcDbVertex
100
AcDb2dVertex
 10
-882.29998339335054
 20
-1222.6666253850965
 30
0.0
  0
VERTEX
  5
89
100
AcDbEntity
  8
IMPORTED
  6
STYLE_11
 62
              30
100
AcDbVertex
100
AcDb2dVertex
 10
-882.29998339335054
 20
-1268.0666253850966
 30
0.0
  0
VERTEX
  5
8A
100
AcDbEntity
  8
IMPORTED
  6
STYLE_11
 62
              30
100
AcDbVertex
100
AcDb2dVertex
 10
-882.29998339335054
 20
-1268.0666253850966
 30
0.0
 42
-0.4142135623730371
 70
               2
  0
VERTEX
  5
8B
100
AcDbEntity
  8
IMPORTED
  6
STYLE_11
 62
              30
100
AcDbVertex
100
AcDb2dVertex
 10
-884.59998339335073
 20
-1270.3666253850963
 30
0.0
  0
VERTEX
  5
8C
100
AcDbEntity
  8
IMPORTED
  6
STYLE_11
 62
              30
100
AcDbVertex
100
AcDb2dVertex
 10
-929.99998339335036
 20
-1270.3666253850963
 30
0.0
  0
VERTEX
  5
8D
100
AcDbEntity
  8
IMPORTED
  6
STYLE_11
 62
              30
100
AcDbVertex
100
AcDb2dVertex
 10
-975.39998339335045
 20
-1270.3666253850963
 30
0.0
  0
VERTEX
  5
8E
100
AcDbEntity
  8
IMPORTED
  6
STYLE_11
 62
              30
100
AcDbVertex
100
AcDb2dVertex
 10
-975.39998339335045
 20
-1270.3666253850963
 30
0.0
 42
-0.414213562373153
 70
               2
 50
-289547966096377.0
  0
VERTEX
  5
8F
100
AcDbEntity
  8
IMPORTED
  6
STYLE_11
 62
              30
100
AcDbVertex
100
AcDb2dVertex
 10
-977.69998339335064
 20
-1268.0666253850966
 30
0.0
  0
VERTEX
  5
90
100
AcDbEntity
  8
IMPORTED
  6
STYLE_11
 62
              30
100
AcDbVertex
100
AcDb2dVertex
 10
-977.69998339335064
 20
-1222.6666253850965
 30
0.0
  0
VERTEX
  5
91
100
AcDbEntity
  8
IMPORTED
  6
STYLE_11
 62
              30
100
AcDbVertex
100
AcDb2dVertex
 10
-977.69998339335064
 20
-1177.2666253850964
 30
0.0
  0
VERTEX
  5
92
100
AcDbEntity
  8
IMPORTED
  6
STYLE_11
 62
              30
100
AcDbVertex
100
AcDb2dVertex
 10
-977.69998339335064
 20
-1177.2666253850962
 30
0.0
 42
-0.414213562373095
 70
               2
  0
VERTEX
  5
93
100
AcDbEntity
  8
IMPORTED
  6
STYLE_11
 62
              30
100
AcDbVertex
100
AcDb2dVertex
 10
-975.39998339335045
 20
-1174.9666253850962
 30
0.0
  0
VERTEX
  5
94
100
AcDbEntity
  8
IMPORTED
  6
STYLE_11
 62
              30
100
AcDbVertex
100
AcDb2dVertex
 10
-929.99998339335036
 20
-1174.9666253850962
 30
0.0
  0
SEQEND
  5
95
100
AcDbEntity
  8
IMPORTED
  6
STYLE_11
 62
              30
  0
POLYLINE
  5
96
100
AcDbEntity
  8
IMPORTED
  6
CONTINUOUS
 62
              30
100
AcDb2dPolyline
 66
               1
 10
0.0
 20
0.0
 30
0.0
 70
             129
  0
VERTEX
  5
97
100
AcDbEntity
  8
IMPORTED
  6
CONTINUOUS
 62
              30
100
AcDbVertex
100
AcDb2dVertex
 10
-874.99998339335036
 20
-1162.666625385096
 30
0.0
  0
VERTEX
  5
98
100
AcDbEntity
  8
IMPORTED
  6
CONTINUOUS
 62
              30
100
AcDbVertex
100
AcDb2dVertex
 10
-869.99998339335036
 20
-1167.666625385096
 30
0.0
  0
VERTEX
  5
99
100
AcDbEntity
  8
IMPORTED
  6
CONTINUOUS
 62
              30
100
AcDbVertex
100
AcDb2dVertex
 10
-869.99998339335036
 20
-1277.6666253850965
 30
0.0
  0
VERTEX
  5
9A
100
AcDbEntity
  8
IMPORTED
  6
CONTINUOUS
 62
              30
100
AcDbVertex
100
AcDb2dVertex
 10
-874.99998339335036
 20
-1282.6666253850965
 30
0.0
  0
VERTEX
  5
9B
100
AcDbEntity
  8
IMPORTED
  6
CONTINUOUS
 62
              30
100
AcDbVertex
100
AcDb2dVertex
 10
-984.99998339335082
 20
-1282.6666253850965
 30
0.0
  0
VERTEX
  5
9C
100
AcDbEntity
  8
IMPORTED
  6
CONTINUOUS
 62
              30
100
AcDbVertex
100
AcDb2dVertex
 10
-989.99998339335082
 20
-1277.6666253850965
 30
0.0
  0
VERTEX
  5
9D
100
AcDbEntity
  8
IMPORTED
  6
CONTINUOUS
 62
              30
100
AcDbVertex
100
AcDb2dVertex
 10
-989.99998339335082
 20
-1167.666625385096
 30
0.0
  0
VERTEX
  5
9E
100
AcDbEntity
  8
IMPORTED
  6
CONTINUOUS
 62
              30
100
AcDbVertex
100
AcDb2dVertex
 10
-984.99998339335082
 20
-1162.666625385096
 30
0.0
  0
SEQEND
  5
9F
100
AcDbEntity
  8
IMPORTED
  6
CONTINUOUS
 62
              30
  0
POLYLINE
  5
A0
100
AcDbEntity
  8
IMPORTED
  6
CONTINUOUS
 62
              30
100
AcDb2dPolyline
 66
               1
 10
0.0
 20
0.0
 30
0.0
 70
             129
  0
VERTEX
  5
A1
100
AcDbEntity
  8
IMPORTED
  6
CONTINUOUS
 62
              30
100
AcDbVertex
100
AcDb2dVertex
 10
-875.99998339335036
 20
-1232.6666253850965
 30
0.0
  0
VERTEX
  5
A2
100
AcDbEntity
  8
IMPORTED
  6
CONTINUOUS
 62
              30
100
AcDbVertex
100
AcDb2dVertex
 10
-879.49998339335036
 20
-1227.6666253850965
 30
0.0
  0
VERTEX
  5
A3
100
AcDbEntity
  8
IMPORTED
  6
CONTINUOUS
 62
              30
100
AcDbVertex
100
AcDb2dVertex
 10
-879.49998339335036
 20
-1217.666625385096
 30
0.0
  0
VERTEX
  5
A4
100
AcDbEntity
  8
IMPORTED
  6
CONTINUOUS
 62
              30
100
AcDbVertex
100
AcDb2dVertex
 10
-875.99998339335036
 20
-1212.666625385096
 30
0.0
  0
VERTEX
  5
A5
100
AcDbEntity
  8
IMPORTED
  6
CONTINUOUS
 62
              30
100
AcDbVertex
100
AcDb2dVertex
 10
-875.99998339335036
 20
-1207.666625385096
 30
0.0
  0
VERTEX
  5
A6
100
AcDbEntity
  8
IMPORTED
  6
CONTINUOUS
 62
              30
100
AcDbVertex
100
AcDb2dVertex
 10
-875.99998339335036
 20
-1201.666625385096
 30
0.0
  0
VERTEX
  5
A7
100
AcDbEntity
  8
IMPORTED
  6
CONTINUOUS
 62
              30
100
AcDbVertex
100
AcDb2dVertex
 10
-875.99998339335036
 20
-1183.6666253850969
 30
0.0
  0
VERTEX
  5
A8
100
AcDbEntity
  8
IMPORTED
  6
CONTINUOUS
 62
              30
100
AcDbVertex
100
AcDb2dVertex
 10
-878.99998339335036
 20
-1178.666625385096
 30
0.0
  0
VERTEX
  5
A9
100
AcDbEntity
  8
IMPORTED
  6
CONTINUOUS
 62
              30
100
AcDbVertex
100
AcDb2dVertex
 10
-878.99998339335036
 20
-1174.666625385096
 30
0.0
  0
VERTEX
  5
AA
100
AcDbEntity
  8
IMPORTED
  6
CONTINUOUS
 62
              30
100
AcDbVertex
100
AcDb2dVertex
 10
-878.99998339335036
 20
-1174.666625385096
 30
0.0
 42
0.414213562373095
 70
               2
  0
VERTEX
  5
AB
100
AcDbEntity
  8
IMPORTED
  6
CONTINUOUS
 62
              30
100
AcDbVertex
100
AcDb2dVertex
 10
-881.99998339335036
 20
-1171.666625385096
 30
0.0
  0
VERTEX
  5
AC
100
AcDbEntity
  8
IMPORTED
  6
CONTINUOUS
 62
              30
100
AcDbVertex
100
AcDb2dVertex
 10
-885.99998339335036
 20
-1171.666625385096
 30
0.0
  0
VERTEX
  5
AD
100
AcDbEntity
  8
IMPORTED
  6
CONTINUOUS
 62
              30
100
AcDbVertex
100
AcDb2dVertex
 10
-890.99998339335036
 20
-1168.666625385096
 30
0.0
  0
VERTEX
  5
AE
100
AcDbEntity
  8
IMPORTED
  6
CONTINUOUS
 62
              30
100
AcDbVertex
100
AcDb2dVertex
 10
-908.99998339335036
 20
-1168.666625385096
 30
0.0
  0
VERTEX
  5
AF
100
AcDbEntity
  8
IMPORTED
  6
CONTINUOUS
 62
              30
100
AcDbVertex
100
AcDb2dVertex
 10
-914.99998339335036
 20
-1168.666625385096
 30
0.0
  0
VERTEX
  5
B0
100
AcDbEntity
  8
IMPORTED
  6
CONTINUOUS
 62
              30
100
AcDbVertex
100
AcDb2dVertex
 10
-919.99998339335036
 20
-1168.666625385096
 30
0.0
  0
VERTEX
  5
B1
100
AcDbEntity
  8
IMPORTED
  6
CONTINUOUS
 62
              30
100
AcDbVertex
100
AcDb2dVertex
 10
-924.99998339335036
 20
-1172.166625385096
 30
0.0
  0
VERTEX
  5
B2
100
AcDbEntity
  8
IMPORTED
  6
CONTINUOUS
 62
              30
100
AcDbVertex
100
AcDb2dVertex
 10
-934.99998339335036
 20
-1172.166625385096
 30
0.0
  0
VERTEX
  5
B3
100
AcDbEntity
  8
IMPORTED
  6
CONTINUOUS
 62
              30
100
AcDbVertex
100
AcDb2dVertex
 10
-939.99998339335082
 20
-1168.666625385096
 30
0.0
  0
VERTEX
  5
B4
100
AcDbEntity
  8
IMPORTED
  6
CONTINUOUS
 62
              30
100
AcDbVertex
100
AcDb2dVertex
 10
-944.99998339335082
 20
-1168.666625385096
 30
0.0
  0
VERTEX
  5
B5
100
AcDbEntity
  8
IMPORTED
  6
CONTINUOUS
 62
              30
100
AcDbVertex
100
AcDb2dVertex
 10
-950.99998339335082
 20
-1168.666625385096
 30
0.0
  0
VERTEX
  5
B6
100
AcDbEntity
  8
IMPORTED
  6
CONTINUOUS
 62
              30
100
AcDbVertex
100
AcDb2dVertex
 10
-968.99998339335082
 20
-1168.666625385096
 30
0.0
  0
VERTEX
  5
B7
100
AcDbEntity
  8
IMPORTED
  6
CONTINUOUS
 62
              30
100
AcDbVertex
100
AcDb2dVertex
 10
-973.99998339335082
 20
-1171.666625385096
 30
0.0
  0
VERTEX
  5
B8
100
AcDbEntity
  8
IMPORTED
  6
CONTINUOUS
 62
              30
100
AcDbVertex
100
AcDb2dVertex
 10
-977.99998339335082
 20
-1171.666625385096
 30
0.0
  0
VERTEX
  5
B9
100
AcDbEntity
  8
IMPORTED
  6
CONTINUOUS
 62
              30
100
AcDbVertex
100
AcDb2dVertex
 10
-977.99998339335082
 20
-1171.666625385096
 30
0.0
 42
0.414213562373095
 70
               2
 50
9.3574199307792870E+17
  0
VERTEX
  5
BA
100
AcDbEntity
  8
IMPORTED
  6
CONTINUOUS
 62
              30
100
AcDbVertex
100
AcDb2dVertex
 10
-980.99998339335082
 20
-1174.666625385096
 30
0.0
  0
VERTEX
  5
BB
100
AcDbEntity
  8
IMPORTED
  6
CONTINUOUS
 62
              30
100
AcDbVertex
100
AcDb2dVertex
 10
-980.99998339335082
 20
-1178.666625385096
 30
0.0
  0
VERTEX
  5
BC
100
AcDbEntity
  8
IMPORTED
  6
CONTINUOUS
 62
              30
100
AcDbVertex
100
AcDb2dVertex
 10
-983.99998339335082
 20
-1183.6666253850969
 30
0.0
  0
VERTEX
  5
BD
100
AcDbEntity
  8
IMPORTED
  6
CONTINUOUS
 62
              30
100
AcDbVertex
100
AcDb2dVertex
 10
-983.99998339335082
 20
-1201.666625385096
 30
0.0
  0
VERTEX
  5
BE
100
AcDbEntity
  8
IMPORTED
  6
CONTINUOUS
 62
              30
100
AcDbVertex
100
AcDb2dVertex
 10
-983.99998339335082
 20
-1207.666625385096
 30
0.0
  0
VERTEX
  5
BF
100
AcDbEntity
  8
IMPORTED
  6
CONTINUOUS
 62
              30
100
AcDbVertex
100
AcDb2dVertex
 10
-983.99998339335082
 20
-1212.666625385096
 30
0.0
  0
VERTEX
  5
C0
100
AcDbEntity
  8
IMPORTED
  6
CONTINUOUS
 62
              30
100
AcDbVertex
100
AcDb2dVertex
 10
-980.49998339335082
 20
-1217.666625385096
 30
0.0
  0
VERTEX
  5
C1
100
AcDbEntity
  8
IMPORTED
  6
CONTINUOUS
 62
              30
100
AcDbVertex
100
AcDb2dVertex
 10
-980.49998339335082
 20
-1227.6666253850965
 30
0.0
  0
VERTEX
  5
C2
100
AcDbEntity
  8
IMPORTED
  6
CONTINUOUS
 62
              30
100
AcDbVertex
100
AcDb2dVertex
 10
-983.99998339335082
 20
-1232.6666253850965
 30
0.0
  0
VERTEX
  5
C3
100
AcDbEntity
  8
IMPORTED
  6
CONTINUOUS
 62
              30
100
AcDbVertex
100
AcDb2dVertex
 10
-983.99998339335082
 20
-1237.6666253850965
 30
0.0
  0
VERTEX
  5
C4
100
AcDbEntity
  8
IMPORTED
  6
CONTINUOUS
 62
              30
100
AcDbVertex
100
AcDb2dVertex
 10
-983.99998339335082
 20
-1243.6666253850965
 30
0.0
  0
VERTEX
  5
C5
100
AcDbEntity
  8
IMPORTED
  6
CONTINUOUS
 62
              30
100
AcDbVertex
100
AcDb2dVertex
 10
-983.99998339335082
 20
-1261.666625385096
 30
0.0
  0
VERTEX
  5
C6
100
AcDbEntity
  8
IMPORTED
  6
CONTINUOUS
 62
              30
100
AcDbVertex
100
AcDb2dVertex
 10
-980.99998339335082
 20
-1266.6666253850965
 30
0.0
  0
VERTEX
  5
C7
100
AcDbEntity
  8
IMPORTED
  6
CONTINUOUS
 62
              30
100
AcDbVertex
100
AcDb2dVertex
 10
-980.99998339335082
 20
-1270.6666253850965
 30
0.0
  0
VERTEX
  5
C8
100
AcDbEntity
  8
IMPORTED
  6
CONTINUOUS
 62
              30
100
AcDbVertex
100
AcDb2dVertex
 10
-980.99998339335082
 20
-1270.6666253850965
 30
0.0
 42
0.414213562373095
 70
               2
  0
VERTEX
  5
C9
100
AcDbEntity
  8
IMPORTED
  6
CONTINUOUS
 62
              30
100
AcDbVertex
100
AcDb2dVertex
 10
-977.99998339335082
 20
-1273.6666253850965
 30
0.0
  0
VERTEX
  5
CA
100
AcDbEntity
  8
IMPORTED
  6
CONTINUOUS
 62
              30
100
AcDbVertex
100
AcDb2dVertex
 10
-973.99998339335082
 20
-1273.6666253850965
 30
0.0
  0
VERTEX
  5
CB
100
AcDbEntity
  8
IMPORTED
  6
CONTINUOUS
 62
              30
100
AcDbVertex
100
AcDb2dVertex
 10
-968.99998339335082
 20
-1276.6666253850965
 30
0.0
  0
VERTEX
  5
CC
100
AcDbEntity
  8
IMPORTED
  6
CONTINUOUS
 62
              30
100
AcDbVertex
100
AcDb2dVertex
 10
-950.99998339335082
 20
-1276.6666253850965
 30
0.0
  0
VERTEX
  5
CD
100
AcDbEntity
  8
IMPORTED
  6
CONTINUOUS
 62
              30
100
AcDbVertex
100
AcDb2dVertex
 10
-944.99998339335082
 20
-1276.6666253850965
 30
0.0
  0
VERTEX
  5
CE
100
AcDbEntity
  8
IMPORTED
  6
CONTINUOUS
 62
              30
100
AcDbVertex
100
AcDb2dVertex
 10
-939.99998339335082
 20
-1276.6666253850965
 30
0.0
  0
VERTEX
  5
CF
100
AcDbEntity
  8
IMPORTED
  6
CONTINUOUS
 62
              30
100
AcDbVertex
100
AcDb2dVertex
 10
-934.99998339335036
 20
-1273.1666253850965
 30
0.0
  0
VERTEX
  5
D0
100
AcDbEntity
  8
IMPORTED
  6
CONTINUOUS
 62
              30
100
AcDbVertex
100
AcDb2dVertex
 10
-924.99998339335036
 20
-1273.1666253850965
 30
0.0
  0
VERTEX
  5
D1
100
AcDbEntity
  8
IMPORTED
  6
CONTINUOUS
 62
              30
100
AcDbVertex
100
AcDb2dVertex
 10
-919.99998339335036
 20
-1276.6666253850965
 30
0.0
  0
VERTEX
  5
D2
100
AcDbEntity
  8
IMPORTED
  6
CONTINUOUS
 62
              30
100
AcDbVertex
100
AcDb2dVertex
 10
-914.99998339335036
 20
-1276.6666253850965
 30
0.0
  0
VERTEX
  5
D3
100
AcDbEntity
  8
IMPORTED
  6
CONTINUOUS
 62
              30
100
AcDbVertex
100
AcDb2dVertex
 10
-908.99998339335036
 20
-1276.6666253850965
 30
0.0
  0
VERTEX
  5
D4
100
AcDbEntity
  8
IMPORTED
  6
CONTINUOUS
 62
              30
100
AcDbVertex
100
AcDb2dVertex
 10
-890.99998339335036
 20
-1276.6666253850965
 30
0.0
  0
VERTEX
  5
D5
100
AcDbEntity
  8
IMPORTED
  6
CONTINUOUS
 62
              30
100
AcDbVertex
100
AcDb2dVertex
 10
-885.99998339335036
 20
-1273.6666253850965
 30
0.0
  0
VERTEX
  5
D6
100
AcDbEntity
  8
IMPORTED
  6
CONTINUOUS
 62
              30
100
AcDbVertex
100
AcDb2dVertex
 10
-881.99998339335036
 20
-1273.6666253850965
 30
0.0
  0
VERTEX
  5
D7
100
AcDbEntity
  8
IMPORTED
  6
CONTINUOUS
 62
              30
100
AcDbVertex
100
AcDb2dVertex
 10
-881.99998339335036
 20
-1273.6666253850965
 30
0.0
 42
0.414213562373095
 70
               2
 50
3.1191399769264294E+17
  0
VERTEX
  5
D8
100
AcDbEntity
  8
IMPORTED
  6
CONTINUOUS
 62
              30
100
AcDbVertex
100
AcDb2dVertex
 10
-878.99998339335036
 20
-1270.6666253850965
 30
0.0
  0
VERTEX
  5
D9
100
AcDbEntity
  8
IMPORTED
  6
CONTINUOUS
 62
              30
100
AcDbVertex
100
AcDb2dVertex
 10
-878.99998339335036
 20
-1266.6666253850965
 30
0.0
  0
VERTEX
  5
DA
100
AcDbEntity
  8
IMPORTED
  6
CONTINUOUS
 62
              30
100
AcDbVertex
100
AcDb2dVertex
 10
-875.99998339335036
 20
-1261.666625385096
 30
0.0
  0
VERTEX
  5
DB
100
AcDbEntity
  8
IMPORTED
  6
CONTINUOUS
 62
              30
100
AcDbVertex
100
AcDb2dVertex
 10
-875.99998339335036
 20
-1243.6666253850965
 30
0.0
  0
VERTEX
  5
DC
100
AcDbEntity
  8
IMPORTED
  6
CONTINUOUS
 62
              30
100
AcDbVertex
100
AcDb2dVertex
 10
-875.99998339335036
 20
-1237.6666253850965
 30
0.0
  0
SEQEND
  5
DD
100
AcDbEntity
  8
IMPORTED
  6
CONTINUOUS
 62
              30
  0
MTEXT
  5
DE
100
AcDbEntity
  8
IMPORTED
 62
               1
100
AcDbMText
 10
-1628.1151833933509
 20
168.50739488831294
 30
0.0
 40
32.576797265624997
 41
0.0
 71
               1
 72
               1
  1
均しコンクリート
  7
_______
  0
MTEXT
  5
DF
100
AcDbEntity
  8
IMPORTED
 62
               1
100
AcDbMText
 10
-1677.1151833933509
 20
82.36959488831296
 30
0.0
 40
32.576797265624997
 41
0.0
 71
               1
 72
               1
  1
再生クラッシャラン
  7
_______
  0
MTEXT
  5
E0
100
AcDbEntity
  8
IMPORTED
 62
               1
100
AcDbMText
 10
1264.2892694793395
 20
1639.1701308649037
 30
0.0
 40
32.576822916666664
 41
0.0
 71
               1
 72
               1
  1
柱 ESW120×120C2H塗装
  7
_______
  0
MTEXT
  5
E1
100
AcDbEntity
  8
IMPORTED
 62
               1
100
AcDbMText
 10
354.08578373546135
 20
1261.0946308649038
 30
0.0
 40
32.576822916666664
 41
0.0
 71
               1
 72
               1
  1
表示板 ESW145×25M塗装
  7
_______
  0
LINE
  5
E2
100
AcDbEntity
  8
IMPORTED
  6
CONTINUOUS
 62
               1
100
AcDbLine
 10
1119.9999166066489
 20
1399.9999746149037
 30
0.0
 11
1239.9999166066489
 21
1584.9999746149037
 31
0.0
  0
LINE
  5
E3
100
AcDbEntity
  8
IMPORTED
  6
CONTINUOUS
 62
               1
100
AcDbLine
 10
1239.9999166066489
 20
1584.9999746149037
 30
0.0
 11
1730.0
 21
1584.9999746149037
 31
0.0
  0
LINE
  5
E4
100
AcDbEntity
  8
IMPORTED
  6
CONTINUOUS
 62
               1
100
AcDbLine
 10
974.99991660664898
 20
1402.4999746149037
 30
0.0
 11
819.99991660664898
 21
1209.9999746149037
 31
0.0
  0
LINE
  5
E5
100
AcDbEntity
  8
IMPORTED
  6
CONTINUOUS
 62
               1
100
AcDbLine
 10
819.99991660664898
 20
1209.9999746149037
 30
0.0
 11
345.0
 21
1209.9999746149037
 31
0.0
  0
MTEXT
  5
E6
100
AcDbEntity
  8
IMPORTED
 62
               1
100
AcDbMText
 10
1473.5004506171442
 20
225.42305452270682
 30
0.0
 40
32.576797265624997
 41
0.0
 71
               1
 72
               1
  1
樹脂発泡シート巻
  7
_______
  0
LINE
  5
E7
100
AcDbEntity
  8
IMPORTED
  6
CONTINUOUS
 62
               1
100
AcDbLine
 10
1459.5082166066488
 20
168.65946124658663
 30
0.0
 11
1830.0
 21
168.65946124658663
 31
0.0
  0
LINE
  5
E8
100
AcDbEntity
  8
IMPORTED
  6
CONTINUOUS
 62
               1
100
AcDbLine
 10
1090.664416606649
 20
477.0711612465866
 30
0.0
 11
1459.5082166066488
 21
168.65946124658663
 31
0.0
  0
MTEXT
  5
E9
100
AcDbEntity
  8
IMPORTED
 62
               1
100
AcDbMText
 10
-1564.333198759291
 20
394.6660948883129
 30
0.0
 40
32.576797265624997
 41
0.0
 71
               1
 72
               1
  1
基礎コンクリート
  7
_______
  0
LINE
  5
EA
100
AcDbEntity
  8
IMPORTED
  6
CONTINUOUS
 62
               1
100
AcDbLine
 10
-1580.0
 20
342.9035746149039
 30
0.0
 11
-1220.217998759291
 21
342.9035746149039
 31
0.0
  0
LINE
  5
EB
100
AcDbEntity
  8
IMPORTED
  6
CONTINUOUS
 62
               1
100
AcDbLine
 10
-1220.217998759291
 20
342.9035746149039
 30
0.0
 11
-1081.9999833933509
 21
480.10757461490391
 31
0.0
  0
LINE
  5
EC
100
AcDbEntity
  8
IMPORTED
  6
CONTINUOUS
 62
               1
100
AcDbLine
 10
-1640.0
 20
116.74487461490394
 30
0.0
 11
-1283.9999833933509
 21
116.74487461490394
 31
0.0
  0
LINE
  5
ED
100
AcDbEntity
  8
IMPORTED
  6
CONTINUOUS
 62
               1
100
AcDbLine
 10
-1283.9999833933509
 20
116.74487461490394
 30
0.0
 11
-1157.8723833933509
 21
242.87237461490392
 31
0.0
  0
LINE
  5
EE
100
AcDbEntity
  8
IMPORTED
  6
CONTINUOUS
 62
               1
100
AcDbLine
 10
-1693.9999833933507
 20
29.999974614903937
 30
0.0
 11
-1273.9999833933509
 21
29.999974614903937
 31
0.0
  0
LINE
  5
EF
100
AcDbEntity
  8
IMPORTED
  6
CONTINUOUS
 62
               1
100
AcDbLine
 10
-1273.9999833933509
 20
29.999974614903937
 30
0.0
 11
-1143.9998833933507
 21
159.99997461490392
 31
0.0
  0
LINE
  5
F0
100
AcDbEntity
  8
IMPORTED
  6
CONTINUOUS
 62
               1
100
AcDbLine
 10
-1044.9999831698333
 20
-1162.666625385096
 30
0.0
 11
-1643.9999998509884
 21
-1162.666625385096
 31
0.0
  0
LINE
  5
F1
100
AcDbEntity
  8
IMPORTED
  6
CONTINUOUS
 62
               1
100
AcDbLine
 10
-1386.9999831698335
 20
-1282.666625385096
 30
0.0
 11
-1643.9999998509884
 21
-1282.666625385096
 31
0.0
  0
LINE
  5
F2
100
AcDbEntity
  8
IMPORTED
  6
CONTINUOUS
 62
               1
100
AcDbLine
 10
-1604.0
 20
-1122.6666255341077
 30
0.0
 11
-1604.0
 21
-1162.666625385096
 31
0.0
  0
LINE
  5
F3
100
AcDbEntity
  8
IMPORTED
  6
CONTINUOUS
 62
               1
100
AcDbLine
 10
-1604.0
 20
-1282.666625385096
 30
0.0
 11
-1604.0
 21
-1322.6666252360844
 31
0.0
  0
LINE
  5
F4
100
AcDbEntity
  8
IMPORTED
  6
CONTINUOUS
 62
               1
100
AcDbLine
 10
-1604.0
 20
-1162.666625385096
 30
0.0
 11
-1604.0
 21
-1282.666625385096
 31
0.0
  0
SOLID
  5
F5
100
AcDbEntity
  8
IMPORTED
 62
               1
100
AcDbTrace
 10
-1604.0
 20
-1162.666625385096
 30
0.0
 11
-1600.500667054333
 21
-1202.664183978846
 31
0.0
 12
-1607.499332945667
 22
-1202.664183978846
 32
0.0
 13
-1607.499332945667
 23
-1202.664183978846
 33
0.0
  0
SOLID
  5
F6
100
AcDbEntity
  8
IMPORTED
 62
               1
100
AcDbTrace
 10
-1604.0
 20
-1282.666625385096
 30
0.0
 11
-1607.499332945667
 21
-1242.669066791346
 31
0.0
 12
-1600.500667054333
 22
-1242.669066791346
 32
0.0
 13
-1600.500667054333
 23
-1242.669066791346
 33
0.0
  0
MTEXT
  5
F7
100
AcDbEntity
  8
IMPORTED
 62
               1
100
AcDbMText
 10
-1662.5034895088277
 20
-1254.416625385096
 30
0.0
 40
32.576822916666664
 41
0.0
 71
               1
 72
               1
  1
120
  7
_______
 11
0.0
 21
1.0
 31
0.0
  0
LINE
  5
F8
100
AcDbEntity
  8
IMPORTED
  6
CONTINUOUS
 62
               1
100
AcDbLine
 10
-1386.9999831698335
 20
-1282.666625385096
 30
0.0
 11
-1643.9999998509884
 21
-1282.666625385096
 31
0.0
  0
LINE
  5
F9
100
AcDbEntity
  8
IMPORTED
  6
CONTINUOUS
 62
               1
100
AcDbLine
 10
-1386.9999831698335
 20
-1307.666625385096
 30
0.0
 11
-1643.9999998509884
 21
-1307.666625385096
 31
0.0
  0
LINE
  5
FA
100
AcDbEntity
  8
IMPORTED
  6
CONTINUOUS
 62
               1
100
AcDbLine
 10
-1604.0
 20
-1242.6666255341077
 30
0.0
 11
-1604.0
 21
-1282.666625385096
 31
0.0
  0
LINE
  5
FB
100
AcDbEntity
  8
IMPORTED
  6
CONTINUOUS
 62
               1
100
AcDbLine
 10
-1604.0
 20
-1307.666625385096
 30
0.0
 11
-1604.0
 21
-1347.6666252360844
 31
0.0
  0
LINE
  5
FC
100
AcDbEntity
  8
IMPORTED
  6
CONTINUOUS
 62
               1
100
AcDbLine
 10
-1604.0
 20
-1307.666625385096
 30
0.0
 11
-1604.0
 21
-1358.666625385096
 31
0.0
  0
LINE
  5
FD
100
AcDbEntity
  8
IMPORTED
  6
CONTINUOUS
 62
               1
100
AcDbLine
 10
-1604.0
 20
-1282.666625385096
 30
0.0
 11
-1604.0
 21
-1307.666625385096
 31
0.0
  0
SOLID
  5
FE
100
AcDbEntity
  8
IMPORTED
 62
               1
100
AcDbTrace
 10
-1604.0
 20
-1282.666625385096
 30
0.0
 11
-1600.500667054333
 21
-1322.664183978846
 31
0.0
 12
-1607.499332945667
 22
-1322.664183978846
 32
0.0
 13
-1607.499332945667
 23
-1322.664183978846
 33
0.0
  0
SOLID
  5
FF
100
AcDbEntity
  8
IMPORTED
 62
               1
100
AcDbTrace
 10
-1604.0
 20
-1307.666625385096
 30
0.0
 11
-1607.499332945667
 21
-1267.669066791346
 31
0.0
 12
-1600.500667054333
 22
-1267.669066791346
 32
0.0
 13
-1600.500667054333
 23
-1267.669066791346
 33
0.0
  0
MTEXT
  5
100
100
AcDbEntity
  8
IMPORTED
 62
               1
100
AcDbMText
 10
-1662.5034895088277
 20
-1358.6666253850963
 30
0.0
 40
32.576822916666664
 41
0.0
 71
               1
 72
               1
  1
25
  7
_______
 11
0.0
 21
1.0
 31
0.0
  0
LINE
  5
101
100
AcDbEntity
  8
IMPORTED
  6
CONTINUOUS
 62
               1
100
AcDbLine
 10
-1329.9999833933509
 20
-1225.6666256086135
 30
0.0
 11
-1329.9999833933509
 21
-776.00000014901161
 31
0.0
  0
LINE
  5
102
100
AcDbEntity
  8
IMPORTED
  6
CONTINUOUS
 62
               1
100
AcDbLine
 10
-989.99998339335082
 20
-1107.6666256086135
 30
0.0
 11
-989.99998339335082
 21
-776.00000014901161
 31
0.0
  0
LINE
  5
103
100
AcDbEntity
  8
IMPORTED
  6
CONTINUOUS
 62
               1
100
AcDbLine
 10
-1369.9999832443393
 20
-816.0
 30
0.0
 11
-1329.9999833933509
 21
-816.0
 31
0.0
  0
LINE
  5
104
100
AcDbEntity
  8
IMPORTED
  6
CONTINUOUS
 62
               1
100
AcDbLine
 10
-989.99998339335082
 20
-816.0
 30
0.0
 11
-949.99998354236243
 21
-816.0
 31
0.0
  0
LINE
  5
105
100
AcDbEntity
  8
IMPORTED
  6
CONTINUOUS
 62
               1
100
AcDbLine
 10
-1329.9999833933509
 20
-816.0
 30
0.0
 11
-989.99998339335082
 21
-816.0
 31
0.0
  0
SOLID
  5
106
100
AcDbEntity
  8
IMPORTED
 62
               1
100
AcDbTrace
 10
-1329.9999833933509
 20
-816.0
 30
0.0
 11
-1290.0024247996009
 21
-812.50066705433301
 31
0.0
 12
-1290.0024247996009
 22
-819.49933294566699
 32
0.0
 13
-1290.0024247996009
 23
-819.49933294566699
 33
0.0
  0
SOLID
  5
107
100
AcDbEntity
  8
IMPORTED
 62
               1
100
AcDbTrace
 10
-989.99998339335082
 20
-816.0
 30
0.0
 11
-1029.9975419871007
 21
-819.49933294566699
 31
0.0
 12
-1029.9975419871007
 22
-812.50066705433301
 32
0.0
 13
-1029.9975419871007
 23
-812.50066705433301
 33
0.0
  0
MTEXT
  5
108
100
AcDbEntity
  8
IMPORTED
 62
               1
100
AcDbMText
 10
-1191.7499833933509
 20
-757.49651049117244
 30
0.0
 40
32.576822916666664
 41
0.0
 71
               1
 72
               1
  1
340
  7
_______
  0
LINE
  5
109
100
AcDbEntity
  8
IMPORTED
  6
CONTINUOUS
 62
               1
100
AcDbLine
 10
-989.99998339335082
 20
-1107.6666256086135
 30
0.0
 11
-989.99998339335082
 21
-776.00000014901161
 31
0.0
  0
LINE
  5
10A
100
AcDbEntity
  8
IMPORTED
  6
CONTINUOUS
 62
               1
100
AcDbLine
 10
-869.99998339335082
 20
-1107.6666256086135
 30
0.0
 11
-869.99998339335082
 21
-776.00000014901161
 31
0.0
  0
LINE
  5
10B
100
AcDbEntity
  8
IMPORTED
  6
CONTINUOUS
 62
               1
100
AcDbLine
 10
-1029.9999832443391
 20
-816.0
 30
0.0
 11
-989.99998339335082
 21
-816.0
 31
0.0
  0
LINE
  5
10C
100
AcDbEntity
  8
IMPORTED
  6
CONTINUOUS
 62
               1
100
AcDbLine
 10
-869.99998339335082
 20
-816.0
 30
0.0
 11
-829.99998354236243
 21
-816.0
 31
0.0
  0
LINE
  5
10D
100
AcDbEntity
  8
IMPORTED
  6
CONTINUOUS
 62
               1
100
AcDbLine
 10
-989.99998339335082
 20
-816.0
 30
0.0
 11
-869.99998339335082
 21
-816.0
 31
0.0
  0
SOLID
  5
10E
100
AcDbEntity
  8
IMPORTED
 62
               1
100
AcDbTrace
 10
-989.99998339335082
 20
-816.0
 30
0.0
 11
-950.00242479960082
 21
-812.50066705433301
 31
0.0
 12
-950.00242479960082
 22
-819.49933294566699
 32
0.0
 13
-950.00242479960082
 23
-819.49933294566699
 33
0.0
  0
SOLID
  5
10F
100
AcDbEntity
  8
IMPORTED
 62
               1
100
AcDbTrace
 10
-869.99998339335082
 20
-816.0
 30
0.0
 11
-909.99754198710082
 21
-819.49933294566699
 31
0.0
 12
-909.99754198710082
 22
-812.50066705433301
 32
0.0
 13
-909.99754198710082
 23
-812.50066705433301
 33
0.0
  0
MTEXT
  5
110
100
AcDbEntity
  8
IMPORTED
 62
               1
100
AcDbMText
 10
-961.74998339335082
 20
-757.49651049117244
 30
0.0
 40
32.576822916666664
 41
0.0
 71
               1
 72
               1
  1
120
  7
_______
  0
LINE
  5
111
100
AcDbEntity
  8
IMPORTED
  6
CONTINUOUS
 62
               1
100
AcDbLine
 10
-869.99998339335082
 20
-1107.6666256086135
 30
0.0
 11
-869.99998339335082
 21
-776.00000014901161
 31
0.0
  0
LINE
  5
112
100
AcDbEntity
  8
IMPORTED
  6
CONTINUOUS
 62
               1
100
AcDbLine
 10
-529.99998339335093
 20
-1225.6666256086135
 30
0.0
 11
-529.99998339335093
 21
-776.00000014901161
 31
0.0
  0
LINE
  5
113
100
AcDbEntity
  8
IMPORTED
  6
CONTINUOUS
 62
               1
100
AcDbLine
 10
-909.99998324433921
 20
-816.0
 30
0.0
 11
-869.99998339335082
 21
-816.0
 31
0.0
  0
LINE
  5
114
100
AcDbEntity
  8
IMPORTED
  6
CONTINUOUS
 62
               1
100
AcDbLine
 10
-529.99998339335093
 20
-816.0
 30
0.0
 11
-489.99998354236249
 21
-816.0
 31
0.0
  0
LINE
  5
115
100
AcDbEntity
  8
IMPORTED
  6
CONTINUOUS
 62
               1
100
AcDbLine
 10
-869.99998339335082
 20
-816.0
 30
0.0
 11
-529.99998339335093
 21
-816.0
 31
0.0
  0
SOLID
  5
116
100
AcDbEntity
  8
IMPORTED
 62
               1
100
AcDbTrace
 10
-869.99998339335082
 20
-816.0
 30
0.0
 11
-830.00242479960082
 21
-812.50066705433301
 31
0.0
 12
-830.00242479960082
 22
-819.49933294566699
 32
0.0
 13
-830.00242479960082
 23
-819.49933294566699
 33
0.0
  0
SOLID
  5
117
100
AcDbEntity
  8
IMPORTED
 62
               1
100
AcDbTrace
 10
-529.99998339335093
 20
-816.0
 30
0.0
 11
-569.99754198710093
 21
-819.49933294566699
 31
0.0
 12
-569.99754198710093
 22
-812.50066705433301
 32
0.0
 13
-569.99754198710093
 23
-812.50066705433301
 33
0.0
  0
MTEXT
  5
118
100
AcDbEntity
  8
IMPORTED
 62
               1
100
AcDbMText
 10
-731.74998339335093
 20
-757.49651049117244
 30
0.0
 40
32.576822916666664
 41
0.0
 71
               1
 72
               1
  1
340
  7
_______
  0
LINE
  5
119
100
AcDbEntity
  8
IMPORTED
  6
CONTINUOUS
 62
               1
100
AcDbLine
 10
-529.99998339335093
 20
-1225.6666256086135
 30
0.0
 11
-529.99998339335093
 21
-644.00000014901161
 31
0.0
  0
LINE
  5
11A
100
AcDbEntity
  8
IMPORTED
  6
CONTINUOUS
 62
               1
100
AcDbLine
 10
-1329.9999833933509
 20
-1225.6666256086135
 30
0.0
 11
-1329.9999833933509
 21
-644.00000014901161
 31
0.0
  0
LINE
  5
11B
100
AcDbEntity
  8
IMPORTED
  6
CONTINUOUS
 62
               1
100
AcDbLine
 10
-489.99998354236249
 20
-684.0
 30
0.0
 11
-529.99998339335093
 21
-684.0
 31
0.0
  0
LINE
  5
11C
100
AcDbEntity
  8
IMPORTED
  6
CONTINUOUS
 62
               1
100
AcDbLine
 10
-1329.9999833933509
 20
-684.0
 30
0.0
 11
-1369.9999832443393
 21
-684.0
 31
0.0
  0
LINE
  5
11D
100
AcDbEntity
  8
IMPORTED
  6
CONTINUOUS
 62
               1
100
AcDbLine
 10
-529.99998339335093
 20
-684.0
 30
0.0
 11
-1329.9999833933509
 21
-684.0
 31
0.0
  0
SOLID
  5
11E
100
AcDbEntity
  8
IMPORTED
 62
               1
100
AcDbTrace
 10
-529.99998339335093
 20
-684.0
 30
0.0
 11
-569.99754198710093
 21
-687.49933294566699
 31
0.0
 12
-569.99754198710093
 22
-680.50066705433301
 32
0.0
 13
-569.99754198710093
 23
-680.50066705433301
 33
0.0
  0
SOLID
  5
11F
100
AcDbEntity
  8
IMPORTED
 62
               1
100
AcDbTrace
 10
-1329.9999833933509
 20
-684.0
 30
0.0
 11
-1290.0024247996009
 21
-680.50066705433301
 31
0.0
 12
-1290.0024247996009
 22
-687.49933294566699
 32
0.0
 13
-1290.0024247996009
 23
-687.49933294566699
 33
0.0
  0
MTEXT
  5
120
100
AcDbEntity
  8
IMPORTED
 62
               1
100
AcDbMText
 10
-961.74998339335093
 20
-625.49651049117244
 30
0.0
 40
32.576822916666664
 41
0.0
 71
               1
 72
               1
  1
800
  7
_______
  0
LINE
  5
121
100
AcDbEntity
  8
IMPORTED
  6
CONTINUOUS
 62
               1
100
AcDbLine
 10
-1164.9999833933509
 20
64.999974838421338
 30
0.0
 11
-1164.9999833933509
 21
-71.00002523608444
 31
0.0
  0
LINE
  5
122
100
AcDbEntity
  8
IMPORTED
  6
CONTINUOUS
 62
               1
100
AcDbLine
 10
-1114.9999833933509
 20
214.99997483842134
 30
0.0
 11
-1114.9999833933509
 21
-71.000025236084468
 31
0.0
  0
LINE
  5
123
100
AcDbEntity
  8
IMPORTED
  6
CONTINUOUS
 62
               1
100
AcDbLine
 10
-1204.9999832443393
 20
-31.000025385096055
 30
0.0
 11
-1164.9999833933509
 21
-31.000025385096055
 31
0.0
  0
LINE
  5
124
100
AcDbEntity
  8
IMPORTED
  6
CONTINUOUS
 62
               1
100
AcDbLine
 10
-1114.9999833933509
 20
-31.000025385096084
 30
0.0
 11
-1074.9999835423625
 21
-31.000025385096084
 31
0.0
  0
LINE
  5
125
100
AcDbEntity
  8
IMPORTED
  6
CONTINUOUS
 62
               1
100
AcDbLine
 10
-1164.9999833933509
 20
-31.000025385096055
 30
0.0
 11
-1114.9999833933509
 21
-31.000025385096084
 31
0.0
  0
SOLID
  5
126
100
AcDbEntity
  8
IMPORTED
 62
               1
100
AcDbTrace
 10
-1164.9999833933509
 20
-31.000025385096055
 30
0.0
 11
-1125.0024247996009
 21
-27.500692439429031
 31
0.0
 12
-1125.0024247996009
 22
-34.49935833076308
 32
0.0
 13
-1125.0024247996009
 23
-34.49935833076308
 33
0.0
  0
SOLID
  5
127
100
AcDbEntity
  8
IMPORTED
 62
               1
100
AcDbTrace
 10
-1114.9999833933509
 20
-31.000025385096084
 30
0.0
 11
-1155.0525219460217
 21
-33.800771716328896
 31
0.0
 12
-1154.9303783843675
 22
-26.803171755708888
 32
0.0
 13
-1154.9303783843675
 23
-26.803171755708888
 33
0.0
  0
MTEXT
  5
128
100
AcDbEntity
  8
IMPORTED
 62
               1
100
AcDbMText
 10
-1161.1666500600177
 20
27.503464123731451
 30
0.0
 40
32.576822916666664
 41
0.0
 71
               1
 72
               1
  1
50
  7
_______
  0
LINE
  5
129
100
AcDbEntity
  8
IMPORTED
  6
CONTINUOUS
 62
               1
100
AcDbLine
 10
-1114.9999833933509
 20
214.99997483842134
 30
0.0
 11
-1114.9999833933509
 21
-71.000025236084468
 31
0.0
  0
LINE
  5
12A
100
AcDbEntity
  8
IMPORTED
  6
CONTINUOUS
 62
               1
100
AcDbLine
 10
-764.99998339335082
 20
214.99997483842134
 30
0.0
 11
-764.99998339335082
 21
-71.000025236084468
 31
0.0
  0
LINE
  5
12B
100
AcDbEntity
  8
IMPORTED
  6
CONTINUOUS
 62
               1
100
AcDbLine
 10
-1154.9999832443393
 20
-31.000025385096084
 30
0.0
 11
-1114.9999833933509
 21
-31.000025385096084
 31
0.0
  0
LINE
  5
12C
100
AcDbEntity
  8
IMPORTED
  6
CONTINUOUS
 62
               1
100
AcDbLine
 10
-764.99998339335082
 20
-31.000025385096084
 30
0.0
 11
-724.99998354236243
 21
-31.000025385096084
 31
0.0
  0
LINE
  5
12D
100
AcDbEntity
  8
IMPORTED
  6
CONTINUOUS
 62
               1
100
AcDbLine
 10
-1114.9999833933509
 20
-31.000025385096084
 30
0.0
 11
-764.99998339335082
 21
-31.000025385096084
 31
0.0
  0
SOLID
  5
12E
100
AcDbEntity
  8
IMPORTED
 62
               1
100
AcDbTrace
 10
-1114.9999833933509
 20
-31.000025385096084
 30
0.0
 11
-1075.0024247996009
 21
-27.500692439429059
 31
0.0
 12
-1075.0024247996009
 22
-34.499358330763108
 32
0.0
 13
-1075.0024247996009
 23
-34.499358330763108
 33
0.0
  0
SOLID
  5
12F
100
AcDbEntity
  8
IMPORTED
 62
               1
100
AcDbTrace
 10
-764.99998339335082
 20
-31.000025385096084
 30
0.0
 11
-804.99754198710082
 21
-34.499358330763108
 31
0.0
 12
-804.99754198710082
 22
-27.50069243942907
 32
0.0
 13
-804.99754198710082
 23
-27.50069243942907
 33
0.0
  0
MTEXT
  5
130
100
AcDbEntity
  8
IMPORTED
 62
               1
100
AcDbMText
 10
-971.74998339335093
 20
27.503464123731437
 30
0.0
 40
32.576822916666664
 41
0.0
 71
               1
 72
               1
  1
350
  7
_______
  0
LINE
  5
131
100
AcDbEntity
  8
IMPORTED
  6
CONTINUOUS
 62
               1
100
AcDbLine
 10
-764.99998339335082
 20
214.99997483842134
 30
0.0
 11
-764.99998339335082
 21
-71.000025236084468
 31
0.0
  0
LINE
  5
132
100
AcDbEntity
  8
IMPORTED
  6
CONTINUOUS
 62
               1
100
AcDbLine
 10
-714.99998339335093
 20
64.999974838421338
 30
0.0
 11
-714.99998339335093
 21
-71.000025236084468
 31
0.0
  0
LINE
  5
133
100
AcDbEntity
  8
IMPORTED
  6
CONTINUOUS
 62
               1
100
AcDbLine
 10
-804.99998324433921
 20
-31.000025385096084
 30
0.0
 11
-764.99998339335082
 21
-31.000025385096084
 31
0.0
  0
LINE
  5
134
100
AcDbEntity
  8
IMPORTED
  6
CONTINUOUS
 62
               1
100
AcDbLine
 10
-714.99998339335093
 20
-31.000025385096084
 30
0.0
 11
-674.99998354236254
 21
-31.000025385096084
 31
0.0
  0
LINE
  5
135
100
AcDbEntity
  8
IMPORTED
  6
CONTINUOUS
 62
               1
100
AcDbLine
 10
-764.99998339335082
 20
-31.000025385096084
 30
0.0
 11
-714.99998339335093
 21
-31.000025385096084
 31
0.0
  0
SOLID
  5
136
100
AcDbEntity
  8
IMPORTED
 62
               1
100
AcDbTrace
 10
-764.99998339335082
 20
-31.000025385096084
 30
0.0
 11
-725.00242479960082
 21
-27.500692439429059
 31
0.0
 12
-725.00242479960082
 22
-34.499358330763108
 32
0.0
 13
-725.00242479960082
 23
-34.499358330763108
 33
0.0
  0
SOLID
  5
137
100
AcDbEntity
  8
IMPORTED
 62
               1
100
AcDbTrace
 10
-714.99998339335093
 20
-31.000025385096084
 30
0.0
 11
-754.99754198710093
 21
-34.499358330763108
 31
0.0
 12
-754.99754198710093
 22
-27.50069243942907
 32
0.0
 13
-754.99754198710093
 23
-27.50069243942907
 33
0.0
  0
MTEXT
  5
138
100
AcDbEntity
  8
IMPORTED
 62
               1
100
AcDbMText
 10
-761.16665006001756
 20
27.503464123731437
 30
0.0
 40
32.576822916666664
 41
0.0
 71
               1
 72
               1
  1
50
  7
_______
  0
LINE
  5
139
100
AcDbEntity
  8
IMPORTED
  6
CONTINUOUS
 62
               1
100
AcDbLine
 10
-714.99998339335093
 20
64.999974838421338
 30
0.0
 11
-714.99998339335093
 21
-174.99999985098839
 31
0.0
  0
LINE
  5
13A
100
AcDbEntity
  8
IMPORTED
  6
CONTINUOUS
 62
               1
100
AcDbLine
 10
-1164.9999833933509
 20
64.999974838421338
 30
0.0
 11
-1164.9999833933509
 21
-174.99999985098839
 31
0.0
  0
LINE
  5
13B
100
AcDbEntity
  8
IMPORTED
  6
CONTINUOUS
 62
               1
100
AcDbLine
 10
-674.99998354236254
 20
-135.0
 30
0.0
 11
-714.99998339335093
 21
-135.0
 31
0.0
  0
LINE
  5
13C
100
AcDbEntity
  8
IMPORTED
  6
CONTINUOUS
 62
               1
100
AcDbLine
 10
-1164.9999833933509
 20
-135.0
 30
0.0
 11
-1204.9999832443393
 21
-135.0
 31
0.0
  0
LINE
  5
13D
100
AcDbEntity
  8
IMPORTED
  6
CONTINUOUS
 62
               1
100
AcDbLine
 10
-714.99998339335093
 20
-135.0
 30
0.0
 11
-1164.9999833933509
 21
-135.0
 31
0.0
  0
SOLID
  5
13E
100
AcDbEntity
  8
IMPORTED
 62
               1
100
AcDbTrace
 10
-714.99998339335093
 20
-135.0
 30
0.0
 11
-754.99754198710093
 21
-138.49933294566702
 31
0.0
 12
-754.99754198710093
 22
-131.50066705433298
 32
0.0
 13
-754.99754198710093
 23
-131.50066705433298
 33
0.0
  0
SOLID
  5
13F
100
AcDbEntity
  8
IMPORTED
 62
               1
100
AcDbTrace
 10
-1164.9999833933509
 20
-135.0
 30
0.0
 11
-1125.0024247996009
 21
-131.50066705433298
 31
0.0
 12
-1125.0024247996009
 22
-138.49933294566702
 32
0.0
 13
-1125.0024247996009
 23
-138.49933294566702
 33
0.0
  0
MTEXT
  5
140
100
AcDbEntity
  8
IMPORTED
 62
               1
100
AcDbMText
 10
-971.74998339335093
 20
-76.496510491172472
 30
0.0
 40
32.576822916666664
 41
0.0
 71
               1
 72
               1
  1
450
  7
_______
  0
LINE
  5
141
100
AcDbEntity
  8
IMPORTED
  6
CONTINUOUS
 62
               1
100
AcDbLine
 10
-1224.9999831698335
 20
274.99997461490392
 30
0.0
 11
-1659.9999998509884
 21
274.99997461490392
 31
0.0
  0
LINE
  5
142
100
AcDbEntity
  8
IMPORTED
  6
CONTINUOUS
 62
               1
100
AcDbLine
 10
-1329.9999831698335
 20
674.99997461490386
 30
0.0
 11
-1659.9999998509884
 21
674.99997461490386
 31
0.0
  0
LINE
  5
143
100
AcDbEntity
  8
IMPORTED
  6
CONTINUOUS
 62
               1
100
AcDbLine
 10
-1620.0
 20
234.99997476391553
 30
0.0
 11
-1620.0
 21
274.99997461490392
 31
0.0
  0
LINE
  5
144
100
AcDbEntity
  8
IMPORTED
  6
CONTINUOUS
 62
               1
100
AcDbLine
 10
-1620.0
 20
674.99997461490386
 30
0.0
 11
-1620.0
 21
714.99997446589225
 31
0.0
  0
LINE
  5
145
100
AcDbEntity
  8
IMPORTED
  6
CONTINUOUS
 62
               1
100
AcDbLine
 10
-1620.0
 20
274.99997461490392
 30
0.0
 11
-1620.0
 21
674.99997461490386
 31
0.0
  0
SOLID
  5
146
100
AcDbEntity
  8
IMPORTED
 62
               1
100
AcDbTrace
 10
-1620.0
 20
274.99997461490392
 30
0.0
 11
-1623.499332945667
 21
314.99753320865392
 31
0.0
 12
-1616.500667054333
 22
314.99753320865392
 32
0.0
 13
-1616.500667054333
 23
314.99753320865392
 33
0.0
  0
SOLID
  5
147
100
AcDbEntity
  8
IMPORTED
 62
               1
100
AcDbTrace
 10
-1620.0
 20
674.99997461490386
 30
0.0
 11
-1616.500667054333
 21
635.00241602115386
 31
0.0
 12
-1623.499332945667
 22
635.00241602115386
 32
0.0
 13
-1623.499332945667
 23
635.00241602115386
 33
0.0
  0
MTEXT
  5
148
100
AcDbEntity
  8
IMPORTED
 62
               1
100
AcDbMText
 10
-1678.5034895088277
 20
443.24997461490386
 30
0.0
 40
32.576822916666664
 41
0.0
 71
               1
 72
               1
  1
400
  7
_______
 11
0.0
 21
1.0
 31
0.0
  0
LINE
  5
149
100
AcDbEntity
  8
IMPORTED
  6
CONTINUOUS
 62
               1
100
AcDbLine
 10
-1329.9999831698335
 20
674.99997461490386
 30
0.0
 11
-1659.9999998509884
 21
674.99997461490386
 31
0.0
  0
LINE
  5
14A
100
AcDbEntity
  8
IMPORTED
  6
CONTINUOUS
 62
               1
100
AcDbLine
 10
-1396.9999831698335
 20
1329.9999746149037
 30
0.0
 11
-1659.9999998509884
 21
1329.9999746149037
 31
0.0
  0
LINE
  5
14B
100
AcDbEntity
  8
IMPORTED
  6
CONTINUOUS
 62
               1
100
AcDbLine
 10
-1620.0
 20
634.99997476391547
 30
0.0
 11
-1620.0
 21
674.99997461490386
 31
0.0
  0
LINE
  5
14C
100
AcDbEntity
  8
IMPORTED
  6
CONTINUOUS
 62
               1
100
AcDbLine
 10
-1620.0
 20
1329.9999746149037
 30
0.0
 11
-1620.0
 21
1369.9999744658921
 31
0.0
  0
LINE
  5
14D
100
AcDbEntity
  8
IMPORTED
  6
CONTINUOUS
 62
               1
100
AcDbLine
 10
-1620.0
 20
674.99997461490386
 30
0.0
 11
-1620.0
 21
1329.9999746149037
 31
0.0
  0
SOLID
  5
14E
100
AcDbEntity
  8
IMPORTED
 62
               1
100
AcDbTrace
 10
-1620.0
 20
674.99997461490386
 30
0.0
 11
-1623.499332945667
 21
714.99753320865386
 31
0.0
 12
-1616.500667054333
 22
714.99753320865386
 32
0.0
 13
-1616.500667054333
 23
714.99753320865386
 33
0.0
  0
SOLID
  5
14F
100
AcDbEntity
  8
IMPORTED
 62
               1
100
AcDbTrace
 10
-1620.0
 20
1329.9999746149037
 30
0.0
 11
-1616.500667054333
 21
1290.0024160211537
 31
0.0
 12
-1623.499332945667
 22
1290.0024160211537
 32
0.0
 13
-1623.499332945667
 23
1290.0024160211537
 33
0.0
  0
MTEXT
  5
150
100
AcDbEntity
  8
IMPORTED
 62
               1
100
AcDbMText
 10
-1678.5034895088277
 20
970.74997461490375
 30
0.0
 40
32.576822916666664
 41
0.0
 71
               1
 72
               1
  1
655
  7
_______
 11
0.0
 21
1.0
 31
0.0
  0
LINE
  5
151
100
AcDbEntity
  8
IMPORTED
  6
CONTINUOUS
 62
               1
100
AcDbLine
 10
-1396.9999831698335
 20
1329.9999746149037
 30
0.0
 11
-1659.9999998509884
 21
1329.9999746149037
 31
0.0
  0
LINE
  5
152
100
AcDbEntity
  8
IMPORTED
  6
CONTINUOUS
 62
               1
100
AcDbLine
 10
-1396.9999831698335
 20
1474.9999746149037
 30
0.0
 11
-1659.9999998509884
 21
1474.9999746149037
 31
0.0
  0
LINE
  5
153
100
AcDbEntity
  8
IMPORTED
  6
CONTINUOUS
 62
               1
100
AcDbLine
 10
-1620.0
 20
1289.9999747639154
 30
0.0
 11
-1620.0
 21
1329.9999746149037
 31
0.0
  0
LINE
  5
154
100
AcDbEntity
  8
IMPORTED
  6
CONTINUOUS
 62
               1
100
AcDbLine
 10
-1620.0
 20
1474.9999746149037
 30
0.0
 11
-1620.0
 21
1514.9999744658921
 31
0.0
  0
LINE
  5
155
100
AcDbEntity
  8
IMPORTED
  6
CONTINUOUS
 62
               1
100
AcDbLine
 10
-1620.0
 20
1329.9999746149037
 30
0.0
 11
-1620.0
 21
1474.9999746149037
 31
0.0
  0
SOLID
  5
156
100
AcDbEntity
  8
IMPORTED
 62
               1
100
AcDbTrace
 10
-1620.0
 20
1329.9999746149037
 30
0.0
 11
-1623.499332945667
 21
1369.9975332086537
 31
0.0
 12
-1616.500667054333
 22
1369.9975332086537
 32
0.0
 13
-1616.500667054333
 23
1369.9975332086537
 33
0.0
  0
SOLID
  5
157
100
AcDbEntity
  8
IMPORTED
 62
               1
100
AcDbTrace
 10
-1620.0
 20
1474.9999746149037
 30
0.0
 11
-1616.500667054333
 21
1435.0024160211537
 31
0.0
 12
-1623.499332945667
 22
1435.0024160211537
 32
0.0
 13
-1623.499332945667
 23
1435.0024160211537
 33
0.0
  0
MTEXT
  5
158
100
AcDbEntity
  8
IMPORTED
 62
               1
100
AcDbMText
 10
-1678.5034895088277
 20
1370.7499746149037
 30
0.0
 40
32.576822916666664
 41
0.0
 71
               1
 72
               1
  1
145
  7
_______
 11
0.0
 21
1.0
 31
0.0
  0
LINE
  5
159
100
AcDbEntity
  8
IMPORTED
  6
CONTINUOUS
 62
               1
100
AcDbLine
 10
-1396.9999831698335
 20
1474.9999746149037
 30
0.0
 11
-1659.9999998509884
 21
1474.9999746149037
 31
0.0
  0
LINE
  5
15A
100
AcDbEntity
  8
IMPORTED
  6
CONTINUOUS
 62
               1
100
AcDbLine
 10
-1054.9999831698333
 20
1574.9999746149037
 30
0.0
 11
-1659.9999998509884
 21
1574.9999746149037
 31
0.0
  0
LINE
  5
15B
100
AcDbEntity
  8
IMPORTED
  6
CONTINUOUS
 62
               1
100
AcDbLine
 10
-1620.0
 20
1434.9999747639154
 30
0.0
 11
-1620.0
 21
1474.9999746149037
 31
0.0
  0
LINE
  5
15C
100
AcDbEntity
  8
IMPORTED
  6
CONTINUOUS
 62
               1
100
AcDbLine
 10
-1620.0
 20
1574.9999746149037
 30
0.0
 11
-1620.0
 21
1614.9999744658921
 31
0.0
  0
LINE
  5
15D
100
AcDbEntity
  8
IMPORTED
  6
CONTINUOUS
 62
               1
100
AcDbLine
 10
-1620.0
 20
1474.9999746149037
 30
0.0
 11
-1620.0
 21
1574.9999746149037
 31
0.0
  0
SOLID
  5
15E
100
AcDbEntity
  8
IMPORTED
 62
               1
100
AcDbTrace
 10
-1620.0
 20
1474.9999746149037
 30
0.0
 11
-1623.499332945667
 21
1514.9975332086537
 31
0.0
 12
-1616.500667054333
 22
1514.9975332086537
 32
0.0
 13
-1616.500667054333
 23
1514.9975332086537
 33
0.0
  0
SOLID
  5
15F
100
AcDbEntity
  8
IMPORTED
 62
               1
100
AcDbTrace
 10
-1620.0
 20
1574.9999746149037
 30
0.0
 11
-1616.500667054333
 21
1535.0024160211537
 31
0.0
 12
-1623.499332945667
 22
1535.0024160211537
 32
0.0
 13
-1623.499332945667
 23
1535.0024160211537
 33
0.0
  0
MTEXT
  5
160
100
AcDbEntity
  8
IMPORTED
 62
               1
100
AcDbMText
 10
-1678.5034895088277
 20
1493.2499746149037
 30
0.0
 40
32.576822916666664
 41
0.0
 71
               1
 72
               1
  1
100
  7
_______
 11
0.0
 21
1.0
 31
0.0
  0
LINE
  5
161
100
AcDbEntity
  8
IMPORTED
  6
CONTINUOUS
 62
               1
100
AcDbLine
 10
-1054.9999831698333
 20
1574.9999746149037
 30
0.0
 11
-1804.9999998509884
 21
1574.9999746149037
 31
0.0
  0
LINE
  5
162
100
AcDbEntity
  8
IMPORTED
  6
CONTINUOUS
 62
               1
100
AcDbLine
 10
-1224.9999831698335
 20
274.99997461490392
 30
0.0
 11
-1804.9999998509884
 21
274.99997461490392
 31
0.0
  0
LINE
  5
163
100
AcDbEntity
  8
IMPORTED
  6
CONTINUOUS
 62
               1
100
AcDbLine
 10
-1765.0
 20
1614.9999744658921
 30
0.0
 11
-1765.0
 21
1574.9999746149037
 31
0.0
  0
LINE
  5
164
100
AcDbEntity
  8
IMPORTED
  6
CONTINUOUS
 62
               1
100
AcDbLine
 10
-1765.0
 20
274.99997461490392
 30
0.0
 11
-1765.0
 21
234.99997476391553
 31
0.0
  0
LINE
  5
165
100
AcDbEntity
  8
IMPORTED
  6
CONTINUOUS
 62
               1
100
AcDbLine
 10
-1765.0
 20
1574.9999746149037
 30
0.0
 11
-1765.0
 21
274.99997461490392
 31
0.0
  0
SOLID
  5
166
100
AcDbEntity
  8
IMPORTED
 62
               1
100
AcDbTrace
 10
-1765.0
 20
1574.9999746149037
 30
0.0
 11
-1761.500667054333
 21
1535.0024160211537
 31
0.0
 12
-1768.499332945667
 22
1535.0024160211537
 32
0.0
 13
-1768.499332945667
 23
1535.0024160211537
 33
0.0
  0
SOLID
  5
167
100
AcDbEntity
  8
IMPORTED
 62
               1
100
AcDbTrace
 10
-1765.0
 20
274.99997461490392
 30
0.0
 11
-1768.499332945667
 21
314.99753320865392
 31
0.0
 12
-1761.500667054333
 22
314.99753320865392
 32
0.0
 13
-1761.500667054333
 23
314.99753320865392
 33
0.0
  0
MTEXT
  5
168
100
AcDbEntity
  8
IMPORTED
 62
               1
100
AcDbMText
 10
-1823.5034895088274
 20
882.66664128157061
 30
0.0
 40
32.576822916666664
 41
0.0
 71
               1
 72
               1
  1
1300
  7
_______
 11
0.0
 21
1.0
 31
0.0
  0
LINE
  5
169
100
AcDbEntity
  8
IMPORTED
  6
CONTINUOUS
 62
               1
100
AcDbLine
 10
-654.99998361686835
 20
124.99997461490392
 30
0.0
 11
-280.00000014901161
 21
124.99997461490392
 31
0.0
  0
LINE
  5
16A
100
AcDbEntity
  8
IMPORTED
  6
CONTINUOUS
 62
               1
100
AcDbLine
 10
-654.99998361686835
 20
224.99997461490392
 30
0.0
 11
-280.00000014901161
 21
224.99997461490392
 31
0.0
  0
LINE
  5
16B
100
AcDbEntity
  8
IMPORTED
  6
CONTINUOUS
 62
               1
100
AcDbLine
 10
-320.0
 20
84.999974763915532
 30
0.0
 11
-320.0
 21
124.99997461490392
 31
0.0
  0
LINE
  5
16C
100
AcDbEntity
  8
IMPORTED
  6
CONTINUOUS
 62
               1
100
AcDbLine
 10
-320.0
 20
224.99997461490392
 30
0.0
 11
-320.0
 21
264.99997446589231
 31
0.0
  0
LINE
  5
16D
100
AcDbEntity
  8
IMPORTED
  6
CONTINUOUS
 62
               1
100
AcDbLine
 10
-320.0
 20
124.99997461490392
 30
0.0
 11
-320.0
 21
224.99997461490392
 31
0.0
  0
SOLID
  5
16E
100
AcDbEntity
  8
IMPORTED
 62
               1
100
AcDbTrace
 10
-320.0
 20
124.99997461490392
 30
0.0
 11
-323.49933294566705
 21
164.99753320865392
 31
0.0
 12
-316.50066705433295
 22
164.99753320865392
 32
0.0
 13
-316.50066705433295
 23
164.99753320865392
 33
0.0
  0
SOLID
  5
16F
100
AcDbEntity
  8
IMPORTED
 62
               1
100
AcDbTrace
 10
-320.0
 20
224.99997461490392
 30
0.0
 11
-316.50066705433295
 21
185.00241602115392
 31
0.0
 12
-323.49933294566705
 22
185.00241602115392
 32
0.0
 13
-323.49933294566705
 23
185.00241602115392
 33
0.0
  0
MTEXT
  5
170
100
AcDbEntity
  8
IMPORTED
 62
               1
100
AcDbMText
 10
-378.50348950882756
 20
143.24997461490392
 30
0.0
 40
32.576822916666664
 41
0.0
 71
               1
 72
               1
  1
100
  7
_______
 11
0.0
 21
1.0
 31
0.0
  0
LINE
  5
171
100
AcDbEntity
  8
IMPORTED
  6
CONTINUOUS
 62
               1
100
AcDbLine
 10
-654.99998361686835
 20
224.99997461490392
 30
0.0
 11
-280.00000014901161
 21
224.99997461490392
 31
0.0
  0
LINE
  5
172
100
AcDbEntity
  8
IMPORTED
  6
CONTINUOUS
 62
               1
100
AcDbLine
 10
-654.99998361686835
 20
274.99997461490392
 30
0.0
 11
-280.00000014901161
 21
274.99997461490392
 31
0.0
  0
LINE
  5
173
100
AcDbEntity
  8
IMPORTED
  6
CONTINUOUS
 62
               1
100
AcDbLine
 10
-320.0
 20
184.99997476391553
 30
0.0
 11
-320.0
 21
224.99997461490392
 31
0.0
  0
LINE
  5
174
100
AcDbEntity
  8
IMPORTED
  6
CONTINUOUS
 62
               1
100
AcDbLine
 10
-320.0
 20
274.99997461490392
 30
0.0
 11
-320.0
 21
314.99997446589231
 31
0.0
  0
LINE
  5
175
100
AcDbEntity
  8
IMPORTED
  6
CONTINUOUS
 62
               1
100
AcDbLine
 10
-320.0
 20
224.99997461490392
 30
0.0
 11
-320.0
 21
274.99997461490392
 31
0.0
  0
SOLID
  5
176
100
AcDbEntity
  8
IMPORTED
 62
               1
100
AcDbTrace
 10
-320.0
 20
224.99997461490392
 30
0.0
 11
-323.49933294566705
 21
264.99753320865392
 31
0.0
 12
-316.50066705433295
 22
264.99753320865392
 32
0.0
 13
-316.50066705433295
 23
264.99753320865392
 33
0.0
  0
SOLID
  5
177
100
AcDbEntity
  8
IMPORTED
 62
               1
100
AcDbTrace
 10
-320.0
 20
274.99997461490392
 30
0.0
 11
-316.50066705433295
 21
235.00241602115392
 31
0.0
 12
-323.49933294566705
 22
235.00241602115392
 32
0.0
 13
-323.49933294566705
 23
235.00241602115392
 33
0.0
  0
MTEXT
  5
178
100
AcDbEntity
  8
IMPORTED
 62
               1
100
AcDbMText
 10
-378.50348950882756
 20
228.83330794823726
 30
0.0
 40
32.576822916666664
 41
0.0
 71
               1
 72
               1
  1
50
  7
_______
 11
0.0
 21
1.0
 31
0.0
  0
LINE
  5
179
100
AcDbEntity
  8
IMPORTED
  6
CONTINUOUS
 62
               1
100
AcDbLine
 10
-654.99998361686835
 20
274.99997461490392
 30
0.0
 11
-280.00000014901161
 21
274.99997461490392
 31
0.0
  0
LINE
  5
17A
100
AcDbEntity
  8
IMPORTED
  6
CONTINUOUS
 62
               1
100
AcDbLine
 10
-704.99998361686824
 20
624.99997461490386
 30
0.0
 11
-280.00000014901161
 21
624.99997461490386
 31
0.0
  0
LINE
  5
17B
100
AcDbEntity
  8
IMPORTED
  6
CONTINUOUS
 62
               1
100
AcDbLine
 10
-320.0
 20
234.99997476391553
 30
0.0
 11
-320.0
 21
274.99997461490392
 31
0.0
  0
LINE
  5
17C
100
AcDbEntity
  8
IMPORTED
  6
CONTINUOUS
 62
               1
100
AcDbLine
 10
-320.0
 20
624.99997461490386
 30
0.0
 11
-320.0
 21
664.99997446589225
 31
0.0
  0
LINE
  5
17D
100
AcDbEntity
  8
IMPORTED
  6
CONTINUOUS
 62
               1
100
AcDbLine
 10
-320.0
 20
274.99997461490392
 30
0.0
 11
-320.0
 21
624.99997461490386
 31
0.0
  0
SOLID
  5
17E
100
AcDbEntity
  8
IMPORTED
 62
               1
100
AcDbTrace
 10
-320.0
 20
274.99997461490392
 30
0.0
 11
-323.49933294566705
 21
314.99753320865392
 31
0.0
 12
-316.50066705433295
 22
314.99753320865392
 32
0.0
 13
-316.50066705433295
 23
314.99753320865392
 33
0.0
  0
SOLID
  5
17F
100
AcDbEntity
  8
IMPORTED
 62
               1
100
AcDbTrace
 10
-320.0
 20
624.99997461490386
 30
0.0
 11
-316.50066705433295
 21
585.00241602115386
 31
0.0
 12
-323.49933294566705
 22
585.00241602115386
 32
0.0
 13
-323.49933294566705
 23
585.00241602115386
 33
0.0
  0
MTEXT
  5
180
100
AcDbEntity
  8
IMPORTED
 62
               1
100
AcDbMText
 10
-378.50348950882756
 20
418.24997461490386
 30
0.0
 40
32.576822916666664
 41
0.0
 71
               1
 72
               1
  1
350
  7
_______
 11
0.0
 21
1.0
 31
0.0
  0
LINE
  5
181
100
AcDbEntity
  8
IMPORTED
  6
CONTINUOUS
 62
               1
100
AcDbLine
 10
-704.99998361686824
 20
624.99997461490386
 30
0.0
 11
-280.00000014901161
 21
624.99997461490386
 31
0.0
  0
LINE
  5
182
100
AcDbEntity
  8
IMPORTED
  6
CONTINUOUS
 62
               1
100
AcDbLine
 10
-533.99998361686835
 20
674.99997461490386
 30
0.0
 11
-280.00000014901161
 21
674.99997461490386
 31
0.0
  0
LINE
  5
183
100
AcDbEntity
  8
IMPORTED
  6
CONTINUOUS
 62
               1
100
AcDbLine
 10
-320.0
 20
584.99997476391547
 30
0.0
 11
-320.0
 21
624.99997461490386
 31
0.0
  0
LINE
  5
184
100
AcDbEntity
  8
IMPORTED
  6
CONTINUOUS
 62
               1
100
AcDbLine
 10
-320.0
 20
674.99997461490386
 30
0.0
 11
-320.0
 21
714.99997446589225
 31
0.0
  0
LINE
  5
185
100
AcDbEntity
  8
IMPORTED
  6
CONTINUOUS
 62
               1
100
AcDbLine
 10
-320.0
 20
624.99997461490386
 30
0.0
 11
-320.0
 21
674.99997461490386
 31
0.0
  0
SOLID
  5
186
100
AcDbEntity
  8
IMPORTED
 62
               1
100
AcDbTrace
 10
-320.0
 20
624.99997461490386
 30
0.0
 11
-323.49933294566705
 21
664.99753320865386
 31
0.0
 12
-316.50066705433295
 22
664.99753320865386
 32
0.0
 13
-316.50066705433295
 23
664.99753320865386
 33
0.0
  0
SOLID
  5
187
100
AcDbEntity
  8
IMPORTED
 62
               1
100
AcDbTrace
 10
-320.0
 20
674.99997461490386
 30
0.0
 11
-316.50066705433295
 21
635.00241602115386
 31
0.0
 12
-323.49933294566705
 22
635.00241602115386
 32
0.0
 13
-323.49933294566705
 23
635.00241602115386
 33
0.0
  0
MTEXT
  5
188
100
AcDbEntity
  8
IMPORTED
 62
               1
100
AcDbMText
 10
-378.50348950882756
 20
628.83330794823723
 30
0.0
 40
32.576822916666664
 41
0.0
 71
               1
 72
               1
  1
50
  7
_______
 11
0.0
 21
1.0
 31
0.0
  0
LINE
  5
189
100
AcDbEntity
  8
IMPORTED
  6
CONTINUOUS
 62
               1
100
AcDbLine
 10
-654.99998361686835
 20
124.99997461490392
 30
0.0
 11
-140.00000014901156
 21
124.99997461490392
 31
0.0
  0
LINE
  5
18A
100
AcDbEntity
  8
IMPORTED
  6
CONTINUOUS
 62
               1
100
AcDbLine
 10
-533.99998361686835
 20
674.99997461490386
 30
0.0
 11
-140.00000014901156
 21
674.99997461490386
 31
0.0
  0
LINE
  5
18B
100
AcDbEntity
  8
IMPORTED
  6
CONTINUOUS
 62
               1
100
AcDbLine
 10
-179.99999999999994
 20
84.999974763915532
 30
0.0
 11
-179.99999999999994
 21
124.99997461490392
 31
0.0
  0
LINE
  5
18C
100
AcDbEntity
  8
IMPORTED
  6
CONTINUOUS
 62
               1
100
AcDbLine
 10
-179.99999999999994
 20
674.99997461490386
 30
0.0
 11
-179.99999999999994
 21
714.99997446589225
 31
0.0
  0
LINE
  5
18D
100
AcDbEntity
  8
IMPORTED
  6
CONTINUOUS
 62
               1
100
AcDbLine
 10
-179.99999999999994
 20
124.99997461490392
 30
0.0
 11
-179.99999999999994
 21
674.99997461490386
 31
0.0
  0
SOLID
  5
18E
100
AcDbEntity
  8
IMPORTED
 62
               1
100
AcDbTrace
 10
-179.99999999999994
 20
124.99997461490392
 30
0.0
 11
-183.49933294566696
 21
164.99753320865392
 31
0.0
 12
-176.50066705433292
 22
164.99753320865392
 32
0.0
 13
-176.50066705433292
 23
164.99753320865392
 33
0.0
  0
SOLID
  5
18F
100
AcDbEntity
  8
IMPORTED
 62
               1
100
AcDbTrace
 10
-179.99999999999994
 20
674.99997461490386
 30
0.0
 11
-176.50066705433292
 21
635.00241602115386
 31
0.0
 12
-183.49933294566696
 22
635.00241602115386
 32
0.0
 13
-183.49933294566696
 23
635.00241602115386
 33
0.0
  0
MTEXT
  5
190
100
AcDbEntity
  8
IMPORTED
 62
               1
100
AcDbMText
 10
-238.50348950882744
 20
368.24997461490386
 30
0.0
 40
32.576822916666664
 41
0.0
 71
               1
 72
               1
  1
550
  7
_______
 11
0.0
 21
1.0
 31
0.0
  0
LINE
  5
191
100
AcDbEntity
  8
IMPORTED
  6
CONTINUOUS
 62
               1
100
AcDbLine
 10
-533.99998361686835
 20
674.99997461490386
 30
0.0
 11
-140.00000014901156
 21
674.99997461490386
 31
0.0
  0
LINE
  5
192
100
AcDbEntity
  8
IMPORTED
  6
CONTINUOUS
 62
               1
100
AcDbLine
 10
-824.99998361686824
 20
1574.9999746149037
 30
0.0
 11
-140.00000014901156
 21
1574.9999746149037
 31
0.0
  0
LINE
  5
193
100
AcDbEntity
  8
IMPORTED
  6
CONTINUOUS
 62
               1
100
AcDbLine
 10
-179.99999999999994
 20
634.99997476391547
 30
0.0
 11
-179.99999999999994
 21
674.99997461490386
 31
0.0
  0
LINE
  5
194
100
AcDbEntity
  8
IMPORTED
  6
CONTINUOUS
 62
               1
100
AcDbLine
 10
-179.99999999999994
 20
1574.9999746149037
 30
0.0
 11
-179.99999999999994
 21
1614.9999744658921
 31
0.0
  0
LINE
  5
195
100
AcDbEntity
  8
IMPORTED
  6
CONTINUOUS
 62
               1
100
AcDbLine
 10
-179.99999999999994
 20
674.99997461490386
 30
0.0
 11
-179.99999999999994
 21
1574.9999746149037
 31
0.0
  0
SOLID
  5
196
100
AcDbEntity
  8
IMPORTED
 62
               1
100
AcDbTrace
 10
-179.99999999999994
 20
674.99997461490386
 30
0.0
 11
-183.49933294566696
 21
714.99753320865386
 31
0.0
 12
-176.50066705433292
 22
714.99753320865386
 32
0.0
 13
-176.50066705433292
 23
714.99753320865386
 33
0.0
  0
SOLID
  5
197
100
AcDbEntity
  8
IMPORTED
 62
               1
100
AcDbTrace
 10
-179.99999999999994
 20
1574.9999746149037
 30
0.0
 11
-176.50066705433292
 21
1535.0024160211537
 31
0.0
 12
-183.49933294566696
 22
1535.0024160211537
 32
0.0
 13
-183.49933294566696
 23
1535.0024160211537
 33
0.0
  0
MTEXT
  5
198
100
AcDbEntity
  8
IMPORTED
 62
               1
100
AcDbMText
 10
-238.50348950882744
 20
1093.2499746149037
 30
0.0
 40
32.576822916666664
 41
0.0
 71
               1
 72
               1
  1
900
  7
_______
 11
0.0
 21
1.0
 31
0.0
  0
LINE
  5
199
100
AcDbEntity
  8
IMPORTED
  6
CONTINUOUS
 62
               1
100
AcDbLine
 10
-1339.9999833933509
 20
1531.9999743913863
 30
0.0
 11
-1339.9999833933509
 21
1905.9999998509884
 31
0.0
  0
LINE
  5
19A
100
AcDbEntity
  8
IMPORTED
  6
CONTINUOUS
 62
               1
100
AcDbLine
 10
-999.99998339335082
 20
1629.9999743913863
 30
0.0
 11
-999.99998339335082
 21
1905.9999998509884
 31
0.0
  0
LINE
  5
19B
100
AcDbEntity
  8
IMPORTED
  6
CONTINUOUS
 62
               1
100
AcDbLine
 10
-1379.9999832443393
 20
1866.0
 30
0.0
 11
-1339.9999833933509
 21
1866.0
 31
0.0
  0
LINE
  5
19C
100
AcDbEntity
  8
IMPORTED
  6
CONTINUOUS
 62
               1
100
AcDbLine
 10
-999.99998339335082
 20
1866.0
 30
0.0
 11
-959.99998354236243
 21
1866.0
 31
0.0
  0
LINE
  5
19D
100
AcDbEntity
  8
IMPORTED
  6
CONTINUOUS
 62
               1
100
AcDbLine
 10
-1339.9999833933509
 20
1866.0
 30
0.0
 11
-999.99998339335082
 21
1866.0
 31
0.0
  0
SOLID
  5
19E
100
AcDbEntity
  8
IMPORTED
 62
               1
100
AcDbTrace
 10
-1339.9999833933509
 20
1866.0
 30
0.0
 11
-1300.0024247996009
 21
1869.499332945667
 31
0.0
 12
-1300.0024247996009
 22
1862.500667054333
 32
0.0
 13
-1300.0024247996009
 23
1862.500667054333
 33
0.0
  0
SOLID
  5
19F
100
AcDbEntity
  8
IMPORTED
 62
               1
100
AcDbTrace
 10
-999.99998339335082
 20
1866.0
 30
0.0
 11
-1039.9975419871007
 21
1862.500667054333
 31
0.0
 12
-1039.9975419871007
 22
1869.499332945667
 32
0.0
 13
-1039.9975419871007
 23
1869.499332945667
 33
0.0
  0
MTEXT
  5
1A0
100
AcDbEntity
  8
IMPORTED
 62
               1
100
AcDbMText
 10
-1201.7499833933509
 20
1924.5034895088274
 30
0.0
 40
32.576822916666664
 41
0.0
 71
               1
 72
               1
  1
340
  7
_______
  0
LINE
  5
1A1
100
AcDbEntity
  8
IMPORTED
  6
CONTINUOUS
 62
               1
100
AcDbLine
 10
-999.99998339335082
 20
1629.9999743913863
 30
0.0
 11
-999.99998339335082
 21
1905.9999998509884
 31
0.0
  0
LINE
  5
1A2
100
AcDbEntity
  8
IMPORTED
  6
CONTINUOUS
 62
               1
100
AcDbLine
 10
-879.99998339335082
 20
1629.9999743913863
 30
0.0
 11
-879.99998339335082
 21
1905.9999998509884
 31
0.0
  0
LINE
  5
1A3
100
AcDbEntity
  8
IMPORTED
  6
CONTINUOUS
 62
               1
100
AcDbLine
 10
-1039.9999832443391
 20
1866.0
 30
0.0
 11
-999.99998339335082
 21
1866.0
 31
0.0
  0
LINE
  5
1A4
100
AcDbEntity
  8
IMPORTED
  6
CONTINUOUS
 62
               1
100
AcDbLine
 10
-879.99998339335082
 20
1866.0
 30
0.0
 11
-839.99998354236243
 21
1866.0
 31
0.0
  0
LINE
  5
1A5
100
AcDbEntity
  8
IMPORTED
  6
CONTINUOUS
 62
               1
100
AcDbLine
 10
-999.99998339335082
 20
1866.0
 30
0.0
 11
-879.99998339335082
 21
1866.0
 31
0.0
  0
SOLID
  5
1A6
100
AcDbEntity
  8
IMPORTED
 62
               1
100
AcDbTrace
 10
-999.99998339335082
 20
1866.0
 30
0.0
 11
-960.00242479960082
 21
1869.499332945667
 31
0.0
 12
-960.00242479960082
 22
1862.500667054333
 32
0.0
 13
-960.00242479960082
 23
1862.500667054333
 33
0.0
  0
SOLID
  5
1A7
100
AcDbEntity
  8
IMPORTED
 62
               1
100
AcDbTrace
 10
-879.99998339335082
 20
1866.0
 30
0.0
 11
-919.99754198710082
 21
1862.500667054333
 31
0.0
 12
-919.99754198710082
 22
1869.499332945667
 32
0.0
 13
-919.99754198710082
 23
1869.499332945667
 33
0.0
  0
MTEXT
  5
1A8
100
AcDbEntity
  8
IMPORTED
 62
               1
100
AcDbMText
 10
-971.74998339335082
 20
1924.5034895088274
 30
0.0
 40
32.576822916666664
 41
0.0
 71
               1
 72
               1
  1
120
  7
_______
  0
LINE
  5
1A9
100
AcDbEntity
  8
IMPORTED
  6
CONTINUOUS
 62
               1
100
AcDbLine
 10
-879.99998339335082
 20
1629.9999743913863
 30
0.0
 11
-879.99998339335082
 21
1905.9999998509884
 31
0.0
  0
LINE
  5
1AA
100
AcDbEntity
  8
IMPORTED
  6
CONTINUOUS
 62
               1
100
AcDbLine
 10
-539.99998339335093
 20
1531.9999743913863
 30
0.0
 11
-539.99998339335093
 21
1905.9999998509884
 31
0.0
  0
LINE
  5
1AB
100
AcDbEntity
  8
IMPORTED
  6
CONTINUOUS
 62
               1
100
AcDbLine
 10
-919.99998324433921
 20
1866.0
 30
0.0
 11
-879.99998339335082
 21
1866.0
 31
0.0
  0
LINE
  5
1AC
100
AcDbEntity
  8
IMPORTED
  6
CONTINUOUS
 62
               1
100
AcDbLine
 10
-539.99998339335093
 20
1866.0
 30
0.0
 11
-499.99998354236249
 21
1866.0
 31
0.0
  0
LINE
  5
1AD
100
AcDbEntity
  8
IMPORTED
  6
CONTINUOUS
 62
               1
100
AcDbLine
 10
-879.99998339335082
 20
1866.0
 30
0.0
 11
-539.99998339335093
 21
1866.0
 31
0.0
  0
SOLID
  5
1AE
100
AcDbEntity
  8
IMPORTED
 62
               1
100
AcDbTrace
 10
-879.99998339335082
 20
1866.0
 30
0.0
 11
-840.00242479960082
 21
1869.499332945667
 31
0.0
 12
-840.00242479960082
 22
1862.500667054333
 32
0.0
 13
-840.00242479960082
 23
1862.500667054333
 33
0.0
  0
SOLID
  5
1AF
100
AcDbEntity
  8
IMPORTED
 62
               1
100
AcDbTrace
 10
-539.99998339335093
 20
1866.0
 30
0.0
 11
-579.99754198710093
 21
1862.500667054333
 31
0.0
 12
-579.99754198710093
 22
1869.499332945667
 32
0.0
 13
-579.99754198710093
 23
1869.499332945667
 33
0.0
  0
MTEXT
  5
1B0
100
AcDbEntity
  8
IMPORTED
 62
               1
100
AcDbMText
 10
-741.74998339335093
 20
1924.5034895088274
 30
0.0
 40
32.576822916666664
 41
0.0
 71
               1
 72
               1
  1
340
  7
_______
  0
LINE
  5
1B1
100
AcDbEntity
  8
IMPORTED
  6
CONTINUOUS
 62
               1
100
AcDbLine
 10
-539.99998339335093
 20
1531.9999743913863
 30
0.0
 11
-539.99998339335093
 21
2044.9999998509884
 31
0.0
  0
LINE
  5
1B2
100
AcDbEntity
  8
IMPORTED
  6
CONTINUOUS
 62
               1
100
AcDbLine
 10
-1339.9999833933509
 20
1531.9999743913863
 30
0.0
 11
-1339.9999833933509
 21
2044.9999998509884
 31
0.0
  0
LINE
  5
1B3
100
AcDbEntity
  8
IMPORTED
  6
CONTINUOUS
 62
               1
100
AcDbLine
 10
-499.99998354236249
 20
2005.0
 30
0.0
 11
-539.99998339335093
 21
2005.0
 31
0.0
  0
LINE
  5
1B4
100
AcDbEntity
  8
IMPORTED
  6
CONTINUOUS
 62
               1
100
AcDbLine
 10
-1339.9999833933509
 20
2005.0
 30
0.0
 11
-1379.9999832443393
 21
2005.0
 31
0.0
  0
LINE
  5
1B5
100
AcDbEntity
  8
IMPORTED
  6
CONTINUOUS
 62
               1
100
AcDbLine
 10
-539.99998339335093
 20
2005.0
 30
0.0
 11
-1339.9999833933509
 21
2005.0
 31
0.0
  0
SOLID
  5
1B6
100
AcDbEntity
  8
IMPORTED
 62
               1
100
AcDbTrace
 10
-539.99998339335093
 20
2005.0
 30
0.0
 11
-579.99754198710093
 21
2001.500667054333
 31
0.0
 12
-579.99754198710093
 22
2008.499332945667
 32
0.0
 13
-579.99754198710093
 23
2008.499332945667
 33
0.0
  0
SOLID
  5
1B7
100
AcDbEntity
  8
IMPORTED
 62
               1
100
AcDbTrace
 10
-1339.9999833933509
 20
2005.0
 30
0.0
 11
-1300.0024247996009
 21
2008.499332945667
 31
0.0
 12
-1300.0024247996009
 22
2001.500667054333
 32
0.0
 13
-1300.0024247996009
 23
2001.500667054333
 33
0.0
  0
MTEXT
  5
1B8
100
AcDbEntity
  8
IMPORTED
 62
               1
100
AcDbMText
 10
-971.74998339335093
 20
2063.5034895088274
 30
0.0
 40
32.576822916666664
 41
0.0
 71
               1
 72
               1
  1
800
  7
_______
  0
LINE
  5
1B9
100
AcDbEntity
  8
IMPORTED
  6
CONTINUOUS
 62
               1
100
AcDbLine
 10
884.99991660664898
 20
214.99997483842134
 30
0.0
 11
884.99991660664898
 21
-71.000025236084468
 31
0.0
  0
LINE
  5
1BA
100
AcDbEntity
  8
IMPORTED
  6
CONTINUOUS
 62
               1
100
AcDbLine
 10
1234.9999166066489
 20
214.99997483842134
 30
0.0
 11
1234.9999166066489
 21
-71.000025236084468
 31
0.0
  0
LINE
  5
1BB
100
AcDbEntity
  8
IMPORTED
  6
CONTINUOUS
 62
               1
100
AcDbLine
 10
844.99991675566059
 20
-31.000025385096084
 30
0.0
 11
884.99991660664898
 21
-31.000025385096084
 31
0.0
  0
LINE
  5
1BC
100
AcDbEntity
  8
IMPORTED
  6
CONTINUOUS
 62
               1
100
AcDbLine
 10
1234.9999166066489
 20
-31.000025385096084
 30
0.0
 11
1274.9999164576373
 21
-31.000025385096084
 31
0.0
  0
LINE
  5
1BD
100
AcDbEntity
  8
IMPORTED
  6
CONTINUOUS
 62
               1
100
AcDbLine
 10
884.99991660664898
 20
-31.000025385096084
 30
0.0
 11
1234.9999166066489
 21
-31.000025385096084
 31
0.0
  0
SOLID
  5
1BE
100
AcDbEntity
  8
IMPORTED
 62
               1
100
AcDbTrace
 10
884.99991660664898
 20
-31.000025385096084
 30
0.0
 11
924.99747520039898
 21
-27.500692439429059
 31
0.0
 12
924.99747520039898
 22
-34.499358330763108
 32
0.0
 13
924.99747520039898
 23
-34.499358330763108
 33
0.0
  0
SOLID
  5
1BF
100
AcDbEntity
  8
IMPORTED
 62
               1
100
AcDbTrace
 10
1234.9999166066489
 20
-31.000025385096084
 30
0.0
 11
1195.0023580128989
 21
-34.499358330763108
 31
0.0
 12
1195.0023580128989
 22
-27.50069243942907
 32
0.0
 13
1195.0023580128989
 23
-27.50069243942907
 33
0.0
  0
MTEXT
  5
1C0
100
AcDbEntity
  8
IMPORTED
 62
               1
100
AcDbMText
 10
1028.2499166066489
 20
27.503464123731437
 30
0.0
 40
32.576822916666664
 41
0.0
 71
               1
 72
               1
  1
350
  7
_______
  0
LINE
  5
1C1
100
AcDbEntity
  8
IMPORTED
  6
CONTINUOUS
 62
               1
100
AcDbLine
 10
834.99991660664898
 20
64.999974838421338
 30
0.0
 11
834.99991660664898
 21
-174.99999985098839
 31
0.0
  0
LINE
  5
1C2
100
AcDbEntity
  8
IMPORTED
  6
CONTINUOUS
 62
               1
100
AcDbLine
 10
1284.9999166066489
 20
64.999974838421338
 30
0.0
 11
1284.9999166066489
 21
-174.99999985098839
 31
0.0
  0
LINE
  5
1C3
100
AcDbEntity
  8
IMPORTED
  6
CONTINUOUS
 62
               1
100
AcDbLine
 10
794.99991675566059
 20
-135.0
 30
0.0
 11
834.99991660664898
 21
-135.0
 31
0.0
  0
LINE
  5
1C4
100
AcDbEntity
  8
IMPORTED
  6
CONTINUOUS
 62
               1
100
AcDbLine
 10
1284.9999166066489
 20
-135.0
 30
0.0
 11
1324.9999164576373
 21
-135.0
 31
0.0
  0
LINE
  5
1C5
100
AcDbEntity
  8
IMPORTED
  6
CONTINUOUS
 62
               1
100
AcDbLine
 10
834.99991660664898
 20
-135.0
 30
0.0
 11
1284.9999166066489
 21
-135.0
 31
0.0
  0
SOLID
  5
1C6
100
AcDbEntity
  8
IMPORTED
 62
               1
100
AcDbTrace
 10
834.99991660664898
 20
-135.0
 30
0.0
 11
874.99747520039898
 21
-131.50066705433298
 31
0.0
 12
874.99747520039898
 22
-138.49933294566702
 32
0.0
 13
874.99747520039898
 23
-138.49933294566702
 33
0.0
  0
SOLID
  5
1C7
100
AcDbEntity
  8
IMPORTED
 62
               1
100
AcDbTrace
 10
1284.9999166066489
 20
-135.0
 30
0.0
 11
1245.0023580128989
 21
-138.49933294566702
 31
0.0
 12
1245.0023580128989
 22
-131.50066705433298
 32
0.0
 13
1245.0023580128989
 23
-131.50066705433298
 33
0.0
  0
MTEXT
  5
1C8
100
AcDbEntity
  8
IMPORTED
 62
               1
100
AcDbMText
 10
1028.2499166066489
 20
-76.496510491172472
 30
0.0
 40
32.576822916666664
 41
0.0
 71
               1
 72
               1
  1
450
  7
_______
  0
LINE
  5
1C9
100
AcDbEntity
  8
IMPORTED
  6
CONTINUOUS
 62
               1
100
AcDbLine
 10
834.99991660664898
 20
64.999974838421338
 30
0.0
 11
834.99991660664898
 21
-71.00002523608444
 31
0.0
  0
LINE
  5
1CA
100
AcDbEntity
  8
IMPORTED
  6
CONTINUOUS
 62
               1
100
AcDbLine
 10
884.99991660664898
 20
214.99997483842134
 30
0.0
 11
884.99991660664898
 21
-71.000025236084468
 31
0.0
  0
LINE
  5
1CB
100
AcDbEntity
  8
IMPORTED
  6
CONTINUOUS
 62
               1
100
AcDbLine
 10
794.99991675566059
 20
-31.000025385096055
 30
0.0
 11
834.99991660664898
 21
-31.000025385096055
 31
0.0
  0
LINE
  5
1CC
100
AcDbEntity
  8
IMPORTED
  6
CONTINUOUS
 62
               1
100
AcDbLine
 10
884.99991660664898
 20
-31.000025385096084
 30
0.0
 11
924.99991645763737
 21
-31.000025385096084
 31
0.0
  0
LINE
  5
1CD
100
AcDbEntity
  8
IMPORTED
  6
CONTINUOUS
 62
               1
100
AcDbLine
 10
834.99991660664898
 20
-31.000025385096055
 30
0.0
 11
884.99991660664898
 21
-31.000025385096084
 31
0.0
  0
SOLID
  5
1CE
100
AcDbEntity
  8
IMPORTED
 62
               1
100
AcDbTrace
 10
834.99991660664898
 20
-31.000025385096055
 30
0.0
 11
874.99747520039898
 21
-27.500692439429031
 31
0.0
 12
874.99747520039898
 22
-34.49935833076308
 32
0.0
 13
874.99747520039898
 23
-34.49935833076308
 33
0.0
  0
SOLID
  5
1CF
100
AcDbEntity
  8
IMPORTED
 62
               1
100
AcDbTrace
 10
884.99991660664898
 20
-31.000025385096084
 30
0.0
 11
844.94737805397813
 21
-33.800771716328896
 31
0.0
 12
845.06952161563254
 22
-26.803171755708888
 32
0.0
 13
845.06952161563254
 23
-26.803171755708888
 33
0.0
  0
MTEXT
  5
1D0
100
AcDbEntity
  8
IMPORTED
 62
               1
100
AcDbMText
 10
838.83324993998235
 20
27.503464123731451
 30
0.0
 40
32.576822916666664
 41
0.0
 71
               1
 72
               1
  1
50
  7
_______
  0
LINE
  5
1D1
100
AcDbEntity
  8
IMPORTED
  6
CONTINUOUS
 62
               1
100
AcDbLine
 10
1234.9999166066489
 20
214.99997483842134
 30
0.0
 11
1234.9999166066489
 21
-71.000025236084468
 31
0.0
  0
LINE
  5
1D2
100
AcDbEntity
  8
IMPORTED
  6
CONTINUOUS
 62
               1
100
AcDbLine
 10
1284.9999166066489
 20
64.999974838421338
 30
0.0
 11
1284.9999166066489
 21
-71.000025236084468
 31
0.0
  0
LINE
  5
1D3
100
AcDbEntity
  8
IMPORTED
  6
CONTINUOUS
 62
               1
100
AcDbLine
 10
1194.9999167556605
 20
-31.000025385096084
 30
0.0
 11
1234.9999166066489
 21
-31.000025385096084
 31
0.0
  0
LINE
  5
1D4
100
AcDbEntity
  8
IMPORTED
  6
CONTINUOUS
 62
               1
100
AcDbLine
 10
1284.9999166066489
 20
-31.000025385096084
 30
0.0
 11
1324.9999164576373
 21
-31.000025385096084
 31
0.0
  0
LINE
  5
1D5
100
AcDbEntity
  8
IMPORTED
  6
CONTINUOUS
 62
               1
100
AcDbLine
 10
1234.9999166066489
 20
-31.000025385096084
 30
0.0
 11
1284.9999166066489
 21
-31.000025385096084
 31
0.0
  0
SOLID
  5
1D6
100
AcDbEntity
  8
IMPORTED
 62
               1
100
AcDbTrace
 10
1234.9999166066489
 20
-31.000025385096084
 30
0.0
 11
1274.9974752003989
 21
-27.500692439429059
 31
0.0
 12
1274.9974752003989
 22
-34.499358330763108
 32
0.0
 13
1274.9974752003989
 23
-34.499358330763108
 33
0.0
  0
SOLID
  5
1D7
100
AcDbEntity
  8
IMPORTED
 62
               1
100
AcDbTrace
 10
1284.9999166066489
 20
-31.000025385096084
 30
0.0
 11
1245.0023580128989
 21
-34.499358330763108
 31
0.0
 12
1245.0023580128989
 22
-27.50069243942907
 32
0.0
 13
1245.0023580128989
 23
-27.50069243942907
 33
0.0
  0
MTEXT
  5
1D8
100
AcDbEntity
  8
IMPORTED
 62
               1
100
AcDbMText
 10
1238.8332499399821
 20
27.503464123731437
 30
0.0
 40
32.576822916666664
 41
0.0
 71
               1
 72
               1
  1
50
  7
_______
  0
LINE
  5
1D9
100
AcDbEntity
  8
IMPORTED
  6
CONTINUOUS
 62
               1
100
AcDbLine
 10
1119.9999166066489
 20
1629.9999743913863
 30
0.0
 11
1119.9999166066489
 21
1875.9999997764826
 31
0.0
  0
LINE
  5
1DA
100
AcDbEntity
  8
IMPORTED
  6
CONTINUOUS
 62
               1
100
AcDbLine
 10
999.99991660664898
 20
1629.9999743913863
 30
0.0
 11
999.99991660664898
 21
1875.9999997764826
 31
0.0
  0
LINE
  5
1DB
100
AcDbEntity
  8
IMPORTED
  6
CONTINUOUS
 62
               1
100
AcDbLine
 10
1159.9999164576373
 20
1835.9999999254942
 30
0.0
 11
1119.9999166066489
 21
1835.9999999254942
 31
0.0
  0
LINE
  5
1DC
100
AcDbEntity
  8
IMPORTED
  6
CONTINUOUS
 62
               1
100
AcDbLine
 10
999.99991660664898
 20
1835.9999999254942
 30
0.0
 11
959.99991675566059
 21
1835.9999999254942
 31
0.0
  0
LINE
  5
1DD
100
AcDbEntity
  8
IMPORTED
  6
CONTINUOUS
 62
               1
100
AcDbLine
 10
1119.9999166066489
 20
1835.9999999254942
 30
0.0
 11
999.99991660664898
 21
1835.9999999254942
 31
0.0
  0
SOLID
  5
1DE
100
AcDbEntity
  8
IMPORTED
 62
               1
100
AcDbTrace
 10
1119.9999166066489
 20
1835.9999999254942
 30
0.0
 11
1080.0023580128989
 21
1832.5006669798272
 31
0.0
 12
1080.0023580128989
 22
1839.4993328711612
 32
0.0
 13
1080.0023580128989
 23
1839.4993328711612
 33
0.0
  0
SOLID
  5
1DF
100
AcDbEntity
  8
IMPORTED
 62
               1
100
AcDbTrace
 10
999.99991660664898
 20
1835.9999999254942
 30
0.0
 11
1039.9974752003991
 21
1839.4993328711612
 31
0.0
 12
1039.9974752003991
 22
1832.5006669798272
 32
0.0
 13
1039.9974752003991
 23
1832.5006669798272
 33
0.0
  0
MTEXT
  5
1E0
100
AcDbEntity
  8
IMPORTED
 62
               1
100
AcDbMText
 10
1028.2499166066489
 20
1894.5034894343216
 30
0.0
 40
32.576822916666664
 41
0.0
 71
               1
 72
               1
  1
120
  7
_______
  0
LINE
  5
1E1
100
AcDbEntity
  8
IMPORTED
  6
CONTINUOUS
 62
               1
100
AcDbLine
 10
999.99991660664898
 20
1629.9999743913863
 30
0.0
 11
999.99991660664898
 21
1875.9999997764826
 31
0.0
  0
LINE
  5
1E2
100
AcDbEntity
  8
IMPORTED
  6
CONTINUOUS
 62
               1
100
AcDbLine
 10
974.99991660664898
 20
1531.9999743913863
 30
0.0
 11
974.99991660664898
 21
1875.9999997764826
 31
0.0
  0
LINE
  5
1E3
100
AcDbEntity
  8
IMPORTED
  6
CONTINUOUS
 62
               1
100
AcDbLine
 10
1039.9999164576375
 20
1835.9999999254942
 30
0.0
 11
999.99991660664898
 21
1835.9999999254942
 31
0.0
  0
LINE
  5
1E4
100
AcDbEntity
  8
IMPORTED
  6
CONTINUOUS
 62
               1
100
AcDbLine
 10
974.99991660664898
 20
1835.9999999254942
 30
0.0
 11
934.99991675566059
 21
1835.9999999254942
 31
0.0
  0
LINE
  5
1E5
100
AcDbEntity
  8
IMPORTED
  6
CONTINUOUS
 62
               1
100
AcDbLine
 10
974.99991660664898
 20
1835.9999999254942
 30
0.0
 11
923.99991660664898
 21
1835.9999999254942
 31
0.0
  0
LINE
  5
1E6
100
AcDbEntity
  8
IMPORTED
  6
CONTINUOUS
 62
               1
100
AcDbLine
 10
999.99991660664898
 20
1835.9999999254942
 30
0.0
 11
974.99991660664898
 21
1835.9999999254942
 31
0.0
  0
SOLID
  5
1E7
100
AcDbEntity
  8
IMPORTED
 62
               1
100
AcDbTrace
 10
999.99991660664898
 20
1835.9999999254942
 30
0.0
 11
960.00235801289898
 21
1832.5006669798272
 31
0.0
 12
960.00235801289898
 22
1839.4993328711612
 32
0.0
 13
960.00235801289898
 23
1839.4993328711612
 33
0.0
  0
SOLID
  5
1E8
100
AcDbEntity
  8
IMPORTED
 62
               1
100
AcDbTrace
 10
974.99991660664898
 20
1835.9999999254942
 30
0.0
 11
1014.997475200399
 21
1839.4993328711612
 31
0.0
 12
1014.997475200399
 22
1832.5006669798272
 32
0.0
 13
1014.997475200399
 23
1832.5006669798272
 33
0.0
  0
MTEXT
  5
1E9
100
AcDbEntity
  8
IMPORTED
 62
               1
100
AcDbMText
 10
923.99991660664909
 20
1894.5034894343216
 30
0.0
 40
32.576822916666664
 41
0.0
 71
               1
 72
               1
  1
25
  7
_______
  0
CIRCLE
  5
1EA
100
AcDbEntity
  8
IMPORTED
  6
CONTINUOUS
 62
              30
100
AcDbCircle
 10
-969.99998339335082
 20
1359.9999746149037
 30
0.0
 40
6.2999999999999545
  0
POLYLINE
  5
1EB
100
AcDbEntity
  8
IMPORTED
  6
CONTINUOUS
 62
              30
100
AcDb2dPolyline
 66
               1
 10
0.0
 20
0.0
 30
0.0
 70
             129
  0
VERTEX
  5
1EC
100
AcDbEntity
  8
IMPORTED
  6
CONTINUOUS
 62
              30
100
AcDbVertex
100
AcDb2dVertex
 10
-970.94998339335086
 20
1363.9374746149037
 30
0.0
  0
VERTEX
  5
1ED
100
AcDbEntity
  8
IMPORTED
  6
CONTINUOUS
 62
              30
100
AcDbVertex
100
AcDb2dVertex
 10
-969.04998339335077
 20
1363.9374746149037
 30
0.0
  0
VERTEX
  5
1EE
100
AcDbEntity
  8
IMPORTED
  6
CONTINUOUS
 62
              30
100
AcDbVertex
100
AcDb2dVertex
 10
-969.04998339335077
 20
1362.4437246149039
 30
0.0
 42
0.414213562373095
 70
               2
  0
VERTEX
  5
1EF
100
AcDbEntity
  8
IMPORTED
  6
CONTINUOUS
 62
              30
100
AcDbVertex
100
AcDb2dVertex
 10
-967.55623339335079
 20
1360.9499746149038
 30
0.0
  0
VERTEX
  5
1F0
100
AcDbEntity
  8
IMPORTED
  6
CONTINUOUS
 62
              30
100
AcDbVertex
100
AcDb2dVertex
 10
-966.06248339335082
 20
1360.9499746149038
 30
0.0
  0
VERTEX
  5
1F1
100
AcDbEntity
  8
IMPORTED
  6
CONTINUOUS
 62
              30
100
AcDbVertex
100
AcDb2dVertex
 10
-966.06248339335082
 20
1359.0499746149037
 30
0.0
  0
VERTEX
  5
1F2
100
AcDbEntity
  8
IMPORTED
  6
CONTINUOUS
 62
              30
100
AcDbVertex
100
AcDb2dVertex
 10
-967.55623339335079
 20
1359.0499746149037
 30
0.0
 42
0.414213562373095
 70
               2
 50
9.3574199307792870E+17
  0
VERTEX
  5
1F3
100
AcDbEntity
  8
IMPORTED
  6
CONTINUOUS
 62
              30
100
AcDbVertex
100
AcDb2dVertex
 10
-969.04998339335077
 20
1357.5562246149036
 30
0.0
  0
VERTEX
  5
1F4
100
AcDbEntity
  8
IMPORTED
  6
CONTINUOUS
 62
              30
100
AcDbVertex
100
AcDb2dVertex
 10
-969.04998339335077
 20
1356.0624746149037
 30
0.0
  0
VERTEX
  5
1F5
100
AcDbEntity
  8
IMPORTED
  6
CONTINUOUS
 62
              30
100
AcDbVertex
100
AcDb2dVertex
 10
-970.94998339335086
 20
1356.0624746149037
 30
0.0
  0
VERTEX
  5
1F6
100
AcDbEntity
  8
IMPORTED
  6
CONTINUOUS
 62
              30
100
AcDbVertex
100
AcDb2dVertex
 10
-970.94998339335086
 20
1357.5562246149036
 30
0.0
 42
0.414213562373095
 70
               2
  0
VERTEX
  5
1F7
100
AcDbEntity
  8
IMPORTED
  6
CONTINUOUS
 62
              30
100
AcDbVertex
100
AcDb2dVertex
 10
-972.44373339335084
 20
1359.0499746149037
 30
0.0
  0
VERTEX
  5
1F8
100
AcDbEntity
  8
IMPORTED
  6
CONTINUOUS
 62
              30
100
AcDbVertex
100
AcDb2dVertex
 10
-973.93748339335082
 20
1359.0499746149037
 30
0.0
  0
VERTEX
  5
1F9
100
AcDbEntity
  8
IMPORTED
  6
CONTINUOUS
 62
              30
100
AcDbVertex
100
AcDb2dVertex
 10
-973.93748339335082
 20
1360.9499746149038
 30
0.0
  0
VERTEX
  5
1FA
100
AcDbEntity
  8
IMPORTED
  6
CONTINUOUS
 62
              30
100
AcDbVertex
100
AcDb2dVertex
 10
-972.44373339335084
 20
1360.9499746149038
 30
0.0
 42
0.414213562373095
 70
               2
 50
3.1191399769264294E+17
  0
VERTEX
  5
1FB
100
AcDbEntity
  8
IMPORTED
  6
CONTINUOUS
 62
              30
100
AcDbVertex
100
AcDb2dVertex
 10
-970.94998339335086
 20
1362.4437246149039
 30
0.0
  0
SEQEND
  5
1FC
100
AcDbEntity
  8
IMPORTED
  6
CONTINUOUS
 62
              30
  0
CIRCLE
  5
1FD
100
AcDbEntity
  8
IMPORTED
  6
CONTINUOUS
 62
              30
100
AcDbCircle
 10
-909.99998339335082
 20
1444.9999746149037
 30
0.0
 40
6.2999999999999545
  0
POLYLINE
  5
1FE
100
AcDbEntity
  8
IMPORTED
  6
CONTINUOUS
 62
              30
100
AcDb2dPolyline
 66
               1
 10
0.0
 20
0.0
 30
0.0
 70
             129
  0
VERTEX
  5
1FF
100
AcDbEntity
  8
IMPORTED
  6
CONTINUOUS
 62
              30
100
AcDbVertex
100
AcDb2dVertex
 10
-910.94998339335086
 20
1448.9374746149037
 30
0.0
  0
VERTEX
  5
200
100
AcDbEntity
  8
IMPORTED
  6
CONTINUOUS
 62
              30
100
AcDbVertex
100
AcDb2dVertex
 10
-909.04998339335077
 20
1448.9374746149037
 30
0.0
  0
VERTEX
  5
201
100
AcDbEntity
  8
IMPORTED
  6
CONTINUOUS
 62
              30
100
AcDbVertex
100
AcDb2dVertex
 10
-909.04998339335077
 20
1447.4437246149039
 30
0.0
 42
0.414213562373095
 70
               2
  0
VERTEX
  5
202
100
AcDbEntity
  8
IMPORTED
  6
CONTINUOUS
 62
              30
100
AcDbVertex
100
AcDb2dVertex
 10
-907.55623339335079
 20
1445.9499746149038
 30
0.0
  0
VERTEX
  5
203
100
AcDbEntity
  8
IMPORTED
  6
CONTINUOUS
 62
              30
100
AcDbVertex
100
AcDb2dVertex
 10
-906.06248339335082
 20
1445.9499746149038
 30
0.0
  0
VERTEX
  5
204
100
AcDbEntity
  8
IMPORTED
  6
CONTINUOUS
 62
              30
100
AcDbVertex
100
AcDb2dVertex
 10
-906.06248339335082
 20
1444.0499746149037
 30
0.0
  0
VERTEX
  5
205
100
AcDbEntity
  8
IMPORTED
  6
CONTINUOUS
 62
              30
100
AcDbVertex
100
AcDb2dVertex
 10
-907.55623339335079
 20
1444.0499746149037
 30
0.0
 42
0.414213562373095
 70
               2
 50
9.3574199307792870E+17
  0
VERTEX
  5
206
100
AcDbEntity
  8
IMPORTED
  6
CONTINUOUS
 62
              30
100
AcDbVertex
100
AcDb2dVertex
 10
-909.04998339335077
 20
1442.5562246149036
 30
0.0
  0
VERTEX
  5
207
100
AcDbEntity
  8
IMPORTED
  6
CONTINUOUS
 62
              30
100
AcDbVertex
100
AcDb2dVertex
 10
-909.04998339335077
 20
1441.0624746149037
 30
0.0
  0
VERTEX
  5
208
100
AcDbEntity
  8
IMPORTED
  6
CONTINUOUS
 62
              30
100
AcDbVertex
100
AcDb2dVertex
 10
-910.94998339335086
 20
1441.0624746149037
 30
0.0
  0
VERTEX
  5
209
100
AcDbEntity
  8
IMPORTED
  6
CONTINUOUS
 62
              30
100
AcDbVertex
100
AcDb2dVertex
 10
-910.94998339335086
 20
1442.5562246149036
 30
0.0
 42
0.414213562373095
 70
               2
  0
VERTEX
  5
20A
100
AcDbEntity
  8
IMPORTED
  6
CONTINUOUS
 62
              30
100
AcDbVertex
100
AcDb2dVertex
 10
-912.44373339335084
 20
1444.0499746149037
 30
0.0
  0
VERTEX
  5
20B
100
AcDbEntity
  8
IMPORTED
  6
CONTINUOUS
 62
              30
100
AcDbVertex
100
AcDb2dVertex
 10
-913.93748339335082
 20
1444.0499746149037
 30
0.0
  0
VERTEX
  5
20C
100
AcDbEntity
  8
IMPORTED
  6
CONTINUOUS
 62
              30
100
AcDbVertex
100
AcDb2dVertex
 10
-913.93748339335082
 20
1445.9499746149038
 30
0.0
  0
VERTEX
  5
20D
100
AcDbEntity
  8
IMPORTED
  6
CONTINUOUS
 62
              30
100
AcDbVertex
100
AcDb2dVertex
 10
-912.44373339335084
 20
1445.9499746149038
 30
0.0
 42
0.414213562373095
 70
               2
 50
3.1191399769264294E+17
  0
VERTEX
  5
20E
100
AcDbEntity
  8
IMPORTED
  6
CONTINUOUS
 62
              30
100
AcDbVertex
100
AcDb2dVertex
 10
-910.94998339335086
 20
1447.4437246149039
 30
0.0
  0
SEQEND
  5
20F
100
AcDbEntity
  8
IMPORTED
  6
CONTINUOUS
 62
              30
  0
POLYLINE
  5
210
100
AcDbEntity
  8
IMPORTED
  6
CONTINUOUS
 62
              30
100
AcDb2dPolyline
 66
               1
 10
0.0
 20
0.0
 30
0.0
 70
             129
  0
VERTEX
  5
211
100
AcDbEntity
  8
IMPORTED
  6
CONTINUOUS
 62
              30
100
AcDbVertex
100
AcDb2dVertex
 10
-1114.9999833933509
 20
624.99997461490386
 30
0.0
  0
VERTEX
  5
212
100
AcDbEntity
  8
IMPORTED
  6
CONTINUOUS
 62
              30
100
AcDbVertex
100
AcDb2dVertex
 10
-764.99998339335082
 20
624.99997461490386
 30
0.0
  0
VERTEX
  5
213
100
AcDbEntity
  8
IMPORTED
  6
CONTINUOUS
 62
              30
100
AcDbVertex
100
AcDb2dVertex
 10
-764.99998339335082
 20
274.99997461490392
 30
0.0
  0
VERTEX
  5
214
100
AcDbEntity
  8
IMPORTED
  6
CONTINUOUS
 62
              30
100
AcDbVertex
100
AcDb2dVertex
 10
-1114.9999833933509
 20
274.99997461490392
 30
0.0
  0
VERTEX
  5
215
100
AcDbEntity
  8
IMPORTED
  6
CONTINUOUS
 62
              30
100
AcDbVertex
100
AcDb2dVertex
 10
-1114.9999833933509
 20
624.99997461490386
 30
0.0
  0
SEQEND
  5
216
100
AcDbEntity
  8
IMPORTED
  6
CONTINUOUS
 62
              30
  0
LINE
  5
217
100
AcDbEntity
  8
IMPORTED
  6
CONTINUOUS
 62
              30
100
AcDbLine
 10
-1114.9999833933509
 20
480.10757461490391
 30
0.0
 11
-970.10758339335086
 21
624.99997461490386
 31
0.0
  0
LINE
  5
218
100
AcDbEntity
  8
IMPORTED
  6
CONTINUOUS
 62
              30
100
AcDbLine
 10
-1114.9999833933509
 20
310.40197461490391
 30
0.0
 11
-800.40198339335086
 21
624.99997461490386
 31
0.0
  0
LINE
  5
219
100
AcDbEntity
  8
IMPORTED
  6
CONTINUOUS
 62
              30
100
AcDbLine
 10
-980.69638339335086
 20
274.99997461490392
 30
0.0
 11
-764.99998339335082
 21
490.6963746149039
 31
0.0
  0
LINE
  5
21A
100
AcDbEntity
  8
IMPORTED
  6
CONTINUOUS
 62
              30
100
AcDbLine
 10
-810.99078339335085
 20
274.99997461490392
 30
0.0
 11
-764.99998339335082
 21
320.9907746149039
 31
0.0
  0
LINE
  5
21B
100
AcDbEntity
  8
IMPORTED
  6
CONTINUOUS
 62
              30
100
AcDbLine
 10
-1114.9999833933509
 20
499.90657461490389
 30
0.0
 11
-989.90658339335084
 21
624.99997461490386
 31
0.0
  0
LINE
  5
21C
100
AcDbEntity
  8
IMPORTED
  6
CONTINUOUS
 62
              30
100
AcDbLine
 10
-1114.9999833933509
 20
330.20097461490388
 30
0.0
 11
-820.20098339335084
 21
624.99997461490386
 31
0.0
  0
LINE
  5
21D
100
AcDbEntity
  8
IMPORTED
  6
CONTINUOUS
 62
              30
100
AcDbLine
 10
-1000.4953833933508
 20
274.99997461490392
 30
0.0
 11
-764.99998339335082
 21
510.49537461490388
 31
0.0
  0
LINE
  5
21E
100
AcDbEntity
  8
IMPORTED
  6
CONTINUOUS
 62
              30
100
AcDbLine
 10
-830.78978339335083
 20
274.99997461490392
 30
0.0
 11
-764.99998339335082
 21
340.78977461490393
 31
0.0
  0
LINE
  5
21F
100
AcDbEntity
  8
IMPORTED
  6
CONTINUOUS
 62
              30
100
AcDbLine
 10
-1114.9999833933509
 20
519.70557461490387
 30
0.0
 11
-1009.7055833933508
 21
624.99997461490386
 31
0.0
  0
LINE
  5
220
100
AcDbEntity
  8
IMPORTED
  6
CONTINUOUS
 62
              30
100
AcDbLine
 10
-1114.9999833933509
 20
349.99997461490392
 30
0.0
 11
-839.99998339335082
 21
624.99997461490386
 31
0.0
  0
LINE
  5
221
100
AcDbEntity
  8
IMPORTED
  6
CONTINUOUS
 62
              30
100
AcDbLine
 10
-1020.2943833933509
 20
274.99997461490392
 30
0.0
 11
-764.99998339335082
 21
530.29437461490386
 31
0.0
  0
LINE
  5
222
100
AcDbEntity
  8
IMPORTED
  6
CONTINUOUS
 62
              30
100
AcDbLine
 10
-850.58878339335081
 20
274.99997461490392
 30
0.0
 11
-764.99998339335082
 21
360.58877461490391
 31
0.0
  0
MTEXT
  5
223
100
AcDbEntity
  8
IMPORTED
 62
              30
100
AcDbMText
 10
-1071.3859813125646
 20
-1586.6691200622936
 30
0.0
 40
65.153671484374996
 41
0.0
 71
               1
 72
               1
  1
平面図
  7
_______
  0
POLYLINE
  5
224
100
AcDbEntity
  8
IMPORTED
  6
CONTINUOUS
 62
              30
100
AcDb2dPolyline
 66
               1
 10
0.0
 20
0.0
 30
0.0
 70
             129
  0
VERTEX
  5
225
100
AcDbEntity
  8
IMPORTED
  6
CONTINUOUS
 62
              30
100
AcDbVertex
100
AcDb2dVertex
 10
-1142.0391833933509
 20
-1564.9999253850958
 30
0.0
  0
VERTEX
  5
226
100
AcDbEntity
  8
IMPORTED
  6
CONTINUOUS
 62
              30
100
AcDbVertex
100
AcDb2dVertex
 10
-742.03918339335087
 20
-1564.9999253850958
 30
0.0
  0
VERTEX
  5
227
100
AcDbEntity
  8
IMPORTED
  6
CONTINUOUS
 62
              30
100
AcDbVertex
100
AcDb2dVertex
 10
-742.03918339335087
 20
-1674.9999253850958
 30
0.0
  0
VERTEX
  5
228
100
AcDbEntity
  8
IMPORTED
  6
CONTINUOUS
 62
              30
100
AcDbVertex
100
AcDb2dVertex
 10
-1142.0391833933509
 20
-1674.9999253850958
 30
0.0
  0
VERTEX
  5
229
100
AcDbEntity
  8
IMPORTED
  6
CONTINUOUS
 62
              30
100
AcDbVertex
100
AcDb2dVertex
 10
-1142.0391833933509
 20
-1564.9999253850958
 30
0.0
  0
SEQEND
  5
22A
100
AcDbEntity
  8
IMPORTED
  6
CONTINUOUS
 62
              30
  0
LINE
  5
22B
100
AcDbEntity
  8
IMPORTED
  6
CONTINUOUS
 62
              30
100
AcDbLine
 10
-593.99998339335093
 20
674.99997461490386
 30
0.0
 11
-1269.9999833933509
 21
674.99997461490386
 31
0.0
  0
POLYLINE
  5
22C
100
AcDbEntity
  8
IMPORTED
  6
CONTINUOUS
 62
              30
100
AcDb2dPolyline
 66
               1
 10
0.0
 20
0.0
 30
0.0
 70
             129
  0
VERTEX
  5
22D
100
AcDbEntity
  8
IMPORTED
  6
CONTINUOUS
 62
              30
100
AcDbVertex
100
AcDb2dVertex
 10
-1164.9999833933509
 20
224.99997461490392
 30
0.0
  0
VERTEX
  5
22E
100
AcDbEntity
  8
IMPORTED
  6
CONTINUOUS
 62
              30
100
AcDbVertex
100
AcDb2dVertex
 10
-714.99998339335093
 20
224.99997461490392
 30
0.0
  0
VERTEX
  5
22F
100
AcDbEntity
  8
IMPORTED
  6
CONTINUOUS
 62
              30
100
AcDbVertex
100
AcDb2dVertex
 10
-714.99998339335093
 20
124.99997461490392
 30
0.0
  0
VERTEX
  5
230
100
AcDbEntity
  8
IMPORTED
  6
CONTINUOUS
 62
              30
100
AcDbVertex
100
AcDb2dVertex
 10
-1164.9999833933509
 20
124.99997461490392
 30
0.0
  0
VERTEX
  5
231
100
AcDbEntity
  8
IMPORTED
  6
CONTINUOUS
 62
              30
100
AcDbVertex
100
AcDb2dVertex
 10
-1164.9999833933509
 20
224.99997461490392
 30
0.0
  0
SEQEND
  5
232
100
AcDbEntity
  8
IMPORTED
  6
CONTINUOUS
 62
              30
  0
POLYLINE
  5
233
100
AcDbEntity
  8
IMPORTED
  6
CONTINUOUS
 62
              30
100
AcDb2dPolyline
 66
               1
 10
0.0
 20
0.0
 30
0.0
 70
             129
  0
VERTEX
  5
234
100
AcDbEntity
  8
IMPORTED
  6
CONTINUOUS
 62
              30
100
AcDbVertex
100
AcDb2dVertex
 10
-1164.9999833933509
 20
274.99997461490392
 30
0.0
  0
VERTEX
  5
235
100
AcDbEntity
  8
IMPORTED
  6
CONTINUOUS
 62
              30
100
AcDbVertex
100
AcDb2dVertex
 10
-714.99998339335093
 20
274.99997461490392
 30
0.0
  0
VERTEX
  5
236
100
AcDbEntity
  8
IMPORTED
  6
CONTINUOUS
 62
              30
100
AcDbVertex
100
AcDb2dVertex
 10
-714.99998339335093
 20
224.99997461490392
 30
0.0
  0
VERTEX
  5
237
100
AcDbEntity
  8
IMPORTED
  6
CONTINUOUS
 62
              30
100
AcDbVertex
100
AcDb2dVertex
 10
-1164.9999833933509
 20
224.99997461490392
 30
0.0
  0
VERTEX
  5
238
100
AcDbEntity
  8
IMPORTED
  6
CONTINUOUS
 62
              30
100
AcDbVertex
100
AcDb2dVertex
 10
-1164.9999833933509
 20
274.99997461490392
 30
0.0
  0
SEQEND
  5
239
100
AcDbEntity
  8
IMPORTED
  6
CONTINUOUS
 62
              30
  0
LINE
  5
23A
100
AcDbEntity
  8
IMPORTED
  6
CONTINUOUS
 62
              30
100
AcDbLine
 10
-808.14218339335082
 20
274.99997461490392
 30
0.0
 11
-758.14218339335082
 21
224.99997461490392
 31
0.0
  0
LINE
  5
23B
100
AcDbEntity
  8
IMPORTED
  6
CONTINUOUS
 62
              30
100
AcDbLine
 10
-793.99998339335082
 20
274.99997461490392
 30
0.0
 11
-743.99998339335082
 21
224.99997461490392
 31
0.0
  0
LINE
  5
23C
100
AcDbEntity
  8
IMPORTED
  6
CONTINUOUS
 62
              30
100
AcDbLine
 10
-958.14218339335082
 20
274.99997461490392
 30
0.0
 11
-908.14218339335082
 21
224.99997461490392
 31
0.0
  0
LINE
  5
23D
100
AcDbEntity
  8
IMPORTED
  6
CONTINUOUS
 62
              30
100
AcDbLine
 10
-943.99998339335082
 20
274.99997461490392
 30
0.0
 11
-893.99998339335082
 21
224.99997461490392
 31
0.0
  0
LINE
  5
23E
100
AcDbEntity
  8
IMPORTED
  6
CONTINUOUS
 62
              30
100
AcDbLine
 10
-1108.1421833933509
 20
274.99997461490392
 30
0.0
 11
-1058.1421833933509
 21
224.99997461490392
 31
0.0
  0
LINE
  5
23F
100
AcDbEntity
  8
IMPORTED
  6
CONTINUOUS
 62
              30
100
AcDbLine
 10
-1093.9999833933509
 20
274.99997461490392
 30
0.0
 11
-1043.9999833933509
 21
224.99997461490392
 31
0.0
  0
LINE
  5
240
100
AcDbEntity
  8
IMPORTED
  6
CONTINUOUS
 62
              30
100
AcDbLine
 10
-744.87118339335086
 20
124.99997461490392
 30
0.0
 11
-802.60638339335082
 21
224.99997461490392
 31
0.0
  0
LINE
  5
241
100
AcDbEntity
  8
IMPORTED
  6
CONTINUOUS
 62
              30
100
AcDbLine
 10
-788.17258339335092
 20
199.99997461490392
 30
0.0
 11
-773.7387833933509
 21
224.99997461490392
 31
0.0
  0
LINE
  5
242
100
AcDbEntity
  8
IMPORTED
  6
CONTINUOUS
 62
              30
100
AcDbLine
 10
-759.30518339335083
 20
150.00007461490392
 30
0.0
 11
-773.7387833933509
 21
124.99997461490392
 31
0.0
  0
LINE
  5
243
100
AcDbEntity
  8
IMPORTED
  6
CONTINUOUS
 62
              30
100
AcDbLine
 10
-828.87118339335086
 20
124.99997461490392
 30
0.0
 11
-886.60638339335082
 21
224.99997461490392
 31
0.0
  0
LINE
  5
244
100
AcDbEntity
  8
IMPORTED
  6
CONTINUOUS
 62
              30
100
AcDbLine
 10
-872.17258339335081
 20
199.99997461490392
 30
0.0
 11
-857.7387833933509
 21
224.99997461490392
 31
0.0
  0
LINE
  5
245
100
AcDbEntity
  8
IMPORTED
  6
CONTINUOUS
 62
              30
100
AcDbLine
 10
-843.30518339335083
 20
150.00007461490392
 30
0.0
 11
-857.7387833933509
 21
124.99997461490392
 31
0.0
  0
LINE
  5
246
100
AcDbEntity
  8
IMPORTED
  6
CONTINUOUS
 62
              30
100
AcDbLine
 10
-912.87118339335086
 20
124.99997461490392
 30
0.0
 11
-970.60638339335082
 21
224.99997461490392
 31
0.0
  0
LINE
  5
247
100
AcDbEntity
  8
IMPORTED
  6
CONTINUOUS
 62
              30
100
AcDbLine
 10
-956.17258339335081
 20
199.99997461490392
 30
0.0
 11
-941.7387833933509
 21
224.99997461490392
 31
0.0
  0
LINE
  5
248
100
AcDbEntity
  8
IMPORTED
  6
CONTINUOUS
 62
              30
100
AcDbLine
 10
-927.30518339335083
 20
150.00007461490392
 30
0.0
 11
-941.7387833933509
 21
124.99997461490392
 31
0.0
  0
LINE
  5
249
100
AcDbEntity
  8
IMPORTED
  6
CONTINUOUS
 62
              30
100
AcDbLine
 10
-996.87118339335086
 20
124.99997461490392
 30
0.0
 11
-1054.6063833933508
 21
224.99997461490392
 31
0.0
  0
LINE
  5
24A
100
AcDbEntity
  8
IMPORTED
  6
CONTINUOUS
 62
              30
100
AcDbLine
 10
-1040.1725833933508
 20
199.99997461490392
 30
0.0
 11
-1025.7387833933508
 21
224.99997461490392
 31
0.0
  0
LINE
  5
24B
100
AcDbEntity
  8
IMPORTED
  6
CONTINUOUS
 62
              30
100
AcDbLine
 10
-1011.3051833933508
 20
150.00007461490392
 30
0.0
 11
-1025.7387833933508
 21
124.99997461490392
 31
0.0
  0
LINE
  5
24C
100
AcDbEntity
  8
IMPORTED
  6
CONTINUOUS
 62
              30
100
AcDbLine
 10
-1080.8711833933507
 20
124.99997461490392
 30
0.0
 11
-1138.6063833933508
 21
224.99997461490392
 31
0.0
  0
LINE
  5
24D
100
AcDbEntity
  8
IMPORTED
  6
CONTINUOUS
 62
              30
100
AcDbLine
 10
-1124.1725833933508
 20
199.99997461490392
 30
0.0
 11
-1109.7387833933508
 21
224.99997461490392
 31
0.0
  0
LINE
  5
24E
100
AcDbEntity
  8
IMPORTED
  6
CONTINUOUS
 62
              30
100
AcDbLine
 10
-1095.3051833933509
 20
150.00007461490392
 30
0.0
 11
-1109.7387833933508
 21
124.99997461490392
 31
0.0
  0
MTEXT
  5
24F
100
AcDbEntity
  8
IMPORTED
 62
              30
100
AcDbMText
 10
-1074.2443813125647
 20
-226.66912006229387
 30
0.0
 40
65.153671484374996
 41
0.0
 71
               1
 72
               1
  1
正面図
  7
_______
  0
POLYLINE
  5
250
100
AcDbEntity
  8
IMPORTED
  6
CONTINUOUS
 62
              30
100
AcDb2dPolyline
 66
               1
 10
0.0
 20
0.0
 30
0.0
 70
             129
  0
VERTEX
  5
251
100
AcDbEntity
  8
IMPORTED
  6
CONTINUOUS
 62
              30
100
AcDbVertex
100
AcDb2dVertex
 10
-1144.8975833933509
 20
-204.99992538509605
 30
0.0
  0
VERTEX
  5
252
100
AcDbEntity
  8
IMPORTED
  6
CONTINUOUS
 62
              30
100
AcDbVertex
100
AcDb2dVertex
 10
-744.89758339335083
 20
-204.99992538509605
 30
0.0
  0
VERTEX
  5
253
100
AcDbEntity
  8
IMPORTED
  6
CONTINUOUS
 62
              30
100
AcDbVertex
100
AcDb2dVertex
 10
-744.89758339335083
 20
-314.99992538509605
 30
0.0
  0
VERTEX
  5
254
100
AcDbEntity
  8
IMPORTED
  6
CONTINUOUS
 62
              30
100
AcDbVertex
100
AcDb2dVertex
 10
-1144.8975833933509
 20
-314.99992538509605
 30
0.0
  0
VERTEX
  5
255
100
AcDbEntity
  8
IMPORTED
  6
CONTINUOUS
 62
              30
100
AcDbVertex
100
AcDb2dVertex
 10
-1144.8975833933509
 20
-204.99992538509605
 30
0.0
  0
SEQEND
  5
256
100
AcDbEntity
  8
IMPORTED
  6
CONTINUOUS
 62
              30
  0
MTEXT
  5
257
100
AcDbEntity
  8
IMPORTED
 62
              30
100
AcDbMText
 10
935.65321868743524
 20
-226.66912006229387
 30
0.0
 40
65.153671484374996
 41
0.0
 71
               1
 72
               1
  1
側面図
  7
_______
  0
POLYLINE
  5
258
100
AcDbEntity
  8
IMPORTED
  6
CONTINUOUS
 62
              30
100
AcDb2dPolyline
 66
               1
 10
0.0
 20
0.0
 30
0.0
 70
             129
  0
VERTEX
  5
259
100
AcDbEntity
  8
IMPORTED
  6
CONTINUOUS
 62
              30
100
AcDbVertex
100
AcDb2dVertex
 10
864.99991660664898
 20
-204.99992538509605
 30
0.0
  0
VERTEX
  5
25A
100
AcDbEntity
  8
IMPORTED
  6
CONTINUOUS
 62
              30
100
AcDbVertex
100
AcDb2dVertex
 10
1264.9999166066489
 20
-204.99992538509605
 30
0.0
  0
VERTEX
  5
25B
100
AcDbEntity
  8
IMPORTED
  6
CONTINUOUS
 62
              30
100
AcDbVertex
100
AcDb2dVertex
 10
1264.9999166066489
 20
-314.99992538509605
 30
0.0
  0
VERTEX
  5
25C
100
AcDbEntity
  8
IMPORTED
  6
CONTINUOUS
 62
              30
100
AcDbVertex
100
AcDb2dVertex
 10
864.99991660664898
 20
-314.99992538509605
 30
0.0
  0
VERTEX
  5
25D
100
AcDbEntity
  8
IMPORTED
  6
CONTINUOUS
 62
              30
100
AcDbVertex
100
AcDb2dVertex
 10
864.99991660664898
 20
-204.99992538509605
 30
0.0
  0
SEQEND
  5
25E
100
AcDbEntity
  8
IMPORTED
  6
CONTINUOUS
 62
              30
  0
MTEXT
  5
25F
100
AcDbEntity
  8
IMPORTED
 62
              30
100
AcDbMText
 10
-1252.3538833933508
 20
751.52510898990386
 30
0.0
 40
48.865234375
 41
0.0
 71
               1
 72
               1
  1
▽GL
  7
_______
  0
POLYLINE
  5
260
100
AcDbEntity
  8
IMPORTED
  6
STYLE_05
 62
              30
100
AcDb2dPolyline
 66
               1
 10
0.0
 20
0.0
 30
0.0
 70
             129
  0
VERTEX
  5
261
100
AcDbEntity
  8
IMPORTED
  6
STYLE_05
 62
              30
100
AcDbVertex
100
AcDb2dVertex
 10
-1104.9999833933509
 20
-1047.666625385096
 30
0.0
  0
VERTEX
  5
262
100
AcDbEntity
  8
IMPORTED
  6
STYLE_05
 62
              30
100
AcDbVertex
100
AcDb2dVertex
 10
-754.99998339335082
 20
-1047.666625385096
 30
0.0
  0
VERTEX
  5
263
100
AcDbEntity
  8
IMPORTED
  6
STYLE_05
 62
              30
100
AcDbVertex
100
AcDb2dVertex
 10
-754.99998339335082
 20
-1397.666625385096
 30
0.0
  0
VERTEX
  5
264
100
AcDbEntity
  8
IMPORTED
  6
STYLE_05
 62
              30
100
AcDbVertex
100
AcDb2dVertex
 10
-1104.9999833933509
 20
-1397.666625385096
 30
0.0
  0
VERTEX
  5
265
100
AcDbEntity
  8
IMPORTED
  6
STYLE_05
 62
              30
100
AcDbVertex
100
AcDb2dVertex
 10
-1104.9999833933509
 20
-1047.666625385096
 30
0.0
  0
SEQEND
  5
266
100
AcDbEntity
  8
IMPORTED
  6
STYLE_05
 62
              30
  0
POLYLINE
  5
267
100
AcDbEntity
  8
IMPORTED
  6
STYLE_05
 62
              30
100
AcDb2dPolyline
 66
               1
 10
0.0
 20
0.0
 30
0.0
 70
             129
  0
VERTEX
  5
268
100
AcDbEntity
  8
IMPORTED
  6
STYLE_05
 62
              30
100
AcDbVertex
100
AcDb2dVertex
 10
-1154.9999833933509
 20
-997.66662538509593
 30
0.0
  0
VERTEX
  5
269
100
AcDbEntity
  8
IMPORTED
  6
STYLE_05
 62
              30
100
AcDbVertex
100
AcDb2dVertex
 10
-704.99998339335093
 20
-997.66662538509593
 30
0.0
  0
VERTEX
  5
26A
100
AcDbEntity
  8
IMPORTED
  6
STYLE_05
 62
              30
100
AcDbVertex
100
AcDb2dVertex
 10
-704.99998339335093
 20
-1447.666625385096
 30
0.0
  0
VERTEX
  5
26B
100
AcDbEntity
  8
IMPORTED
  6
STYLE_05
 62
              30
100
AcDbVertex
100
AcDb2dVertex
 10
-1154.9999833933509
 20
-1447.666625385096
 30
0.0
  0
VERTEX
  5
26C
100
AcDbEntity
  8
IMPORTED
  6
STYLE_05
 62
              30
100
AcDbVertex
100
AcDb2dVertex
 10
-1154.9999833933509
 20
-997.66662538509593
 30
0.0
  0
SEQEND
  5
26D
100
AcDbEntity
  8
IMPORTED
  6
STYLE_05
 62
              30
  0
POLYLINE
  5
26E
100
AcDbEntity
  8
IMPORTED
  6
CONTINUOUS
 62
              30
100
AcDb2dPolyline
 66
               1
 10
0.0
 20
0.0
 30
0.0
 70
             129
  0
VERTEX
  5
26F
100
AcDbEntity
  8
IMPORTED
  6
CONTINUOUS
 62
              30
100
AcDbVertex
100
AcDb2dVertex
 10
884.99991660664898
 20
624.99997461490386
 30
0.0
  0
VERTEX
  5
270
100
AcDbEntity
  8
IMPORTED
  6
CONTINUOUS
 62
              30
100
AcDbVertex
100
AcDb2dVertex
 10
1234.9999166066489
 20
624.99997461490386
 30
0.0
  0
VERTEX
  5
271
100
AcDbEntity
  8
IMPORTED
  6
CONTINUOUS
 62
              30
100
AcDbVertex
100
AcDb2dVertex
 10
1234.9999166066489
 20
274.99997461490392
 30
0.0
  0
VERTEX
  5
272
100
AcDbEntity
  8
IMPORTED
  6
CONTINUOUS
 62
              30
100
AcDbVertex
100
AcDb2dVertex
 10
884.99991660664898
 20
274.99997461490392
 30
0.0
  0
VERTEX
  5
273
100
AcDbEntity
  8
IMPORTED
  6
CONTINUOUS
 62
              30
100
AcDbVertex
100
AcDb2dVertex
 10
884.99991660664898
 20
624.99997461490386
 30
0.0
  0
SEQEND
  5
274
100
AcDbEntity
  8
IMPORTED
  6
CONTINUOUS
 62
              30
  0
LINE
  5
275
100
AcDbEntity
  8
IMPORTED
  6
CONTINUOUS
 62
              30
100
AcDbLine
 10
884.99991660664898
 20
480.10757461490391
 30
0.0
 11
1029.892316606649
 21
624.99997461490386
 31
0.0
  0
LINE
  5
276
100
AcDbEntity
  8
IMPORTED
  6
CONTINUOUS
 62
              30
100
AcDbLine
 10
884.99991660664898
 20
310.40197461490391
 30
0.0
 11
1199.5979166066491
 21
624.99997461490386
 31
0.0
  0
LINE
  5
277
100
AcDbEntity
  8
IMPORTED
  6
CONTINUOUS
 62
              30
100
AcDbLine
 10
1019.3035166066489
 20
274.99997461490392
 30
0.0
 11
1234.9999166066489
 21
490.6963746149039
 31
0.0
  0
LINE
  5
278
100
AcDbEntity
  8
IMPORTED
  6
CONTINUOUS
 62
              30
100
AcDbLine
 10
1189.0091166066491
 20
274.99997461490392
 30
0.0
 11
1234.9999166066489
 21
320.9907746149039
 31
0.0
  0
LINE
  5
279
100
AcDbEntity
  8
IMPORTED
  6
CONTINUOUS
 62
              30
100
AcDbLine
 10
884.99991660664898
 20
499.90657461490389
 30
0.0
 11
1010.093316606649
 21
624.99997461490386
 31
0.0
  0
LINE
  5
27A
100
AcDbEntity
  8
IMPORTED
  6
CONTINUOUS
 62
              30
100
AcDbLine
 10
884.99991660664898
 20
330.20097461490388
 30
0.0
 11
1179.7989166066491
 21
624.99997461490386
 31
0.0
  0
LINE
  5
27B
100
AcDbEntity
  8
IMPORTED
  6
CONTINUOUS
 62
              30
100
AcDbLine
 10
999.50451660664896
 20
274.99997461490392
 30
0.0
 11
1234.9999166066489
 21
510.49537461490388
 31
0.0
  0
LINE
  5
27C
100
AcDbEntity
  8
IMPORTED
  6
CONTINUOUS
 62
              30
100
AcDbLine
 10
1169.2101166066489
 20
274.99997461490392
 30
0.0
 11
1234.9999166066489
 21
340.78977461490393
 31
0.0
  0
LINE
  5
27D
100
AcDbEntity
  8
IMPORTED
  6
CONTINUOUS
 62
              30
100
AcDbLine
 10
884.99991660664898
 20
519.70557461490387
 30
0.0
 11
990.29431660664898
 21
624.99997461490386
 31
0.0
  0
LINE
  5
27E
100
AcDbEntity
  8
IMPORTED
  6
CONTINUOUS
 62
              30
100
AcDbLine
 10
884.99991660664898
 20
349.99997461490392
 30
0.0
 11
1159.9999166066489
 21
624.99997461490386
 31
0.0
  0
LINE
  5
27F
100
AcDbEntity
  8
IMPORTED
  6
CONTINUOUS
 62
              30
100
AcDbLine
 10
979.70551660664898
 20
274.99997461490392
 30
0.0
 11
1234.9999166066489
 21
530.29437461490386
 31
0.0
  0
LINE
  5
280
100
AcDbEntity
  8
IMPORTED
  6
CONTINUOUS
 62
              30
100
AcDbLine
 10
1149.4111166066489
 20
274.99997461490392
 30
0.0
 11
1234.9999166066489
 21
360.58877461490391
 31
0.0
  0
LINE
  5
281
100
AcDbEntity
  8
IMPORTED
  6
CONTINUOUS
 62
              30
100
AcDbLine
 10
1355.9999166066489
 20
674.99997461490386
 30
0.0
 11
679.99991660664898
 21
674.99997461490386
 31
0.0
  0
POLYLINE
  5
282
100
AcDbEntity
  8
IMPORTED
  6
CONTINUOUS
 62
              30
100
AcDb2dPolyline
 66
               1
 10
0.0
 20
0.0
 30
0.0
 70
             129
  0
VERTEX
  5
283
100
AcDbEntity
  8
IMPORTED
  6
CONTINUOUS
 62
              30
100
AcDbVertex
100
AcDb2dVertex
 10
834.99991660664898
 20
224.99997461490392
 30
0.0
  0
VERTEX
  5
284
100
AcDbEntity
  8
IMPORTED
  6
CONTINUOUS
 62
              30
100
AcDbVertex
100
AcDb2dVertex
 10
1284.9999166066489
 20
224.99997461490392
 30
0.0
  0
VERTEX
  5
285
100
AcDbEntity
  8
IMPORTED
  6
CONTINUOUS
 62
              30
100
AcDbVertex
100
AcDb2dVertex
 10
1284.9999166066489
 20
124.99997461490392
 30
0.0
  0
VERTEX
  5
286
100
AcDbEntity
  8
IMPORTED
  6
CONTINUOUS
 62
              30
100
AcDbVertex
100
AcDb2dVertex
 10
834.99991660664898
 20
124.99997461490392
 30
0.0
  0
VERTEX
  5
287
100
AcDbEntity
  8
IMPORTED
  6
CONTINUOUS
 62
              30
100
AcDbVertex
100
AcDb2dVertex
 10
834.99991660664898
 20
224.99997461490392
 30
0.0
  0
SEQEND
  5
288
100
AcDbEntity
  8
IMPORTED
  6
CONTINUOUS
 62
              30
  0
POLYLINE
  5
289
100
AcDbEntity
  8
IMPORTED
  6
CONTINUOUS
 62
              30
100
AcDb2dPolyline
 66
               1
 10
0.0
 20
0.0
 30
0.0
 70
             129
  0
VERTEX
  5
28A
100
AcDbEntity
  8
IMPORTED
  6
CONTINUOUS
 62
              30
100
AcDbVertex
100
AcDb2dVertex
 10
834.99991660664898
 20
274.99997461490392
 30
0.0
  0
VERTEX
  5
28B
100
AcDbEntity
  8
IMPORTED
  6
CONTINUOUS
 62
              30
100
AcDbVertex
100
AcDb2dVertex
 10
1284.9999166066489
 20
274.99997461490392
 30
0.0
  0
VERTEX
  5
28C
100
AcDbEntity
  8
IMPORTED
  6
CONTINUOUS
 62
              30
100
AcDbVertex
100
AcDb2dVertex
 10
1284.9999166066489
 20
224.99997461490392
 30
0.0
  0
VERTEX
  5
28D
100
AcDbEntity
  8
IMPORTED
  6
CONTINUOUS
 62
              30
100
AcDbVertex
100
AcDb2dVertex
 10
834.99991660664898
 20
224.99997461490392
 30
0.0
  0
VERTEX
  5
28E
100
AcDbEntity
  8
IMPORTED
  6
CONTINUOUS
 62
              30
100
AcDbVertex
100
AcDb2dVertex
 10
834.99991660664898
 20
274.99997461490392
 30
0.0
  0
SEQEND
  5
28F
100
AcDbEntity
  8
IMPORTED
  6
CONTINUOUS
 62
              30
  0
POLYLINE
  5
290
100
AcDbEntity
  8
IMPORTED
  6
CONTINUOUS
 62
              30
100
AcDb2dPolyline
 66
               1
 10
0.0
 20
0.0
 30
0.0
 70
             129
  0
VERTEX
  5
291
100
AcDbEntity
  8
IMPORTED
  6
CONTINUOUS
 62
              30
100
AcDbVertex
100
AcDb2dVertex
 10
1004.999916606649
 20
1574.9999746149037
 30
0.0
  0
VERTEX
  5
292
100
AcDbEntity
  8
IMPORTED
  6
CONTINUOUS
 62
              30
100
AcDbVertex
100
AcDb2dVertex
 10
1114.9999166066489
 20
1574.9999746149037
 30
0.0
  0
VERTEX
  5
293
100
AcDbEntity
  8
IMPORTED
  6
CONTINUOUS
 62
              30
100
AcDbVertex
100
AcDb2dVertex
 10
1119.9999166066489
 20
1569.9999746149037
 30
0.0
  0
VERTEX
  5
294
100
AcDbEntity
  8
IMPORTED
  6
CONTINUOUS
 62
              30
100
AcDbVertex
100
AcDb2dVertex
 10
1119.9999166066489
 20
274.99997461490392
 30
0.0
  0
VERTEX
  5
295
100
AcDbEntity
  8
IMPORTED
  6
CONTINUOUS
 62
              30
100
AcDbVertex
100
AcDb2dVertex
 10
999.99991660664898
 20
274.99997461490392
 30
0.0
  0
VERTEX
  5
296
100
AcDbEntity
  8
IMPORTED
  6
CONTINUOUS
 62
              30
100
AcDbVertex
100
AcDb2dVertex
 10
999.99991660664898
 20
1569.9999746149037
 30
0.0
  0
SEQEND
  5
297
100
AcDbEntity
  8
IMPORTED
  6
CONTINUOUS
 62
              30
  0
LINE
  5
298
100
AcDbEntity
  8
IMPORTED
  6
CONTINUOUS
 62
              30
100
AcDbLine
 10
1191.8577166066489
 20
274.99997461490392
 30
0.0
 11
1241.8577166066489
 21
224.99997461490392
 31
0.0
  0
LINE
  5
299
100
AcDbEntity
  8
IMPORTED
  6
CONTINUOUS
 62
              30
100
AcDbLine
 10
1205.9999166066489
 20
274.99997461490392
 30
0.0
 11
1255.9999166066489
 21
224.99997461490392
 31
0.0
  0
LINE
  5
29A
100
AcDbEntity
  8
IMPORTED
  6
CONTINUOUS
 62
              30
100
AcDbLine
 10
1041.8577166066489
 20
274.99997461490392
 30
0.0
 11
1091.8577166066489
 21
224.99997461490392
 31
0.0
  0
LINE
  5
29B
100
AcDbEntity
  8
IMPORTED
  6
CONTINUOUS
 62
              30
100
AcDbLine
 10
1055.9999166066489
 20
274.99997461490392
 30
0.0
 11
1105.9999166066489
 21
224.99997461490392
 31
0.0
  0
LINE
  5
29C
100
AcDbEntity
  8
IMPORTED
  6
CONTINUOUS
 62
              30
100
AcDbLine
 10
891.85771660664898
 20
274.99997461490392
 30
0.0
 11
941.85771660664898
 21
224.99997461490392
 31
0.0
  0
LINE
  5
29D
100
AcDbEntity
  8
IMPORTED
  6
CONTINUOUS
 62
              30
100
AcDbLine
 10
905.99991660664898
 20
274.99997461490392
 30
0.0
 11
955.99991660664898
 21
224.99997461490392
 31
0.0
  0
LINE
  5
29E
100
AcDbEntity
  8
IMPORTED
  6
CONTINUOUS
 62
              30
100
AcDbLine
 10
1255.128716606649
 20
124.99997461490392
 30
0.0
 11
1197.393516606649
 21
224.99997461490392
 31
0.0
  0
LINE
  5
29F
100
AcDbEntity
  8
IMPORTED
  6
CONTINUOUS
 62
              30
100
AcDbLine
 10
1211.827316606649
 20
199.99997461490392
 30
0.0
 11
1226.261116606649
 21
224.99997461490392
 31
0.0
  0
LINE
  5
2A0
100
AcDbEntity
  8
IMPORTED
  6
CONTINUOUS
 62
              30
100
AcDbLine
 10
1240.6947166066489
 20
150.00007461490392
 30
0.0
 11
1226.261116606649
 21
124.99997461490392
 31
0.0
  0
LINE
  5
2A1
100
AcDbEntity
  8
IMPORTED
  6
CONTINUOUS
 62
              30
100
AcDbLine
 10
1171.128716606649
 20
124.99997461490392
 30
0.0
 11
1113.393516606649
 21
224.99997461490392
 31
0.0
  0
LINE
  5
2A2
100
AcDbEntity
  8
IMPORTED
  6
CONTINUOUS
 62
              30
100
AcDbLine
 10
1127.827316606649
 20
199.99997461490392
 30
0.0
 11
1142.261116606649
 21
224.99997461490392
 31
0.0
  0
LINE
  5
2A3
100
AcDbEntity
  8
IMPORTED
  6
CONTINUOUS
 62
              30
100
AcDbLine
 10
1156.6947166066489
 20
150.00007461490392
 30
0.0
 11
1142.261116606649
 21
124.99997461490392
 31
0.0
  0
LINE
  5
2A4
100
AcDbEntity
  8
IMPORTED
  6
CONTINUOUS
 62
              30
100
AcDbLine
 10
1087.128716606649
 20
124.99997461490392
 30
0.0
 11
1029.393516606649
 21
224.99997461490392
 31
0.0
  0
LINE
  5
2A5
100
AcDbEntity
  8
IMPORTED
  6
CONTINUOUS
 62
              30
100
AcDbLine
 10
1043.827316606649
 20
199.99997461490392
 30
0.0
 11
1058.261116606649
 21
224.99997461490392
 31
0.0
  0
LINE
  5
2A6
100
AcDbEntity
  8
IMPORTED
  6
CONTINUOUS
 62
              30
100
AcDbLine
 10
1072.6947166066491
 20
150.00007461490392
 30
0.0
 11
1058.261116606649
 21
124.99997461490392
 31
0.0
  0
LINE
  5
2A7
100
AcDbEntity
  8
IMPORTED
  6
CONTINUOUS
 62
              30
100
AcDbLine
 10
1003.1287166066489
 20
124.99997461490392
 30
0.0
 11
945.39351660664897
 21
224.99997461490392
 31
0.0
  0
LINE
  5
2A8
100
AcDbEntity
  8
IMPORTED
  6
CONTINUOUS
 62
              30
100
AcDbLine
 10
959.82731660664899
 20
199.99997461490392
 30
0.0
 11
974.26111660664901
 21
224.99997461490392
 31
0.0
  0
LINE
  5
2A9
100
AcDbEntity
  8
IMPORTED
  6
CONTINUOUS
 62
              30
100
AcDbLine
 10
988.69471660664897
 20
150.00007461490392
 30
0.0
 11
974.26111660664901
 21
124.99997461490392
 31
0.0
  0
LINE
  5
2AA
100
AcDbEntity
  8
IMPORTED
  6
CONTINUOUS
 62
              30
100
AcDbLine
 10
919.12871660664894
 20
124.99997461490392
 30
0.0
 11
861.39351660664897
 21
224.99997461490392
 31
0.0
  0
LINE
  5
2AB
100
AcDbEntity
  8
IMPORTED
  6
CONTINUOUS
 62
              30
100
AcDbLine
 10
875.82731660664899
 20
199.99997461490392
 30
0.0
 11
890.26111660664901
 21
224.99997461490392
 31
0.0
  0
LINE
  5
2AC
100
AcDbEntity
  8
IMPORTED
  6
CONTINUOUS
 62
              30
100
AcDbLine
 10
904.69471660664897
 20
150.00007461490392
 30
0.0
 11
890.26111660664901
 21
124.99997461490392
 31
0.0
  0
MTEXT
  5
2AD
100
AcDbEntity
  8
IMPORTED
 62
              30
100
AcDbMText
 10
712.64621660664898
 20
751.52510898990386
 30
0.0
 40
48.865234375
 41
0.0
 71
               1
 72
               1
  1
▽GL
  7
_______
  0
POLYLINE
  5
2AE
100
AcDbEntity
  8
IMPORTED
  6
CONTINUOUS
 62
              30
100
AcDb2dPolyline
 66
               1
 10
0.0
 20
0.0
 30
0.0
 70
             129
  0
VERTEX
  5
2AF
100
AcDbEntity
  8
IMPORTED
  6
CONTINUOUS
 62
              30
100
AcDbVertex
100
AcDb2dVertex
 10
-3893.9999833933507
 20
2750.9999746149037
 30
0.0
  0
VERTEX
  5
2B0
100
AcDbEntity
  8
IMPORTED
  6
CONTINUOUS
 62
              30
100
AcDbVertex
100
AcDb2dVertex
 10
3906.0000166066488
 20
2750.9999746149037
 30
0.0
  0
VERTEX
  5
2B1
100
AcDbEntity
  8
IMPORTED
  6
CONTINUOUS
 62
              30
100
AcDbVertex
100
AcDb2dVertex
 10
3906.0000166066488
 20
-2749.0000253850958
 30
0.0
  0
VERTEX
  5
2B2
100
AcDbEntity
  8
IMPORTED
  6
CONTINUOUS
 62
              30
100
AcDbVertex
100
AcDb2dVertex
 10
-3893.9999833933507
 20
-2749.0000253850958
 30
0.0
  0
VERTEX
  5
2B3
100
AcDbEntity
  8
IMPORTED
  6
CONTINUOUS
 62
              30
100
AcDbVertex
100
AcDb2dVertex
 10
-3893.9999833933507
 20
2750.9999746149037
 30
0.0
  0
SEQEND
  5
2B4
100
AcDbEntity
  8
IMPORTED
  6
CONTINUOUS
 62
              30
  0
MTEXT
  5
2B5
100
AcDbEntity
  8
IMPORTED
 62
              30
100
AcDbMText
 10
2463.7360166066487
 20
2330.7388976774037
 30
0.0
 40
54.2947390625
 41
0.0
 71
               1
 72
               1
  1
記　　号
  7
_______
  0
MTEXT
  5
2B6
100
AcDbEntity
  8
IMPORTED
 62
              30
100
AcDbMText
 10
3228.1430166066489
 20
2334.6168976774038
 30
0.0
 40
54.2947390625
 41
0.0
 71
               1
 72
               1
  1
S-021
  7
_______
  0
MTEXT
  5
2B7
100
AcDbEntity
  8
IMPORTED
 62
              30
100
AcDbMText
 10
2463.7360166066487
 20
1972.6778976774037
 30
0.0
 40
54.2947390625
 41
0.0
 71
               1
 72
               1
  1
縮　　尺
  7
_______
  0
MTEXT
  5
2B8
100
AcDbEntity
  8
IMPORTED
 62
              30
100
AcDbMText
 10
2463.7360166066487
 20
2510.7388976774037
 30
0.0
 40
54.2947390625
 41
0.0
 71
               1
 72
               1
  1
仕　　様
  7
_______
  0
MTEXT
  5
2B9
100
AcDbEntity
  8
IMPORTED
 62
              30
100
AcDbMText
 10
2463.7360166066487
 20
2692.677897677404
 30
0.0
 40
54.2947390625
 41
0.0
 71
               1
 72
               1
  1
品　　名
  7
_______
  0
MTEXT
  5
2BA
100
AcDbEntity
  8
IMPORTED
 62
              30
100
AcDbMText
 10
3101.6000166066488
 20
2690.7388976774037
 30
0.0
 40
54.2947390625
 41
0.0
 71
               1
 72
               1
  1
ＥＳＷ案内板
  7
_______
  0
LINE
  5
2BB
100
AcDbEntity
  8
IMPORTED
  6
CONTINUOUS
 62
              30
100
AcDbLine
 10
-3893.9999833933507
 20
-2448.999925385096
 30
0.0
 11
3906.0000166066488
 21
-2448.999925385096
 31
0.0
  0
MTEXT
  5
2BC
100
AcDbEntity
  8
IMPORTED
 62
              30
100
AcDbMText
 10
2344.7270166066487
 20
-2537.6505566350957
 30
0.0
 40
97.73046875
 41
0.0
 71
               1
 72
               1
  1
イー・トップ株式会社
  7
_______
  0
MTEXT
  5
2BD
100
AcDbEntity
  8
IMPORTED
 62
              30
100
AcDbMText
 10
2981.340016606649
 20
2511.331897677404
 30
0.0
 40
54.2947390625
 41
0.0
 71
               1
 72
               1
  1
ＥＩＮスーパーウッド
  7
_______
  0
LINE
  5
2BE
100
AcDbEntity
  8
IMPORTED
  6
CONTINUOUS
 62
              30
100
AcDbLine
 10
3905.9999166066486
 20
2570.9999746149037
 30
0.0
 11
2405.9999166066486
 21
2570.9999746149037
 31
0.0
  0
LINE
  5
2BF
100
AcDbEntity
  8
IMPORTED
  6
CONTINUOUS
 62
              30
100
AcDbLine
 10
3905.9999166066486
 20
2390.9999746149037
 30
0.0
 11
2405.9999166066486
 21
2390.9999746149037
 31
0.0
  0
LINE
  5
2C0
100
AcDbEntity
  8
IMPORTED
  6
CONTINUOUS
 62
              30
100
AcDbLine
 10
3905.9999166066486
 20
2210.9999746149037
 30
0.0
 11
2405.9999166066486
 21
2210.9999746149037
 31
0.0
  0
LINE
  5
2C1
100
AcDbEntity
  8
IMPORTED
  6
CONTINUOUS
 62
              30
100
AcDbLine
 10
3905.9999166066486
 20
2030.9999746149037
 30
0.0
 11
2405.9999166066486
 21
2030.9999746149037
 31
0.0
  0
LINE
  5
2C2
100
AcDbEntity
  8
IMPORTED
  6
CONTINUOUS
 62
              30
100
AcDbLine
 10
3905.9999166066486
 20
1850.9999746149037
 30
0.0
 11
2405.9999166066486
 21
1850.9999746149037
 31
0.0
  0
LINE
  5
2C3
100
AcDbEntity
  8
IMPORTED
  6
CONTINUOUS
 62
              30
100
AcDbLine
 10
2805.9999166066486
 20
2750.9999746149037
 30
0.0
 11
2805.9999166066486
 21
1850.9999746149037
 31
0.0
  0
LINE
  5
2C4
100
AcDbEntity
  8
IMPORTED
  6
CONTINUOUS
 62
              30
100
AcDbLine
 10
2405.9999166066486
 20
2750.9999746149037
 30
0.0
 11
2405.9999166066486
 21
1850.9999746149037
 31
0.0
  0
MTEXT
  5
2C5
100
AcDbEntity
  8
IMPORTED
 62
              30
100
AcDbMText
 10
3125.0210166066486
 20
2154.6168976774038
 30
0.0
 40
54.2947390625
 41
0.0
 71
               1
 72
               1
  1
W800×H145
  7
_______
  0
MTEXT
  5
2C6
100
AcDbEntity
  8
IMPORTED
 62
              30
100
AcDbMText
 10
2463.7360166066487
 20
2150.7388976774037
 30
0.0
 40
54.2947390625
 41
0.0
 71
               1
 72
               1
  1
規格寸法
  7
_______
  0
POLYLINE
  5
2C7
100
AcDbEntity
  8
IMPORTED
  6
CONTINUOUS
 62
              30
100
AcDb2dPolyline
 66
               1
 10
0.0
 20
0.0
 30
0.0
 70
             129
  0
VERTEX
  5
2C8
100
AcDbEntity
  8
IMPORTED
  6
CONTINUOUS
 62
              30
100
AcDbVertex
100
AcDb2dVertex
 10
999.99991660664898
 20
624.99997461490386
 30
0.0
  0
VERTEX
  5
2C9
100
AcDbEntity
  8
IMPORTED
  6
CONTINUOUS
 62
              30
100
AcDbVertex
100
AcDb2dVertex
 10
1119.9999166066489
 20
624.99997461490386
 30
0.0
  0
VERTEX
  5
2CA
100
AcDbEntity
  8
IMPORTED
  6
CONTINUOUS
 62
              30
100
AcDbVertex
100
AcDb2dVertex
 10
1119.9999166066489
 20
274.99997461490392
 30
0.0
  0
VERTEX
  5
2CB
100
AcDbEntity
  8
IMPORTED
  6
CONTINUOUS
 62
              30
100
AcDbVertex
100
AcDb2dVertex
 10
999.99991660664898
 20
274.99997461490392
 30
0.0
  0
SEQEND
  5
2CC
100
AcDbEntity
  8
IMPORTED
  6
CONTINUOUS
 62
              30
  0
LINE
  5
2CD
100
AcDbEntity
  8
IMPORTED
  6
CONTINUOUS
 62
              30
100
AcDbLine
 10
999.99991660664898
 20
558.05817461490392
 30
0.0
 11
1066.9417166066489
 21
624.99997461490386
 31
0.0
  0
LINE
  5
2CE
100
AcDbEntity
  8
IMPORTED
  6
CONTINUOUS
 62
              30
100
AcDbLine
 10
999.99991660664898
 20
469.6698746149039
 30
0.0
 11
1119.9999166066489
 21
589.66987461490385
 31
0.0
  0
LINE
  5
2CF
100
AcDbEntity
  8
IMPORTED
  6
CONTINUOUS
 62
              30
100
AcDbLine
 10
999.99991660664898
 20
381.28157461490389
 30
0.0
 11
1119.9999166066489
 21
501.28157461490389
 31
0.0
  0
LINE
  5
2D0
100
AcDbEntity
  8
IMPORTED
  6
CONTINUOUS
 62
              30
100
AcDbLine
 10
999.99991660664898
 20
292.89327461490393
 30
0.0
 11
1119.9999166066489
 21
412.89327461490393
 31
0.0
  0
LINE
  5
2D1
100
AcDbEntity
  8
IMPORTED
  6
CONTINUOUS
 62
              30
100
AcDbLine
 10
1070.495016606649
 20
275.00007461490389
 30
0.0
 11
1119.9998166066489
 21
324.50487461490394
 31
0.0
  0
LINE
  5
2D2
100
AcDbEntity
  8
IMPORTED
  6
CONTINUOUS
 62
              30
100
AcDbLine
 10
1050.8252166066491
 20
275.00007461490389
 30
0.0
 11
1000.000016606649
 21
325.82527461490389
 31
0.0
  0
LINE
  5
2D3
100
AcDbEntity
  8
IMPORTED
  6
CONTINUOUS
 62
              30
100
AcDbLine
 10
1119.9999166066489
 20
294.21357461490391
 30
0.0
 11
999.99991660664898
 21
414.21357461490391
 31
0.0
  0
LINE
  5
2D4
100
AcDbEntity
  8
IMPORTED
  6
CONTINUOUS
 62
              30
100
AcDbLine
 10
1119.9999166066489
 20
382.6019746149039
 30
0.0
 11
999.99991660664898
 21
502.60197461490395
 31
0.0
  0
LINE
  5
2D5
100
AcDbEntity
  8
IMPORTED
  6
CONTINUOUS
 62
              30
100
AcDbLine
 10
1119.9999166066489
 20
470.99017461490388
 30
0.0
 11
999.99991660664898
 21
590.99017461490394
 31
0.0
  0
LINE
  5
2D6
100
AcDbEntity
  8
IMPORTED
  6
CONTINUOUS
 62
              30
100
AcDbLine
 10
1119.9999166066489
 20
559.37857461490387
 30
0.0
 11
1054.3785166066489
 21
624.99997461490386
 31
0.0
  0
LINE
  5
2D7
100
AcDbEntity
  8
IMPORTED
  6
CONTINUOUS
 62
              30
100
AcDbLine
 10
-999.99998339335082
 20
558.05817461490392
 30
0.0
 11
-933.05818339335087
 21
624.99997461490386
 31
0.0
  0
LINE
  5
2D8
100
AcDbEntity
  8
IMPORTED
  6
CONTINUOUS
 62
              30
100
AcDbLine
 10
-999.99998339335082
 20
469.6698746149039
 30
0.0
 11
-879.99998339335082
 21
589.66987461490385
 31
0.0
  0
LINE
  5
2D9
100
AcDbEntity
  8
IMPORTED
  6
CONTINUOUS
 62
              30
100
AcDbLine
 10
-999.99998339335082
 20
381.28157461490389
 30
0.0
 11
-879.99998339335082
 21
501.28157461490389
 31
0.0
  0
LINE
  5
2DA
100
AcDbEntity
  8
IMPORTED
  6
CONTINUOUS
 62
              30
100
AcDbLine
 10
-999.99998339335082
 20
292.89327461490393
 30
0.0
 11
-879.99998339335082
 21
412.89327461490393
 31
0.0
  0
LINE
  5
2DB
100
AcDbEntity
  8
IMPORTED
  6
CONTINUOUS
 62
              30
100
AcDbLine
 10
-929.50488339335084
 20
275.00007461490389
 30
0.0
 11
-880.00008339335091
 21
324.50487461490394
 31
0.0
  0
LINE
  5
2DC
100
AcDbEntity
  8
IMPORTED
  6
CONTINUOUS
 62
              30
100
AcDbLine
 10
-949.17468339335085
 20
275.00007461490389
 30
0.0
 11
-999.99988339335084
 21
325.82527461490389
 31
0.0
  0
LINE
  5
2DD
100
AcDbEntity
  8
IMPORTED
  6
CONTINUOUS
 62
              30
100
AcDbLine
 10
-879.99998339335082
 20
294.21357461490391
 30
0.0
 11
-999.99998339335082
 21
414.21357461490391
 31
0.0
  0
LINE
  5
2DE
100
AcDbEntity
  8
IMPORTED
  6
CONTINUOUS
 62
              30
100
AcDbLine
 10
-879.99998339335082
 20
382.6019746149039
 30
0.0
 11
-999.99998339335082
 21
502.60197461490395
 31
0.0
  0
LINE
  5
2DF
100
AcDbEntity
  8
IMPORTED
  6
CONTINUOUS
 62
              30
100
AcDbLine
 10
-879.99998339335082
 20
470.99017461490388
 30
0.0
 11
-999.99998339335082
 21
590.99017461490394
 31
0.0
  0
LINE
  5
2E0
100
AcDbEntity
  8
IMPORTED
  6
CONTINUOUS
 62
              30
100
AcDbLine
 10
-879.99998339335082
 20
559.37857461490387
 30
0.0
 11
-945.62138339335081
 21
624.99997461490386
 31
0.0
  0
MTEXT
  5
2E1
100
AcDbEntity
  8
IMPORTED
 62
              30
100
AcDbMText
 10
3161.416016606649
 20
1970.7388976774039
 30
0.0
 40
54.2947390625
 41
0.0
 71
               1
 72
               1
  1
1：20(A3)
  7
_______
  0
LINE
  5
2E2
100
AcDbEntity
  8
IMPORTED
  6
CONTINUOUS
 62
              30
100
AcDbLine
 10
999.99991660664898
 20
1569.9999746149037
 30
0.0
 11
1119.9999166066489
 21
1569.9999746149037
 31
0.0
  0
LINE
  5
2E3
100
AcDbEntity
  8
IMPORTED
  6
CONTINUOUS
 62
              30
100
AcDbLine
 10
1114.9999166066489
 20
1574.9999746149037
 30
0.0
 11
1114.9999166066489
 21
274.99997461490392
 31
0.0
  0
LINE
  5
2E4
100
AcDbEntity
  8
IMPORTED
  6
CONTINUOUS
 62
              30
100
AcDbLine
 10
1004.999916606649
 20
274.99997461490392
 30
0.0
 11
1004.999916606649
 21
1574.9999746149037
 31
0.0
  0
POLYLINE
  5
2E5
100
AcDbEntity
  8
IMPORTED
  6
CONTINUOUS
 62
              30
100
AcDb2dPolyline
 66
               1
 10
0.0
 20
0.0
 30
0.0
 70
             128
  0
VERTEX
  5
2E6
100
AcDbEntity
  8
IMPORTED
  6
CONTINUOUS
 62
              30
100
AcDbVertex
100
AcDb2dVertex
 10
-999.99998339335082
 20
1474.9999746149037
 30
0.0
  0
VERTEX
  5
2E7
100
AcDbEntity
  8
IMPORTED
  6
CONTINUOUS
 62
              30
100
AcDbVertex
100
AcDb2dVertex
 10
-999.99998339335082
 20
1569.9999746149037
 30
0.0
  0
VERTEX
  5
2E8
100
AcDbEntity
  8
IMPORTED
  6
CONTINUOUS
 62
              30
100
AcDbVertex
100
AcDb2dVertex
 10
-994.99998339335082
 20
1574.9999746149037
 30
0.0
  0
VERTEX
  5
2E9
100
AcDbEntity
  8
IMPORTED
  6
CONTINUOUS
 62
              30
100
AcDbVertex
100
AcDb2dVertex
 10
-884.99998339335082
 20
1574.9999746149037
 30
0.0
  0
VERTEX
  5
2EA
100
AcDbEntity
  8
IMPORTED
  6
CONTINUOUS
 62
              30
100
AcDbVertex
100
AcDb2dVertex
 10
-879.99998339335082
 20
1569.9999746149037
 30
0.0
  0
VERTEX
  5
2EB
100
AcDbEntity
  8
IMPORTED
  6
CONTINUOUS
 62
              30
100
AcDbVertex
100
AcDb2dVertex
 10
-879.99998339335082
 20
1474.9999746149037
 30
0.0
  0
SEQEND
  5
2EC
100
AcDbEntity
  8
IMPORTED
  6
CONTINUOUS
 62
              30
  0
LINE
  5
2ED
100
AcDbEntity
  8
IMPORTED
  6
CONTINUOUS
 62
              30
100
AcDbLine
 10
-994.99998339335082
 20
274.99997461490392
 30
0.0
 11
-994.99998339335082
 21
1329.9999746149037
 31
0.0
  0
LINE
  5
2EE
100
AcDbEntity
  8
IMPORTED
  6
CONTINUOUS
 62
              30
100
AcDbLine
 10
-884.99998339335082
 20
1574.9999746149037
 30
0.0
 11
-884.99998339335082
 21
1474.9999746149037
 31
0.0
  0
LINE
  5
2EF
100
AcDbEntity
  8
IMPORTED
  6
CONTINUOUS
 62
              30
100
AcDbLine
 10
-999.99998339335082
 20
1569.9999746149037
 30
0.0
 11
-879.99998339335082
 21
1569.9999746149037
 31
0.0
  0
LINE
  5
2F0
100
AcDbEntity
  8
IMPORTED
  6
CONTINUOUS
 62
              30
100
AcDbLine
 10
-994.99998339335082
 20
1474.9999746149037
 30
0.0
 11
-994.99998339335082
 21
1574.9999746149037
 31
0.0
  0
LINE
  5
2F1
100
AcDbEntity
  8
IMPORTED
  6
CONTINUOUS
 62
              30
100
AcDbLine
 10
-884.99998339335082
 20
1329.9999746149037
 30
0.0
 11
-884.99998339335082
 21
274.99997461490392
 31
0.0
  0
POLYLINE
  5
2F2
100
AcDbEntity
  8
IMPORTED
  6
CONTINUOUS
 62
              30
100
AcDb2dPolyline
 66
               1
 10
0.0
 20
0.0
 30
0.0
 70
             128
  0
VERTEX
  5
2F3
100
AcDbEntity
  8
IMPORTED
  6
CONTINUOUS
 62
              30
100
AcDbVertex
100
AcDb2dVertex
 10
-879.99998339335082
 20
1329.9999746149037
 30
0.0
  0
VERTEX
  5
2F4
100
AcDbEntity
  8
IMPORTED
  6
CONTINUOUS
 62
              30
100
AcDbVertex
100
AcDb2dVertex
 10
-879.99998339335082
 20
274.99997461490392
 30
0.0
  0
VERTEX
  5
2F5
100
AcDbEntity
  8
IMPORTED
  6
CONTINUOUS
 62
              30
100
AcDbVertex
100
AcDb2dVertex
 10
-999.99998339335082
 20
274.99997461490392
 30
0.0
  0
VERTEX
  5
2F6
100
AcDbEntity
  8
IMPORTED
  6
CONTINUOUS
 62
              30
100
AcDbVertex
100
AcDb2dVertex
 10
-999.99998339335082
 20
1329.9999746149037
 30
0.0
  0
SEQEND
  5
2F7
100
AcDbEntity
  8
IMPORTED
  6
CONTINUOUS
 62
              30
  0
POLYLINE
  5
2F8
100
AcDbEntity
  8
IMPORTED
  6
CONTINUOUS
 62
              30
100
AcDb2dPolyline
 66
               1
 10
0.0
 20
0.0
 30
0.0
 70
               1
 75
               5
  0
VERTEX
  5
2F9
100
AcDbEntity
  8
IMPORTED
  6
CONTINUOUS
 62
              30
100
AcDbVertex
100
AcDb2dVertex
 10
-542.99998339335093
 20
1474.9999746149037
 30
0.0
  0
VERTEX
  5
2FA
100
AcDbEntity
  8
IMPORTED
  6
CONTINUOUS
 62
              30
100
AcDbVertex
100
AcDb2dVertex
 10
-1336.9999833933509
 20
1474.9999746149037
 30
0.0
  0
VERTEX
  5
2FB
100
AcDbEntity
  8
IMPORTED
  6
CONTINUOUS
 62
              30
100
AcDbVertex
100
AcDb2dVertex
 10
-1339.9999833933509
 20
1471.9999746149037
 30
0.0
  0
VERTEX
  5
2FC
100
AcDbEntity
  8
IMPORTED
  6
CONTINUOUS
 62
              30
100
AcDbVertex
100
AcDb2dVertex
 10
-1339.9999833933509
 20
1332.9999746149037
 30
0.0
  0
VERTEX
  5
2FD
100
AcDbEntity
  8
IMPORTED
  6
CONTINUOUS
 62
              30
100
AcDbVertex
100
AcDb2dVertex
 10
-1336.9999833933509
 20
1329.9999746149037
 30
0.0
  0
VERTEX
  5
2FE
100
AcDbEntity
  8
IMPORTED
  6
CONTINUOUS
 62
              30
100
AcDbVertex
100
AcDb2dVertex
 10
-542.99998339335093
 20
1329.9999746149037
 30
0.0
  0
VERTEX
  5
2FF
100
AcDbEntity
  8
IMPORTED
  6
CONTINUOUS
 62
              30
100
AcDbVertex
100
AcDb2dVertex
 10
-539.99998339335093
 20
1332.9999746149037
 30
0.0
  0
VERTEX
  5
300
100
AcDbEntity
  8
IMPORTED
  6
CONTINUOUS
 62
              30
100
AcDbVertex
100
AcDb2dVertex
 10
-539.99998339335093
 20
1471.9999746149037
 30
0.0
  0
SEQEND
  5
301
100
AcDbEntity
  8
IMPORTED
  6
CONTINUOUS
 62
              30
  0
LINE
  5
303
100
AcDbEntity
  8
IMPORTED
  6
STYLE_05
 62
              30
100
AcDbLine
 10
-999.99998339335082
 20
1474.9999746149037
 30
0.0
 11
-999.99998339335082
 21
1329.9999746149037
 31
0.0
  0
LINE
  5
304
100
AcDbEntity
  8
IMPORTED
  6
STYLE_05
 62
              30
100
AcDbLine
 10
-994.99998339335082
 20
1474.9999746149037
 30
0.0
 11
-994.99998339335082
 21
1329.9999746149037
 31
0.0
  0
LINE
  5
305
100
AcDbEntity
  8
IMPORTED
  6
STYLE_05
 62
              30
100
AcDbLine
 10
-884.99998339335082
 20
1474.9999746149037
 30
0.0
 11
-884.99998339335082
 21
1329.9999746149037
 31
0.0
  0
LINE
  5
306
100
AcDbEntity
  8
IMPORTED
  6
STYLE_05
 62
              30
100
AcDbLine
 10
-879.99998339335082
 20
1474.9999746149037
 30
0.0
 11
-879.99998339335082
 21
1329.9999746149037
 31
0.0
  0
LINE
  5
307
100
AcDbEntity
  8
IMPORTED
  6
CONTINUOUS
 62
              30
100
AcDbLine
 10
-1336.9999833933509
 20
1474.9999746149037
 30
0.0
 11
-1336.9999833933509
 21
1329.9999746149037
 31
0.0
  0
LINE
  5
308
100
AcDbEntity
  8
IMPORTED
  6
CONTINUOUS
 62
              30
100
AcDbLine
 10
-542.99998339335093
 20
1474.9999746149037
 30
0.0
 11
-542.99998339335093
 21
1329.9999746149037
 31
0.0
  0
LINE
  5
309
100
AcDbEntity
  8
IMPORTED
  6
CONTINUOUS
 62
              30
100
AcDbLine
 10
-539.99998339335093
 20
1332.9999746149037
 30
0.0
 11
-1339.9999833933509
 21
1332.9999746149037
 31
0.0
  0
LINE
  5
30A
100
AcDbEntity
  8
IMPORTED
  6
CONTINUOUS
 62
              30
100
AcDbLine
 10
-1339.9999833933509
 20
1471.9999746149037
 30
0.0
 11
-539.99998339335093
 21
1471.9999746149037
 31
0.0
  0
LINE
  5
30B
100
AcDbEntity
  8
IMPORTED
  6
CONTINUOUS
 62
              30
100
AcDbLine
 10
977.99991660664898
 20
1474.9999746149037
 30
0.0
 11
977.99991660664898
 21
1329.9999746149037
 31
0.0
  0
LINE
  5
30C
100
AcDbEntity
  8
IMPORTED
  6
CONTINUOUS
 62
              30
100
AcDbLine
 10
996.99991660664898
 20
1329.9999746149037
 30
0.0
 11
996.99991660664898
 21
1474.9999746149037
 31
0.0
  0
LINE
  5
30D
100
AcDbEntity
  8
IMPORTED
  6
CONTINUOUS
 62
              30
100
AcDbLine
 10
974.99991660664898
 20
1332.9999746149037
 30
0.0
 11
999.99991660664898
 21
1332.9999746149037
 31
0.0
  0
LINE
  5
30E
100
AcDbEntity
  8
IMPORTED
  6
CONTINUOUS
 62
              30
100
AcDbLine
 10
974.99991660664898
 20
1471.9999746149037
 30
0.0
 11
999.99991660664898
 21
1471.9999746149037
 31
0.0
  0
POLYLINE
  5
30F
100
AcDbEntity
  8
IMPORTED
  6
CONTINUOUS
 62
              30
100
AcDb2dPolyline
 66
               1
 10
0.0
 20
0.0
 30
0.0
 70
               1
 75
               5
  0
VERTEX
  5
310
100
AcDbEntity
  8
IMPORTED
  6
CONTINUOUS
 62
              30
100
AcDbVertex
100
AcDb2dVertex
 10
996.99991660664898
 20
1474.9999746149037
 30
0.0
  0
VERTEX
  5
311
100
AcDbEntity
  8
IMPORTED
  6
CONTINUOUS
 62
              30
100
AcDbVertex
100
AcDb2dVertex
 10
977.99991660664898
 20
1474.9999746149037
 30
0.0
  0
VERTEX
  5
312
100
AcDbEntity
  8
IMPORTED
  6
CONTINUOUS
 62
              30
100
AcDbVertex
100
AcDb2dVertex
 10
974.99991660664898
 20
1471.9999746149037
 30
0.0
  0
VERTEX
  5
313
100
AcDbEntity
  8
IMPORTED
  6
CONTINUOUS
 62
              30
100
AcDbVertex
100
AcDb2dVertex
 10
974.99991660664898
 20
1332.9999746149037
 30
0.0
  0
VERTEX
  5
314
100
AcDbEntity
  8
IMPORTED
  6
CONTINUOUS
 62
              30
100
AcDbVertex
100
AcDb2dVertex
 10
977.99991660664898
 20
1329.9999746149037
 30
0.0
  0
VERTEX
  5
315
100
AcDbEntity
  8
IMPORTED
  6
CONTINUOUS
 62
              30
100
AcDbVertex
100
AcDb2dVertex
 10
996.99991660664898
 20
1329.9999746149037
 30
0.0
  0
VERTEX
  5
316
100
AcDbEntity
  8
IMPORTED
  6
CONTINUOUS
 62
              30
100
AcDbVertex
100
AcDb2dVertex
 10
999.99991660664898
 20
1332.9999746149037
 30
0.0
  0
VERTEX
  5
317
100
AcDbEntity
  8
IMPORTED
  6
CONTINUOUS
 62
              30
100
AcDbVertex
100
AcDb2dVertex
 10
999.99991660664898
 20
1471.9999746149037
 30
0.0
  0
SEQEND
  5
318
100
AcDbEntity
  8
IMPORTED
  6
CONTINUOUS
 62
              30
  0
POLYLINE
  5
31A
100
AcDbEntity
  8
IMPORTED
  6
CONTINUOUS
 62
              30
100
AcDb2dPolyline
 66
               1
 10
0.0
 20
0.0
 30
0.0
 70
               1
 75
               5
  0
VERTEX
  5
31B
100
AcDbEntity
  8
IMPORTED
  6
CONTINUOUS
 62
              30
100
AcDbVertex
100
AcDb2dVertex
 10
-532.99998339335093
 20
-1282.666625385096
 30
0.0
  0
VERTEX
  5
31C
100
AcDbEntity
  8
IMPORTED
  6
CONTINUOUS
 62
              30
100
AcDbVertex
100
AcDb2dVertex
 10
-1326.9999833933509
 20
-1282.666625385096
 30
0.0
  0
VERTEX
  5
31D
100
AcDbEntity
  8
IMPORTED
  6
CONTINUOUS
 62
              30
100
AcDbVertex
100
AcDb2dVertex
 10
-1329.9999833933509
 20
-1285.666625385096
 30
0.0
  0
VERTEX
  5
31E
100
AcDbEntity
  8
IMPORTED
  6
CONTINUOUS
 62
              30
100
AcDbVertex
100
AcDb2dVertex
 10
-1329.9999833933509
 20
-1304.666625385096
 30
0.0
  0
VERTEX
  5
31F
100
AcDbEntity
  8
IMPORTED
  6
CONTINUOUS
 62
              30
100
AcDbVertex
100
AcDb2dVertex
 10
-1326.9999833933509
 20
-1307.666625385096
 30
0.0
  0
VERTEX
  5
320
100
AcDbEntity
  8
IMPORTED
  6
CONTINUOUS
 62
              30
100
AcDbVertex
100
AcDb2dVertex
 10
-532.99998339335093
 20
-1307.666625385096
 30
0.0
  0
VERTEX
  5
321
100
AcDbEntity
  8
IMPORTED
  6
CONTINUOUS
 62
              30
100
AcDbVertex
100
AcDb2dVertex
 10
-529.99998339335093
 20
-1304.666625385096
 30
0.0
  0
VERTEX
  5
322
100
AcDbEntity
  8
IMPORTED
  6
CONTINUOUS
 62
              30
100
AcDbVertex
100
AcDb2dVertex
 10
-529.99998339335093
 20
-1285.666625385096
 30
0.0
  0
SEQEND
  5
323
100
AcDbEntity
  8
IMPORTED
  6
CONTINUOUS
 62
              30
  0
LINE
  5
325
100
AcDbEntity
  8
IMPORTED
  6
CONTINUOUS
 62
              30
100
AcDbLine
 10
-1326.9999833933509
 20
-1282.666625385096
 30
0.0
 11
-1326.9999833933509
 21
-1307.666625385096
 31
0.0
  0
LINE
  5
326
100
AcDbEntity
  8
IMPORTED
  6
CONTINUOUS
 62
              30
100
AcDbLine
 10
-532.99998339335093
 20
-1307.666625385096
 30
0.0
 11
-532.99998339335093
 21
-1282.666625385096
 31
0.0
  0
LINE
  5
327
100
AcDbEntity
  8
IMPORTED
  6
CONTINUOUS
 62
              30
100
AcDbLine
 10
-529.99998339335093
 20
-1304.666625385096
 30
0.0
 11
-1329.9999833933509
 21
-1304.666625385096
 31
0.0
  0
LINE
  5
328
100
AcDbEntity
  8
IMPORTED
  6
CONTINUOUS
 62
              30
100
AcDbLine
 10
-1329.9999833933509
 20
-1285.666625385096
 30
0.0
 11
-529.99998339335093
 21
-1285.666625385096
 31
0.0
  0
POLYLINE
  5
329
100
AcDbEntity
  8
IMPORTED
  6
STYLE_05
 62
              30
100
AcDb2dPolyline
 66
               1
 10
0.0
 20
0.0
 30
0.0
 70
               1
 75
               5
  0
VERTEX
  5
32A
100
AcDbEntity
  8
IMPORTED
  6
STYLE_05
 62
              30
100
AcDbVertex
100
AcDb2dVertex
 10
-962.99998339335082
 20
-1265.9666253850958
 30
0.0
  0
VERTEX
  5
32B
100
AcDbEntity
  8
IMPORTED
  6
STYLE_05
 62
              30
100
AcDbVertex
100
AcDb2dVertex
 10
-959.99998339335082
 20
-1257.666625385096
 30
0.0
  0
VERTEX
  5
32C
100
AcDbEntity
  8
IMPORTED
  6
STYLE_05
 62
              30
100
AcDbVertex
100
AcDb2dVertex
 10
-956.99998339335082
 20
-1265.9666253850958
 30
0.0
  0
VERTEX
  5
32D
100
AcDbEntity
  8
IMPORTED
  6
STYLE_05
 62
              30
100
AcDbVertex
100
AcDb2dVertex
 10
-956.99998339335082
 20
-1304.3666253850959
 30
0.0
  0
VERTEX
  5
32E
100
AcDbEntity
  8
IMPORTED
  6
STYLE_05
 62
              30
100
AcDbVertex
100
AcDb2dVertex
 10
-962.99998339335082
 20
-1304.3666253850959
 30
0.0
  0
SEQEND
  5
32F
100
AcDbEntity
  8
IMPORTED
  6
STYLE_05
 62
              30
  0
POLYLINE
  5
331
100
AcDbEntity
  8
IMPORTED
  6
STYLE_05
 62
              30
100
AcDb2dPolyline
 66
               1
 10
0.0
 20
0.0
 30
0.0
 70
               1
 75
               5
  0
VERTEX
  5
332
100
AcDbEntity
  8
IMPORTED
  6
STYLE_05
 62
              30
100
AcDbVertex
100
AcDb2dVertex
 10
-956.99998339335082
 20
-1304.3666253850959
 30
0.0
  0
VERTEX
  5
333
100
AcDbEntity
  8
IMPORTED
  6
STYLE_05
 62
              30
100
AcDbVertex
100
AcDb2dVertex
 10
-953.69998339335064
 20
-1307.666625385096
 30
0.0
  0
VERTEX
  5
334
100
AcDbEntity
  8
IMPORTED
  6
STYLE_05
 62
              30
100
AcDbVertex
100
AcDb2dVertex
 10
-966.299983393351
 20
-1307.666625385096
 30
0.0
  0
VERTEX
  5
335
100
AcDbEntity
  8
IMPORTED
  6
STYLE_05
 62
              30
100
AcDbVertex
100
AcDb2dVertex
 10
-962.99998339335082
 20
-1304.3666253850959
 30
0.0
  0
SEQEND
  5
336
100
AcDbEntity
  8
IMPORTED
  6
STYLE_05
 62
              30
  0
POLYLINE
  5
338
100
AcDbEntity
  8
IMPORTED
  6
STYLE_05
 62
              30
100
AcDb2dPolyline
 66
               1
 10
0.0
 20
0.0
 30
0.0
 70
               1
 75
               5
  0
VERTEX
  5
339
100
AcDbEntity
  8
IMPORTED
  6
STYLE_05
 62
              30
100
AcDbVertex
100
AcDb2dVertex
 10
-896.99998339335082
 20
-1265.9666253850958
 30
0.0
  0
VERTEX
  5
33A
100
AcDbEntity
  8
IMPORTED
  6
STYLE_05
 62
              30
100
AcDbVertex
100
AcDb2dVertex
 10
-899.99998339335082
 20
-1257.666625385096
 30
0.0
  0
VERTEX
  5
33B
100
AcDbEntity
  8
IMPORTED
  6
STYLE_05
 62
              30
100
AcDbVertex
100
AcDb2dVertex
 10
-902.99998339335082
 20
-1265.9666253850958
 30
0.0
  0
VERTEX
  5
33C
100
AcDbEntity
  8
IMPORTED
  6
STYLE_05
 62
              30
100
AcDbVertex
100
AcDb2dVertex
 10
-902.99998339335082
 20
-1304.3666253850959
 30
0.0
  0
VERTEX
  5
33D
100
AcDbEntity
  8
IMPORTED
  6
STYLE_05
 62
              30
100
AcDbVertex
100
AcDb2dVertex
 10
-896.99998339335082
 20
-1304.3666253850959
 30
0.0
  0
SEQEND
  5
33E
100
AcDbEntity
  8
IMPORTED
  6
STYLE_05
 62
              30
  0
POLYLINE
  5
340
100
AcDbEntity
  8
IMPORTED
  6
STYLE_05
 62
              30
100
AcDb2dPolyline
 66
               1
 10
0.0
 20
0.0
 30
0.0
 70
               1
 75
               5
  0
VERTEX
  5
341
100
AcDbEntity
  8
IMPORTED
  6
STYLE_05
 62
              30
100
AcDbVertex
100
AcDb2dVertex
 10
-902.99998339335082
 20
-1304.3666253850959
 30
0.0
  0
VERTEX
  5
342
100
AcDbEntity
  8
IMPORTED
  6
STYLE_05
 62
              30
100
AcDbVertex
100
AcDb2dVertex
 10
-906.299983393351
 20
-1307.666625385096
 30
0.0
  0
VERTEX
  5
343
100
AcDbEntity
  8
IMPORTED
  6
STYLE_05
 62
              30
100
AcDbVertex
100
AcDb2dVertex
 10
-893.69998339335064
 20
-1307.666625385096
 30
0.0
  0
VERTEX
  5
344
100
AcDbEntity
  8
IMPORTED
  6
STYLE_05
 62
              30
100
AcDbVertex
100
AcDb2dVertex
 10
-896.99998339335082
 20
-1304.3666253850959
 30
0.0
  0
SEQEND
  5
345
100
AcDbEntity
  8
IMPORTED
  6
STYLE_05
 62
              30
  0
MTEXT
  5
347
100
AcDbEntity
  8
IMPORTED
 62
              30
100
AcDbMText
 10
76.720908196107587
 20
-1397.5780989583332
 30
0.0
 40
48.865234375000007
 41
0.0
 71
               1
 72
               1
  1
※特記事項\P・ESWは、木粉50％以上、ポリプロピレン40％以上の配合で、\P  表面をサンディング加工した再生木材「EINスーパーウッド」の略称。\P・ESW塗装は、ESWの表面をアクリルシリコン系水性塗料で仕上げた製品。\P
  7
_______
  0
ENDSEC
  0
SECTION
  2
OBJECTS
  0
DICTIONARY
  5
19
100
AcDbDictionary
  3
ACAD_GROUP
350
1A
  3
ACAD_MLINESTYLE
350
1B
  0
DICTIONARY
  5
1A
102
{ACAD_REACTORS
330
19
102
}
100
AcDbDictionary
  0
DICTIONARY
  5
1B
102
{ACAD_REACTORS
330
19
102
}
100
AcDbDictionary
  3
STANDARD
350
1C
  0
MLINESTYLE
  5
1C
102
{ACAD_REACTORS
330
1B
102
}
100
AcDbMlineStyle
  2
STANDARD
 70
               0
  3

 62
               0
 51
90.0
 52
90.0
 71
               2
 49
0.5
 62
             256
  6
BYLAYER
 49
-0.5
 62
             256
  6
BYLAYER
  0
ENDSEC
  0
EOF
