  0
SECTION
  2
HEADER
  9
$ACADVER
  1
AC1012
  9
$DWGCODEPAGE
  3
dos932
  9
$INSBASE
 10
0.0
 20
0.0
 30
0.0
  9
$EXTMIN
 10
-3893.9999833933507
 20
-2749.0000253850958
 30
0.0
  9
$EXTMAX
 10
3906.0000166066488
 20
2750.9999746149037
 30
0.0
  9
$LIMMIN
 10
0.0
 20
0.0
  9
$LIMMAX
 10
0.0
 20
0.0
  9
$ORTHOMODE
 70
               0
  9
$REGENMODE
 70
               1
  9
$FILLMODE
 70
               1
  9
$QTEXTMODE
 70
               0
  9
$MIRRTEXT
 70
               1
  9
$DRAGMODE
 70
               2
  9
$LTSCALE
 40
101.59999999999999
  9
$OSMODE
 70
               0
  9
$ATTMODE
 70
               1
  9
$TEXTSIZE
 40
0.2
  9
$TRACEWID
 40
1.0
  9
$TEXTSTYLE
  7
STANDARD
  9
$CLAYER
  8
IMPORTED
  9
$CELTYPE
  6
CONTINUOUS
  9
$CECOLOR
 62
             256
  9
$CELTSCALE
 40
1.0
  9
$DELOBJ
 70
               1
  9
$DISPSILH
 70
               0
  9
$DIMSCALE
 40
1.0
  9
$DIMASZ
 40
0.18
  9
$DIMEXO
 40
0.0625
  9
$DIMDLI
 40
0.38
  9
$DIMRND
 40
0.0
  9
$DIMDLE
 40
0.0
  9
$DIMEXE
 40
0.18
  9
$DIMTP
 40
0.0
  9
$DIMTM
 40
0.0
  9
$DIMTXT
 40
0.18
  9
$DIMCEN
 40
0.09
  9
$DIMTSZ
 40
0.0
  9
$DIMTOL
 70
               0
  9
$DIMLIM
 70
               0
  9
$DIMTIH
 70
               1
  9
$DIMTOH
 70
               1
  9
$DIMSE1
 70
               0
  9
$DIMSE2
 70
               0
  9
$DIMTAD
 70
               0
  9
$DIMZIN
 70
               0
  9
$DIMBLK
  1

  9
$DIMASO
 70
               1
  9
$DIMSHO
 70
               1
  9
$DIMPOST
  1

  9
$DIMAPOST
  1

  9
$DIMALT
 70
               0
  9
$DIMALTD
 70
               2
  9
$DIMALTF
 40
25.399999999999999
  9
$DIMLFAC
 40
1.0
  9
$DIMTOFL
 70
               0
  9
$DIMTVP
 40
0.0
  9
$DIMTIX
 70
               0
  9
$DIMSOXD
 70
               0
  9
$DIMSAH
 70
               0
  9
$DIMBLK1
  1

  9
$DIMBLK2
  1

  9
$DIMSTYLE
  2
STANDARD
  9
$DIMCLRD
 70
               0
  9
$DIMCLRE
 70
               0
  9
$DIMCLRT
 70
               0
  9
$DIMTFAC
 40
1.0
  9
$DIMGAP
 40
0.09
  9
$DIMJUST
 70
               0
  9
$DIMSD1
 70
               0
  9
$DIMSD2
 70
               0
  9
$DIMTOLJ
 70
               1
  9
$DIMTZIN
 70
               0
  9
$DIMALTZ
 70
               0
  9
$DIMALTTZ
 70
               0
  9
$DIMFIT
 70
               3
  9
$DIMUPT
 70
               0
  9
$DIMUNIT
 70
               2
  9
$DIMDEC
 70
               4
  9
$DIMTDEC
 70
               4
  9
$DIMALTU
 70
               2
  9
$DIMALTTD
 70
               2
  9
$DIMTXSTY
  7
STANDARD
  9
$DIMAUNIT
 70
               0
  9
$LUNITS
 70
               2
  9
$LUPREC
 70
               4
  9
$SKETCHINC
 40
0.1
  9
$FILLETRAD
 40
0.0
  9
$AUNITS
 70
               0
  9
$AUPREC
 70
               0
  9
$MENU
  1
acad
  9
$ELEVATION
 40
0.0
  9
$PELEVATION
 40
0.0
  9
$THICKNESS
 40
0.0
  9
$LIMCHECK
 70
               0
  9
$BLIPMODE
 70
               0
  9
$CHAMFERA
 40
0.0
  9
$CHAMFERB
 40
0.0
  9
$CHAMFERC
 40
0.0
  9
$CHAMFERD
 40
0.0
  9
$SKPOLY
 70
               0
  9
$TDCREATE
 40
2459227.612500000
  9
$TDUPDATE
 40
2459227.612500000
  9
$TDINDWG
 40
0.0000000000
  9
$TDUSRTIMER
 40
0.0000000000
  9
$USRTIMER
 70
               1
  9
$ANGBASE
 50
0.0
  9
$ANGDIR
 70
               0
  9
$PDMODE
 70
               1
  9
$PDSIZE
 40
-2.0
  9
$PLINEWID
 40
0.0
  9
$COORDS
 70
               0
  9
$SPLFRAME
 70
               0
  9
$SPLINETYPE
 70
               6
  9
$SPLINESEGS
 70
               8
  9
$ATTDIA
 70
               0
  9
$ATTREQ
 70
               1
  9
$HANDLING
 70
               1
  9
$HANDSEED
  5
3B6
  9
$SURFTAB1
 70
               6
  9
$SURFTAB2
 70
               6
  9
$SURFTYPE
 70
               6
  9
$SURFU
 70
               6
  9
$SURFV
 70
               6
  9
$UCSNAME
  2

  9
$UCSORG
 10
0.0
 20
0.0
 30
0.0
  9
$UCSXDIR
 10
1.0
 20
0.0
 30
0.0
  9
$UCSYDIR
 10
0.0
 20
1.0
 30
0.0
  9
$PUCSNAME
  2

  9
$PUCSORG
 10
0.0
 20
0.0
 30
0.0
  9
$PUCSXDIR
 10
1.0
 20
0.0
 30
0.0
  9
$PUCSYDIR
 10
0.0
 20
1.0
 30
0.0
  9
$USERI1
 70
               0
  9
$USERI2
 70
               0
  9
$USERI3
 70
               0
  9
$USERI4
 70
               0
  9
$USERI5
 70
               0
  9
$USERR1
 40
0.0
  9
$USERR2
 40
0.0
  9
$USERR3
 40
0.0
  9
$USERR4
 40
0.0
  9
$USERR5
 40
0.0
  9
$WORLDVIEW
 70
               1
  9
$SHADEDGE
 70
               3
  9
$SHADEDIF
 70
              70
  9
$TILEMODE
 70
               1
  9
$MAXACTVP
 70
              64
  9
$PINSBASE
 10
0.0
 20
0.0
 30
0.0
  9
$PLIMCHECK
 70
               0
  9
$PEXTMIN
 10
1.0000000000000000E+20
 20
1.0000000000000000E+20
 30
1.0000000000000000E+20
  9
$PEXTMAX
 10
-1.0000000000000000E+20
 20
-1.0000000000000000E+20
 30
-1.0000000000000000E+20
  9
$PLIMMIN
 10
0.0
 20
0.0
  9
$PLIMMAX
 10
12.0
 20
9.0
  9
$UNITMODE
 70
               0
  9
$VISRETAIN
 70
               0
  9
$PLINEGEN
 70
               1
  9
$PSLTSCALE
 70
               0
  9
$TREEDEPTH
 70
            3020
  9
$PICKSTYLE
 70
               1
  9
$CMLSTYLE
  2
STANDARD
  9
$CMLJUST
 70
               0
  9
$CMLSCALE
 40
1.0
  9
$SAVEIMAGES
 70
               0
  0
ENDSEC
  0
SECTION
  2
CLASSES
  0
CLASS
  1
LWPOLYLINE
  2
AcDbPolyline
  3
"AutoCAD"
 90
    32768
280
               0
281
               1
  0
CLASS
  1
IMAGE
  2
AcDbRasterImage
  3
ISM
 90
    32895
280
               0
281
               1
  0
CLASS
  1
OLE2FRAME
  2
AcDbOle2Frame
  3
""
 90
    32768
280
               0
281
               1
  0
CLASS
  1
HATCH
  2
AcDbHatch
  3
"ACAD_SEDONA"
 90
    32768
280
               0
281
               1
  0
CLASS
  1
DICTIONARYVAR
  2
AcDbDictionaryVar
  3
"AutoCAD"
 90
    32768
280
               0
281
               0
  0
CLASS
  1
RASTERVARIABLES
  2
AcDbRasterVariables
  3
ISM
 90
    32768
280
               0
281
               0
  0
CLASS
  1
IMAGEDEF
  2
AcDbRasterImageDef
  3
ISM
 90
    32768
280
               0
281
               0
  0
CLASS
  1
IMAGEDEF_REACTOR
  2
AcDbRasterImageDefReactor
  3
ISM
 90
    32769
280
               0
281
               0
  0
CLASS
  1
IDBUFFER
  2
AcDbIdBuffer
  3
"Acad"
 90
    32768
280
               0
281
               0
  0
CLASS
  1
SPATIAL_FILTER
  2
AcDbSpatialFilter
  3
"Acad"
 90
    32768
280
               0
281
               0
  0
CLASS
  1
XRECORD
  2
AcDbXrecord
  3
"<Built In>"
 90
    32768
280
               0
281
               0
  0
CLASS
  1
SORTENTSTABLE
  2
AcDbSortentsTable
  3
"AutoCAD"
 90
    32768
280
               0
281
               0
  0
CLASS
  1
LAYER_INDEX
  2
AcDbLayerIndex
  3
"Acad"
 90
    32768
280
               0
281
               0
  0
CLASS
  1
SPATIAL_INDEX
  2
AcDbSpatialIndex
  3
"Acad"
 90
    32768
280
               0
281
               0
  0
CLASS
  1
OBJECT_PTR
  2
CAseDLPNTableRecord
  3
"ASE-LPNTableRecord"
 90
    32769
280
               0
281
               0
  0
CLASS
  1
LAYOUT
  2
AcDbLayout
  3
"AutoCAD 2000"
 90
    32768
280
               0
281
               0
  0
CLASS
  1
PLOTSETTINGS
  2
AcDbPlotSettings
  3
"AutoCAD 2000"
 90
    32768
280
               0
281
               0
  0
CLASS
  1
ACDBDICTIONARYWDFLT
  2
AcDbDictionaryWithDefault
  3
"AutoCAD 2000"
 90
    32768
280
               0
281
               0
  0
CLASS
  1
ACDBPLACEHOLDER
  2
AcDbPlaceHolder
  3
"AutoCAD 2000"
 90
    32768
280
               0
281
               0
  0
ENDSEC
  0
SECTION
  2
TABLES
  0
TABLE
  2
VPORT
  5
7
100
AcDbSymbolTable
 70
               1
  0
VPORT
  5
15
100
AcDbSymbolTableRecord
100
AcDbViewportTableRecord
  2
*ACTIVE
 70
               0
 10
0.0
 20
0.0
 11
1.0
 21
1.0
 12
6.0000166066492966
 22
0.9999746149042039
 13
0.0
 23
0.0
 14
1.0
 24
1.0
 15
0.0
 25
0.0
 16
0.0
 26
0.0
 36
1.0
 17
0.0
 27
0.0
 37
0.0
 40
5500.0
 41
0.688564
 42
50.0
 43
0.0
 44
0.0
 50
0.0
 51
0.0
 71
               0
 72
            2000
 73
               1
 74
               1
 75
               0
 76
               0
 77
               0
 78
               0
  0
ENDTAB
  0
TABLE
  2
LTYPE
  5
4
100
AcDbSymbolTable
 70
              14
  0
LTYPE
  5
11
100
AcDbSymbolTableRecord
100
AcDbLinetypeTableRecord
  2
BYBLOCK
 70
              64
  3

 72
              65
 73
               0
 40
0.0
  0
LTYPE
  5
12
100
AcDbSymbolTableRecord
100
AcDbLinetypeTableRecord
  2
BYLAYER
 70
              64
  3

 72
              65
 73
               0
 40
0.0
  0
LTYPE
  5
13
100
AcDbSymbolTableRecord
100
AcDbLinetypeTableRecord
  2
CONTINUOUS
 70
              64
  3
Solid line
 72
              65
 73
               0
 40
0.0
  0
LTYPE
  5
1E
100
AcDbSymbolTableRecord
100
AcDbLinetypeTableRecord
  2
STYLE_01
 70
               0
  3

 72
              65
 73
               2
 40
0.4166412353515625
 49
0.208282470703125
 74
               0
 49
-0.2083587646484375
 74
               0
  0
LTYPE
  5
1F
100
AcDbSymbolTableRecord
100
AcDbLinetypeTableRecord
  2
STYLE_02
 70
               0
  3

 72
              65
 73
               2
 40
0.694427490234375
 49
0.4860687255859375
 74
               0
 49
-0.2083587646484375
 74
               0
  0
LTYPE
  5
20
100
AcDbSymbolTableRecord
100
AcDbLinetypeTableRecord
  2
STYLE_03
 70
               0
  3

 72
              65
 73
               2
 40
1.25
 49
1.0416412353515625
 74
               0
 49
-0.2083587646484375
 74
               0
  0
LTYPE
  5
21
100
AcDbSymbolTableRecord
100
AcDbLinetypeTableRecord
  2
STYLE_04
 70
               0
  3

 72
              65
 73
               2
 40
1.5277099609375
 49
1.319427490234375
 74
               0
 49
-0.208282470703125
 74
               0
  0
LTYPE
  5
22
100
AcDbSymbolTableRecord
100
AcDbLinetypeTableRecord
  2
STYLE_05
 70
               0
  3

 72
              65
 73
               2
 40
0.208282470703125
 49
0.069427490234375
 74
               0
 49
-0.13885498046875
 74
               0
  0
LTYPE
  5
23
100
AcDbSymbolTableRecord
100
AcDbLinetypeTableRecord
  2
STYLE_06
 70
               0
  3

 72
              65
 73
               4
 40
1.0416412353515625
 49
0.625
 74
               0
 49
-0.208282470703125
 74
               0
 49
0.069427490234375
 74
               0
 49
-0.1389312744140625
 74
               0
  0
LTYPE
  5
24
100
AcDbSymbolTableRecord
100
AcDbLinetypeTableRecord
  2
STYLE_07
 70
               0
  3

 72
              65
 73
               6
 40
1.875
 49
0.625
 74
               0
 49
-0.208282470703125
 74
               0
 49
0.625
 74
               0
 49
-0.2083587646484375
 74
               0
 49
0.069427490234375
 74
               0
 49
-0.1389312744140625
 74
               0
  0
LTYPE
  5
25
100
AcDbSymbolTableRecord
100
AcDbLinetypeTableRecord
  2
STYLE_08
 70
               0
  3

 72
              65
 73
               6
 40
1.25
 49
0.625
 74
               0
 49
-0.208282470703125
 74
               0
 49
0.069427490234375
 74
               0
 49
-0.1389312744140625
 74
               0
 49
0.069427490234375
 74
               0
 49
-0.1389312744140625
 74
               0
  0
LTYPE
  5
26
100
AcDbSymbolTableRecord
100
AcDbLinetypeTableRecord
  2
STYLE_09
 70
               0
  3

 72
              65
 73
               2
 40
0.1476287841796875
 49
0.098419189453125
 74
               0
 49
-0.0492095947265625
 74
               0
  0
LTYPE
  5
27
100
AcDbSymbolTableRecord
100
AcDbLinetypeTableRecord
  2
STYLE_10
 70
               0
  3

 72
              65
 73
               6
 40
5.9375
 49
3.75
 74
               0
 49
-0.2777862548828125
 74
               0
 49
0.694427490234375
 74
               0
 49
-0.2777862548828125
 74
               0
 49
0.625
 74
               0
 49
-0.3125
 74
               0
  0
LTYPE
  5
28
100
AcDbSymbolTableRecord
100
AcDbLinetypeTableRecord
  2
STYLE_11
 70
               0
  3

 72
              65
 73
               2
 40
0.208282470703125
 49
0.069427490234375
 74
               0
 49
-0.13885498046875
 74
               0
  0
ENDTAB
  0
TABLE
  2
LAYER
  5
2
100
AcDbSymbolTable
 70
               2
  0
LAYER
  5
14
100
AcDbSymbolTableRecord
100
AcDbLayerTableRecord
  2
0
 70
               0
 62
               7
  6
CONTINUOUS
  0
LAYER
  5
29
100
AcDbSymbolTableRecord
100
AcDbLayerTableRecord
  2
IMPORTED
 70
               0
 62
               7
  6
CONTINUOUS
  0
ENDTAB
  0
TABLE
  2
STYLE
  5
3
100
AcDbSymbolTable
 70
               2
  0
STYLE
  5
17
100
AcDbSymbolTableRecord
100
AcDbTextStyleTableRecord
  2
STANDARD
 70
               0
 40
0.0
 41
1.0
 50
0.0
 71
               0
 42
0.0
  3
txt
  4
BIGFONT.SHX
  0
STYLE
  5
1D
100
AcDbSymbolTableRecord
100
AcDbTextStyleTableRecord
  2
_______
 70
               0
 40
0.0
 41
1.0
 50
0.0
 71
               0
 42
0.0
  3

  4
ＭＳ ゴシック
1001
ACAD
1000
ＭＳ ゴシック
1071
        0
  0
ENDTAB
  0
TABLE
  2
VIEW
  5
5
100
AcDbSymbolTable
 70
               0
  0
ENDTAB
  0
TABLE
  2
UCS
  5
6
100
AcDbSymbolTable
 70
               0
  0
ENDTAB
  0
TABLE
  2
APPID
  5
8
100
AcDbSymbolTable
 70
               1
  0
APPID
  5
16
100
AcDbSymbolTableRecord
100
AcDbRegAppTableRecord
  2
ACAD
 70
               0
  0
ENDTAB
  0
TABLE
  2
DIMSTYLE
  5
9
100
AcDbSymbolTable
 70
               1
  0
DIMSTYLE
105
18
100
AcDbSymbolTableRecord
100
AcDbDimStyleTableRecord
  2
STANDARD
 70
               0
  3

  4

  5

  6

  7

 40
1.0
 41
0.18
 42
0.0625
 43
0.38
 44
0.18
 45
0.0
 46
0.0
 47
0.0
 48
0.0
 71
               0
 72
               0
 73
               1
 74
               1
 75
               0
 76
               0
 77
               0
 78
               0
140
0.18
141
0.09
142
0.0
143
25.399999999999999
144
1.0
145
0.0
146
1.0
147
0.09
170
               0
171
               2
172
               0
173
               0
174
               0
175
               0
176
               0
177
               0
178
               0
270
               2
271
               4
272
               4
273
               2
274
               2
275
               0
280
               0
281
               0
282
               0
283
               1
284
               0
285
               0
286
               0
287
               3
288
               0
340
17
  0
ENDTAB
  0
TABLE
  2
BLOCK_RECORD
  5
1
100
AcDbSymbolTable
 70
               0
  0
BLOCK_RECORD
  5
A
100
AcDbSymbolTableRecord
100
AcDbBlockTableRecord
  2
*MODEL_SPACE
  0
BLOCK_RECORD
  5
B
100
AcDbSymbolTableRecord
100
AcDbBlockTableRecord
  2
*PAPER_SPACE
  0
ENDTAB
  0
ENDSEC
  0
SECTION
  2
BLOCKS
  0
BLOCK
  5
D
100
AcDbEntity
  8
0
100
AcDbBlockBegin
  2
*MODEL_SPACE
 70
               0
 10
0.0
 20
0.0
 30
0.0
  3
*MODEL_SPACE
  1

  0
ENDBLK
  5
E
100
AcDbEntity
  8
0
100
AcDbBlockEnd
  0
BLOCK
  5
F
100
AcDbEntity
 67
               1
  8
0
100
AcDbBlockBegin
  2
*PAPER_SPACE
 70
               0
 10
0.0
 20
0.0
 30
0.0
  3
*PAPER_SPACE
  1

  0
ENDBLK
  5
10
100
AcDbEntity
 67
               1
  8
0
100
AcDbBlockEnd
  0
ENDSEC
  0
SECTION
  2
ENTITIES
  0
POLYLINE
  5
2A
100
AcDbEntity
  8
IMPORTED
  6
STYLE_11
 62
              30
100
AcDb2dPolyline
 66
               1
 10
0.0
 20
0.0
 30
0.0
 70
             129
  0
VERTEX
  5
2B
100
AcDbEntity
  8
IMPORTED
  6
STYLE_11
 62
              30
100
AcDbVertex
100
AcDb2dVertex
 10
-874.99998339335036
 20
-1162.666625385096
 30
0.0
  0
VERTEX
  5
2C
100
AcDbEntity
  8
IMPORTED
  6
STYLE_11
 62
              30
100
AcDbVertex
100
AcDb2dVertex
 10
-869.99998339335036
 20
-1167.666625385096
 30
0.0
  0
VERTEX
  5
2D
100
AcDbEntity
  8
IMPORTED
  6
STYLE_11
 62
              30
100
AcDbVertex
100
AcDb2dVertex
 10
-869.99998339335036
 20
-1277.6666253850965
 30
0.0
  0
VERTEX
  5
2E
100
AcDbEntity
  8
IMPORTED
  6
STYLE_11
 62
              30
100
AcDbVertex
100
AcDb2dVertex
 10
-874.99998339335036
 20
-1282.6666253850965
 30
0.0
  0
VERTEX
  5
2F
100
AcDbEntity
  8
IMPORTED
  6
STYLE_11
 62
              30
100
AcDbVertex
100
AcDb2dVertex
 10
-984.99998339335082
 20
-1282.6666253850965
 30
0.0
  0
VERTEX
  5
30
100
AcDbEntity
  8
IMPORTED
  6
STYLE_11
 62
              30
100
AcDbVertex
100
AcDb2dVertex
 10
-989.99998339335082
 20
-1277.6666253850965
 30
0.0
  0
VERTEX
  5
31
100
AcDbEntity
  8
IMPORTED
  6
STYLE_11
 62
              30
100
AcDbVertex
100
AcDb2dVertex
 10
-989.99998339335082
 20
-1167.666625385096
 30
0.0
  0
VERTEX
  5
32
100
AcDbEntity
  8
IMPORTED
  6
STYLE_11
 62
              30
100
AcDbVertex
100
AcDb2dVertex
 10
-984.99998339335082
 20
-1162.666625385096
 30
0.0
  0
SEQEND
  5
33
100
AcDbEntity
  8
IMPORTED
  6
STYLE_11
 62
              30
  0
POLYLINE
  5
34
100
AcDbEntity
  8
IMPORTED
  6
STYLE_11
 62
              30
100
AcDb2dPolyline
 66
               1
 10
0.0
 20
0.0
 30
0.0
 70
             129
  0
VERTEX
  5
35
100
AcDbEntity
  8
IMPORTED
  6
STYLE_11
 62
              30
100
AcDbVertex
100
AcDb2dVertex
 10
-875.99998339335036
 20
-1232.6666253850965
 30
0.0
  0
VERTEX
  5
36
100
AcDbEntity
  8
IMPORTED
  6
STYLE_11
 62
              30
100
AcDbVertex
100
AcDb2dVertex
 10
-879.49998339335036
 20
-1227.6666253850965
 30
0.0
  0
VERTEX
  5
37
100
AcDbEntity
  8
IMPORTED
  6
STYLE_11
 62
              30
100
AcDbVertex
100
AcDb2dVertex
 10
-879.49998339335036
 20
-1217.666625385096
 30
0.0
  0
VERTEX
  5
38
100
AcDbEntity
  8
IMPORTED
  6
STYLE_11
 62
              30
100
AcDbVertex
100
AcDb2dVertex
 10
-875.99998339335036
 20
-1212.666625385096
 30
0.0
  0
VERTEX
  5
39
100
AcDbEntity
  8
IMPORTED
  6
STYLE_11
 62
              30
100
AcDbVertex
100
AcDb2dVertex
 10
-875.99998339335036
 20
-1207.666625385096
 30
0.0
  0
VERTEX
  5
3A
100
AcDbEntity
  8
IMPORTED
  6
STYLE_11
 62
              30
100
AcDbVertex
100
AcDb2dVertex
 10
-875.99998339335036
 20
-1201.666625385096
 30
0.0
  0
VERTEX
  5
3B
100
AcDbEntity
  8
IMPORTED
  6
STYLE_11
 62
              30
100
AcDbVertex
100
AcDb2dVertex
 10
-875.99998339335036
 20
-1183.6666253850969
 30
0.0
  0
VERTEX
  5
3C
100
AcDbEntity
  8
IMPORTED
  6
STYLE_11
 62
              30
100
AcDbVertex
100
AcDb2dVertex
 10
-878.99998339335036
 20
-1178.666625385096
 30
0.0
  0
VERTEX
  5
3D
100
AcDbEntity
  8
IMPORTED
  6
STYLE_11
 62
              30
100
AcDbVertex
100
AcDb2dVertex
 10
-878.99998339335036
 20
-1174.666625385096
 30
0.0
  0
VERTEX
  5
3E
100
AcDbEntity
  8
IMPORTED
  6
STYLE_11
 62
              30
100
AcDbVertex
100
AcDb2dVertex
 10
-878.99998339335036
 20
-1174.666625385096
 30
0.0
 42
0.414213562373095
 70
               2
  0
VERTEX
  5
3F
100
AcDbEntity
  8
IMPORTED
  6
STYLE_11
 62
              30
100
AcDbVertex
100
AcDb2dVertex
 10
-881.99998339335036
 20
-1171.666625385096
 30
0.0
  0
VERTEX
  5
40
100
AcDbEntity
  8
IMPORTED
  6
STYLE_11
 62
              30
100
AcDbVertex
100
AcDb2dVertex
 10
-885.99998339335036
 20
-1171.666625385096
 30
0.0
  0
VERTEX
  5
41
100
AcDbEntity
  8
IMPORTED
  6
STYLE_11
 62
              30
100
AcDbVertex
100
AcDb2dVertex
 10
-890.99998339335036
 20
-1168.666625385096
 30
0.0
  0
VERTEX
  5
42
100
AcDbEntity
  8
IMPORTED
  6
STYLE_11
 62
              30
100
AcDbVertex
100
AcDb2dVertex
 10
-908.99998339335036
 20
-1168.666625385096
 30
0.0
  0
VERTEX
  5
43
100
AcDbEntity
  8
IMPORTED
  6
STYLE_11
 62
              30
100
AcDbVertex
100
AcDb2dVertex
 10
-914.99998339335036
 20
-1168.666625385096
 30
0.0
  0
VERTEX
  5
44
100
AcDbEntity
  8
IMPORTED
  6
STYLE_11
 62
              30
100
AcDbVertex
100
AcDb2dVertex
 10
-919.99998339335036
 20
-1168.666625385096
 30
0.0
  0
VERTEX
  5
45
100
AcDbEntity
  8
IMPORTED
  6
STYLE_11
 62
              30
100
AcDbVertex
100
AcDb2dVertex
 10
-924.99998339335036
 20
-1172.166625385096
 30
0.0
  0
VERTEX
  5
46
100
AcDbEntity
  8
IMPORTED
  6
STYLE_11
 62
              30
100
AcDbVertex
100
AcDb2dVertex
 10
-934.99998339335036
 20
-1172.166625385096
 30
0.0
  0
VERTEX
  5
47
100
AcDbEntity
  8
IMPORTED
  6
STYLE_11
 62
              30
100
AcDbVertex
100
AcDb2dVertex
 10
-939.99998339335082
 20
-1168.666625385096
 30
0.0
  0
VERTEX
  5
48
100
AcDbEntity
  8
IMPORTED
  6
STYLE_11
 62
              30
100
AcDbVertex
100
AcDb2dVertex
 10
-944.99998339335082
 20
-1168.666625385096
 30
0.0
  0
VERTEX
  5
49
100
AcDbEntity
  8
IMPORTED
  6
STYLE_11
 62
              30
100
AcDbVertex
100
AcDb2dVertex
 10
-950.99998339335082
 20
-1168.666625385096
 30
0.0
  0
VERTEX
  5
4A
100
AcDbEntity
  8
IMPORTED
  6
STYLE_11
 62
              30
100
AcDbVertex
100
AcDb2dVertex
 10
-968.99998339335082
 20
-1168.666625385096
 30
0.0
  0
VERTEX
  5
4B
100
AcDbEntity
  8
IMPORTED
  6
STYLE_11
 62
              30
100
AcDbVertex
100
AcDb2dVertex
 10
-973.99998339335082
 20
-1171.666625385096
 30
0.0
  0
VERTEX
  5
4C
100
AcDbEntity
  8
IMPORTED
  6
STYLE_11
 62
              30
100
AcDbVertex
100
AcDb2dVertex
 10
-977.99998339335082
 20
-1171.666625385096
 30
0.0
  0
VERTEX
  5
4D
100
AcDbEntity
  8
IMPORTED
  6
STYLE_11
 62
              30
100
AcDbVertex
100
AcDb2dVertex
 10
-977.99998339335082
 20
-1171.666625385096
 30
0.0
 42
0.414213562373095
 70
               2
 50
9.3574199307792870E+17
  0
VERTEX
  5
4E
100
AcDbEntity
  8
IMPORTED
  6
STYLE_11
 62
              30
100
AcDbVertex
100
AcDb2dVertex
 10
-980.99998339335082
 20
-1174.666625385096
 30
0.0
  0
VERTEX
  5
4F
100
AcDbEntity
  8
IMPORTED
  6
STYLE_11
 62
              30
100
AcDbVertex
100
AcDb2dVertex
 10
-980.99998339335082
 20
-1178.666625385096
 30
0.0
  0
VERTEX
  5
50
100
AcDbEntity
  8
IMPORTED
  6
STYLE_11
 62
              30
100
AcDbVertex
100
AcDb2dVertex
 10
-983.99998339335082
 20
-1183.6666253850969
 30
0.0
  0
VERTEX
  5
51
100
AcDbEntity
  8
IMPORTED
  6
STYLE_11
 62
              30
100
AcDbVertex
100
AcDb2dVertex
 10
-983.99998339335082
 20
-1201.666625385096
 30
0.0
  0
VERTEX
  5
52
100
AcDbEntity
  8
IMPORTED
  6
STYLE_11
 62
              30
100
AcDbVertex
100
AcDb2dVertex
 10
-983.99998339335082
 20
-1207.666625385096
 30
0.0
  0
VERTEX
  5
53
100
AcDbEntity
  8
IMPORTED
  6
STYLE_11
 62
              30
100
AcDbVertex
100
AcDb2dVertex
 10
-983.99998339335082
 20
-1212.666625385096
 30
0.0
  0
VERTEX
  5
54
100
AcDbEntity
  8
IMPORTED
  6
STYLE_11
 62
              30
100
AcDbVertex
100
AcDb2dVertex
 10
-980.49998339335082
 20
-1217.666625385096
 30
0.0
  0
VERTEX
  5
55
100
AcDbEntity
  8
IMPORTED
  6
STYLE_11
 62
              30
100
AcDbVertex
100
AcDb2dVertex
 10
-980.49998339335082
 20
-1227.6666253850965
 30
0.0
  0
VERTEX
  5
56
100
AcDbEntity
  8
IMPORTED
  6
STYLE_11
 62
              30
100
AcDbVertex
100
AcDb2dVertex
 10
-983.99998339335082
 20
-1232.6666253850965
 30
0.0
  0
VERTEX
  5
57
100
AcDbEntity
  8
IMPORTED
  6
STYLE_11
 62
              30
100
AcDbVertex
100
AcDb2dVertex
 10
-983.99998339335082
 20
-1237.6666253850965
 30
0.0
  0
VERTEX
  5
58
100
AcDbEntity
  8
IMPORTED
  6
STYLE_11
 62
              30
100
AcDbVertex
100
AcDb2dVertex
 10
-983.99998339335082
 20
-1243.6666253850965
 30
0.0
  0
VERTEX
  5
59
100
AcDbEntity
  8
IMPORTED
  6
STYLE_11
 62
              30
100
AcDbVertex
100
AcDb2dVertex
 10
-983.99998339335082
 20
-1261.666625385096
 30
0.0
  0
VERTEX
  5
5A
100
AcDbEntity
  8
IMPORTED
  6
STYLE_11
 62
              30
100
AcDbVertex
100
AcDb2dVertex
 10
-980.99998339335082
 20
-1266.6666253850965
 30
0.0
  0
VERTEX
  5
5B
100
AcDbEntity
  8
IMPORTED
  6
STYLE_11
 62
              30
100
AcDbVertex
100
AcDb2dVertex
 10
-980.99998339335082
 20
-1270.6666253850965
 30
0.0
  0
VERTEX
  5
5C
100
AcDbEntity
  8
IMPORTED
  6
STYLE_11
 62
              30
100
AcDbVertex
100
AcDb2dVertex
 10
-980.99998339335082
 20
-1270.6666253850965
 30
0.0
 42
0.414213562373095
 70
               2
  0
VERTEX
  5
5D
100
AcDbEntity
  8
IMPORTED
  6
STYLE_11
 62
              30
100
AcDbVertex
100
AcDb2dVertex
 10
-977.99998339335082
 20
-1273.6666253850965
 30
0.0
  0
VERTEX
  5
5E
100
AcDbEntity
  8
IMPORTED
  6
STYLE_11
 62
              30
100
AcDbVertex
100
AcDb2dVertex
 10
-973.99998339335082
 20
-1273.6666253850965
 30
0.0
  0
VERTEX
  5
5F
100
AcDbEntity
  8
IMPORTED
  6
STYLE_11
 62
              30
100
AcDbVertex
100
AcDb2dVertex
 10
-968.99998339335082
 20
-1276.6666253850965
 30
0.0
  0
VERTEX
  5
60
100
AcDbEntity
  8
IMPORTED
  6
STYLE_11
 62
              30
100
AcDbVertex
100
AcDb2dVertex
 10
-950.99998339335082
 20
-1276.6666253850965
 30
0.0
  0
VERTEX
  5
61
100
AcDbEntity
  8
IMPORTED
  6
STYLE_11
 62
              30
100
AcDbVertex
100
AcDb2dVertex
 10
-944.99998339335082
 20
-1276.6666253850965
 30
0.0
  0
VERTEX
  5
62
100
AcDbEntity
  8
IMPORTED
  6
STYLE_11
 62
              30
100
AcDbVertex
100
AcDb2dVertex
 10
-939.99998339335082
 20
-1276.6666253850965
 30
0.0
  0
VERTEX
  5
63
100
AcDbEntity
  8
IMPORTED
  6
STYLE_11
 62
              30
100
AcDbVertex
100
AcDb2dVertex
 10
-934.99998339335036
 20
-1273.1666253850965
 30
0.0
  0
VERTEX
  5
64
100
AcDbEntity
  8
IMPORTED
  6
STYLE_11
 62
              30
100
AcDbVertex
100
AcDb2dVertex
 10
-924.99998339335036
 20
-1273.1666253850965
 30
0.0
  0
VERTEX
  5
65
100
AcDbEntity
  8
IMPORTED
  6
STYLE_11
 62
              30
100
AcDbVertex
100
AcDb2dVertex
 10
-919.99998339335036
 20
-1276.6666253850965
 30
0.0
  0
VERTEX
  5
66
100
AcDbEntity
  8
IMPORTED
  6
STYLE_11
 62
              30
100
AcDbVertex
100
AcDb2dVertex
 10
-914.99998339335036
 20
-1276.6666253850965
 30
0.0
  0
VERTEX
  5
67
100
AcDbEntity
  8
IMPORTED
  6
STYLE_11
 62
              30
100
AcDbVertex
100
AcDb2dVertex
 10
-908.99998339335036
 20
-1276.6666253850965
 30
0.0
  0
VERTEX
  5
68
100
AcDbEntity
  8
IMPORTED
  6
STYLE_11
 62
              30
100
AcDbVertex
100
AcDb2dVertex
 10
-890.99998339335036
 20
-1276.6666253850965
 30
0.0
  0
VERTEX
  5
69
100
AcDbEntity
  8
IMPORTED
  6
STYLE_11
 62
              30
100
AcDbVertex
100
AcDb2dVertex
 10
-885.99998339335036
 20
-1273.6666253850965
 30
0.0
  0
VERTEX
  5
6A
100
AcDbEntity
  8
IMPORTED
  6
STYLE_11
 62
              30
100
AcDbVertex
100
AcDb2dVertex
 10
-881.99998339335036
 20
-1273.6666253850965
 30
0.0
  0
VERTEX
  5
6B
100
AcDbEntity
  8
IMPORTED
  6
STYLE_11
 62
              30
100
AcDbVertex
100
AcDb2dVertex
 10
-881.99998339335036
 20
-1273.6666253850965
 30
0.0
 42
0.414213562373095
 70
               2
 50
3.1191399769264294E+17
  0
VERTEX
  5
6C
100
AcDbEntity
  8
IMPORTED
  6
STYLE_11
 62
              30
100
AcDbVertex
100
AcDb2dVertex
 10
-878.99998339335036
 20
-1270.6666253850965
 30
0.0
  0
VERTEX
  5
6D
100
AcDbEntity
  8
IMPORTED
  6
STYLE_11
 62
              30
100
AcDbVertex
100
AcDb2dVertex
 10
-878.99998339335036
 20
-1266.6666253850965
 30
0.0
  0
VERTEX
  5
6E
100
AcDbEntity
  8
IMPORTED
  6
STYLE_11
 62
              30
100
AcDbVertex
100
AcDb2dVertex
 10
-875.99998339335036
 20
-1261.666625385096
 30
0.0
  0
VERTEX
  5
6F
100
AcDbEntity
  8
IMPORTED
  6
STYLE_11
 62
              30
100
AcDbVertex
100
AcDb2dVertex
 10
-875.99998339335036
 20
-1243.6666253850965
 30
0.0
  0
VERTEX
  5
70
100
AcDbEntity
  8
IMPORTED
  6
STYLE_11
 62
              30
100
AcDbVertex
100
AcDb2dVertex
 10
-875.99998339335036
 20
-1237.6666253850965
 30
0.0
  0
SEQEND
  5
71
100
AcDbEntity
  8
IMPORTED
  6
STYLE_11
 62
              30
  0
POLYLINE
  5
72
100
AcDbEntity
  8
IMPORTED
  6
STYLE_11
 62
              30
100
AcDb2dPolyline
 66
               1
 10
0.0
 20
0.0
 30
0.0
 70
             129
  0
VERTEX
  5
73
100
AcDbEntity
  8
IMPORTED
  6
STYLE_11
 62
              30
100
AcDbVertex
100
AcDb2dVertex
 10
-929.99998339335036
 20
-1172.666625385096
 30
0.0
  0
VERTEX
  5
74
100
AcDbEntity
  8
IMPORTED
  6
STYLE_11
 62
              30
100
AcDbVertex
100
AcDb2dVertex
 10
-975.39998339335045
 20
-1172.666625385096
 30
0.0
  0
VERTEX
  5
75
100
AcDbEntity
  8
IMPORTED
  6
STYLE_11
 62
              30
100
AcDbVertex
100
AcDb2dVertex
 10
-975.39998339335079
 20
-1172.666625385096
 30
0.0
 42
0.414213562373095
 70
               2
 50
9.3574199307792870E+17
  0
VERTEX
  5
76
100
AcDbEntity
  8
IMPORTED
  6
STYLE_11
 62
              30
100
AcDbVertex
100
AcDb2dVertex
 10
-979.99998339335082
 20
-1177.2666253850964
 30
0.0
  0
VERTEX
  5
77
100
AcDbEntity
  8
IMPORTED
  6
STYLE_11
 62
              30
100
AcDbVertex
100
AcDb2dVertex
 10
-979.99998339335082
 20
-1222.6666253850965
 30
0.0
  0
VERTEX
  5
78
100
AcDbEntity
  8
IMPORTED
  6
STYLE_11
 62
              30
100
AcDbVertex
100
AcDb2dVertex
 10
-979.99998339335082
 20
-1268.0666253850966
 30
0.0
  0
VERTEX
  5
79
100
AcDbEntity
  8
IMPORTED
  6
STYLE_11
 62
              30
100
AcDbVertex
100
AcDb2dVertex
 10
-979.99998339335082
 20
-1268.0666253850966
 30
0.0
 42
0.414213562373124
 70
               2
  0
VERTEX
  5
7A
100
AcDbEntity
  8
IMPORTED
  6
STYLE_11
 62
              30
100
AcDbVertex
100
AcDb2dVertex
 10
-975.39998339335045
 20
-1272.6666253850965
 30
0.0
  0
VERTEX
  5
7B
100
AcDbEntity
  8
IMPORTED
  6
STYLE_11
 62
              30
100
AcDbVertex
100
AcDb2dVertex
 10
-929.99998339335036
 20
-1272.6666253850965
 30
0.0
  0
VERTEX
  5
7C
100
AcDbEntity
  8
IMPORTED
  6
STYLE_11
 62
              30
100
AcDbVertex
100
AcDb2dVertex
 10
-884.59998339335073
 20
-1272.6666253850965
 30
0.0
  0
VERTEX
  5
7D
100
AcDbEntity
  8
IMPORTED
  6
STYLE_11
 62
              30
100
AcDbVertex
100
AcDb2dVertex
 10
-884.59998339335073
 20
-1272.6666253850965
 30
0.0
 42
0.4142135623730661
 70
               2
 50
3.1191399769264294E+17
  0
VERTEX
  5
7E
100
AcDbEntity
  8
IMPORTED
  6
STYLE_11
 62
              30
100
AcDbVertex
100
AcDb2dVertex
 10
-879.99998339335036
 20
-1268.0666253850966
 30
0.0
  0
VERTEX
  5
7F
100
AcDbEntity
  8
IMPORTED
  6
STYLE_11
 62
              30
100
AcDbVertex
100
AcDb2dVertex
 10
-879.99998339335036
 20
-1222.6666253850965
 30
0.0
  0
VERTEX
  5
80
100
AcDbEntity
  8
IMPORTED
  6
STYLE_11
 62
              30
100
AcDbVertex
100
AcDb2dVertex
 10
-879.99998339335036
 20
-1177.2666253850964
 30
0.0
  0
VERTEX
  5
81
100
AcDbEntity
  8
IMPORTED
  6
STYLE_11
 62
              30
100
AcDbVertex
100
AcDb2dVertex
 10
-879.99998339335036
 20
-1177.2666253850959
 30
0.0
 42
0.414213562373095
 70
               2
  0
VERTEX
  5
82
100
AcDbEntity
  8
IMPORTED
  6
STYLE_11
 62
              30
100
AcDbVertex
100
AcDb2dVertex
 10
-884.59998339335073
 20
-1172.666625385096
 30
0.0
  0
SEQEND
  5
83
100
AcDbEntity
  8
IMPORTED
  6
STYLE_11
 62
              30
  0
POLYLINE
  5
84
100
AcDbEntity
  8
IMPORTED
  6
STYLE_11
 62
              30
100
AcDb2dPolyline
 66
               1
 10
0.0
 20
0.0
 30
0.0
 70
             129
  0
VERTEX
  5
85
100
AcDbEntity
  8
IMPORTED
  6
STYLE_11
 62
              30
100
AcDbVertex
100
AcDb2dVertex
 10
-884.59998339335073
 20
-1174.9666253850962
 30
0.0
  0
VERTEX
  5
86
100
AcDbEntity
  8
IMPORTED
  6
STYLE_11
 62
              30
100
AcDbVertex
100
AcDb2dVertex
 10
-884.5999833933505
 20
-1174.9666253850962
 30
0.0
 42
-0.4142135623730806
 70
               2
 50
1144904797513215.0
  0
VERTEX
  5
87
100
AcDbEntity
  8
IMPORTED
  6
STYLE_11
 62
              30
100
AcDbVertex
100
AcDb2dVertex
 10
-882.29998339335054
 20
-1177.2666253850964
 30
0.0
  0
VERTEX
  5
88
100
AcDbEntity
  8
IMPORTED
  6
STYLE_11
 62
              30
100
AcDbVertex
100
AcDb2dVertex
 10
-882.29998339335054
 20
-1222.6666253850965
 30
0.0
  0
VERTEX
  5
89
100
AcDbEntity
  8
IMPORTED
  6
STYLE_11
 62
              30
100
AcDbVertex
100
AcDb2dVertex
 10
-882.29998339335054
 20
-1268.0666253850966
 30
0.0
  0
VERTEX
  5
8A
100
AcDbEntity
  8
IMPORTED
  6
STYLE_11
 62
              30
100
AcDbVertex
100
AcDb2dVertex
 10
-882.29998339335054
 20
-1268.0666253850966
 30
0.0
 42
-0.4142135623730371
 70
               2
  0
VERTEX
  5
8B
100
AcDbEntity
  8
IMPORTED
  6
STYLE_11
 62
              30
100
AcDbVertex
100
AcDb2dVertex
 10
-884.59998339335073
 20
-1270.3666253850963
 30
0.0
  0
VERTEX
  5
8C
100
AcDbEntity
  8
IMPORTED
  6
STYLE_11
 62
              30
100
AcDbVertex
100
AcDb2dVertex
 10
-929.99998339335036
 20
-1270.3666253850963
 30
0.0
  0
VERTEX
  5
8D
100
AcDbEntity
  8
IMPORTED
  6
STYLE_11
 62
              30
100
AcDbVertex
100
AcDb2dVertex
 10
-975.39998339335045
 20
-1270.3666253850963
 30
0.0
  0
VERTEX
  5
8E
100
AcDbEntity
  8
IMPORTED
  6
STYLE_11
 62
              30
100
AcDbVertex
100
AcDb2dVertex
 10
-975.39998339335045
 20
-1270.3666253850963
 30
0.0
 42
-0.414213562373153
 70
               2
 50
-289547966096377.0
  0
VERTEX
  5
8F
100
AcDbEntity
  8
IMPORTED
  6
STYLE_11
 62
              30
100
AcDbVertex
100
AcDb2dVertex
 10
-977.69998339335064
 20
-1268.0666253850966
 30
0.0
  0
VERTEX
  5
90
100
AcDbEntity
  8
IMPORTED
  6
STYLE_11
 62
              30
100
AcDbVertex
100
AcDb2dVertex
 10
-977.69998339335064
 20
-1222.6666253850965
 30
0.0
  0
VERTEX
  5
91
100
AcDbEntity
  8
IMPORTED
  6
STYLE_11
 62
              30
100
AcDbVertex
100
AcDb2dVertex
 10
-977.69998339335064
 20
-1177.2666253850964
 30
0.0
  0
VERTEX
  5
92
100
AcDbEntity
  8
IMPORTED
  6
STYLE_11
 62
              30
100
AcDbVertex
100
AcDb2dVertex
 10
-977.69998339335064
 20
-1177.2666253850962
 30
0.0
 42
-0.414213562373095
 70
               2
  0
VERTEX
  5
93
100
AcDbEntity
  8
IMPORTED
  6
STYLE_11
 62
              30
100
AcDbVertex
100
AcDb2dVertex
 10
-975.39998339335045
 20
-1174.9666253850962
 30
0.0
  0
VERTEX
  5
94
100
AcDbEntity
  8
IMPORTED
  6
STYLE_11
 62
              30
100
AcDbVertex
100
AcDb2dVertex
 10
-929.99998339335036
 20
-1174.9666253850962
 30
0.0
  0
SEQEND
  5
95
100
AcDbEntity
  8
IMPORTED
  6
STYLE_11
 62
              30
  0
POLYLINE
  5
96
100
AcDbEntity
  8
IMPORTED
  6
CONTINUOUS
 62
              30
100
AcDb2dPolyline
 66
               1
 10
0.0
 20
0.0
 30
0.0
 70
             129
  0
VERTEX
  5
97
100
AcDbEntity
  8
IMPORTED
  6
CONTINUOUS
 62
              30
100
AcDbVertex
100
AcDb2dVertex
 10
-874.99998339335036
 20
-1162.666625385096
 30
0.0
  0
VERTEX
  5
98
100
AcDbEntity
  8
IMPORTED
  6
CONTINUOUS
 62
              30
100
AcDbVertex
100
AcDb2dVertex
 10
-869.99998339335036
 20
-1167.666625385096
 30
0.0
  0
VERTEX
  5
99
100
AcDbEntity
  8
IMPORTED
  6
CONTINUOUS
 62
              30
100
AcDbVertex
100
AcDb2dVertex
 10
-869.99998339335036
 20
-1277.6666253850965
 30
0.0
  0
VERTEX
  5
9A
100
AcDbEntity
  8
IMPORTED
  6
CONTINUOUS
 62
              30
100
AcDbVertex
100
AcDb2dVertex
 10
-874.99998339335036
 20
-1282.6666253850965
 30
0.0
  0
VERTEX
  5
9B
100
AcDbEntity
  8
IMPORTED
  6
CONTINUOUS
 62
              30
100
AcDbVertex
100
AcDb2dVertex
 10
-984.99998339335082
 20
-1282.6666253850965
 30
0.0
  0
VERTEX
  5
9C
100
AcDbEntity
  8
IMPORTED
  6
CONTINUOUS
 62
              30
100
AcDbVertex
100
AcDb2dVertex
 10
-989.99998339335082
 20
-1277.6666253850965
 30
0.0
  0
VERTEX
  5
9D
100
AcDbEntity
  8
IMPORTED
  6
CONTINUOUS
 62
              30
100
AcDbVertex
100
AcDb2dVertex
 10
-989.99998339335082
 20
-1167.666625385096
 30
0.0
  0
VERTEX
  5
9E
100
AcDbEntity
  8
IMPORTED
  6
CONTINUOUS
 62
              30
100
AcDbVertex
100
AcDb2dVertex
 10
-984.99998339335082
 20
-1162.666625385096
 30
0.0
  0
SEQEND
  5
9F
100
AcDbEntity
  8
IMPORTED
  6
CONTINUOUS
 62
              30
  0
POLYLINE
  5
A0
100
AcDbEntity
  8
IMPORTED
  6
CONTINUOUS
 62
              30
100
AcDb2dPolyline
 66
               1
 10
0.0
 20
0.0
 30
0.0
 70
             129
  0
VERTEX
  5
A1
100
AcDbEntity
  8
IMPORTED
  6
CONTINUOUS
 62
              30
100
AcDbVertex
100
AcDb2dVertex
 10
-875.99998339335036
 20
-1232.6666253850965
 30
0.0
  0
VERTEX
  5
A2
100
AcDbEntity
  8
IMPORTED
  6
CONTINUOUS
 62
              30
100
AcDbVertex
100
AcDb2dVertex
 10
-879.49998339335036
 20
-1227.6666253850965
 30
0.0
  0
VERTEX
  5
A3
100
AcDbEntity
  8
IMPORTED
  6
CONTINUOUS
 62
              30
100
AcDbVertex
100
AcDb2dVertex
 10
-879.49998339335036
 20
-1217.666625385096
 30
0.0
  0
VERTEX
  5
A4
100
AcDbEntity
  8
IMPORTED
  6
CONTINUOUS
 62
              30
100
AcDbVertex
100
AcDb2dVertex
 10
-875.99998339335036
 20
-1212.666625385096
 30
0.0
  0
VERTEX
  5
A5
100
AcDbEntity
  8
IMPORTED
  6
CONTINUOUS
 62
              30
100
AcDbVertex
100
AcDb2dVertex
 10
-875.99998339335036
 20
-1207.666625385096
 30
0.0
  0
VERTEX
  5
A6
100
AcDbEntity
  8
IMPORTED
  6
CONTINUOUS
 62
              30
100
AcDbVertex
100
AcDb2dVertex
 10
-875.99998339335036
 20
-1201.666625385096
 30
0.0
  0
VERTEX
  5
A7
100
AcDbEntity
  8
IMPORTED
  6
CONTINUOUS
 62
              30
100
AcDbVertex
100
AcDb2dVertex
 10
-875.99998339335036
 20
-1183.6666253850969
 30
0.0
  0
VERTEX
  5
A8
100
AcDbEntity
  8
IMPORTED
  6
CONTINUOUS
 62
              30
100
AcDbVertex
100
AcDb2dVertex
 10
-878.99998339335036
 20
-1178.666625385096
 30
0.0
  0
VERTEX
  5
A9
100
AcDbEntity
  8
IMPORTED
  6
CONTINUOUS
 62
              30
100
AcDbVertex
100
AcDb2dVertex
 10
-878.99998339335036
 20
-1174.666625385096
 30
0.0
  0
VERTEX
  5
AA
100
AcDbEntity
  8
IMPORTED
  6
CONTINUOUS
 62
              30
100
AcDbVertex
100
AcDb2dVertex
 10
-878.99998339335036
 20
-1174.666625385096
 30
0.0
 42
0.414213562373095
 70
               2
  0
VERTEX
  5
AB
100
AcDbEntity
  8
IMPORTED
  6
CONTINUOUS
 62
              30
100
AcDbVertex
100
AcDb2dVertex
 10
-881.99998339335036
 20
-1171.666625385096
 30
0.0
  0
VERTEX
  5
AC
100
AcDbEntity
  8
IMPORTED
  6
CONTINUOUS
 62
              30
100
AcDbVertex
100
AcDb2dVertex
 10
-885.99998339335036
 20
-1171.666625385096
 30
0.0
  0
VERTEX
  5
AD
100
AcDbEntity
  8
IMPORTED
  6
CONTINUOUS
 62
              30
100
AcDbVertex
100
AcDb2dVertex
 10
-890.99998339335036
 20
-1168.666625385096
 30
0.0
  0
VERTEX
  5
AE
100
AcDbEntity
  8
IMPORTED
  6
CONTINUOUS
 62
              30
100
AcDbVertex
100
AcDb2dVertex
 10
-908.99998339335036
 20
-1168.666625385096
 30
0.0
  0
VERTEX
  5
AF
100
AcDbEntity
  8
IMPORTED
  6
CONTINUOUS
 62
              30
100
AcDbVertex
100
AcDb2dVertex
 10
-914.99998339335036
 20
-1168.666625385096
 30
0.0
  0
VERTEX
  5
B0
100
AcDbEntity
  8
IMPORTED
  6
CONTINUOUS
 62
              30
100
AcDbVertex
100
AcDb2dVertex
 10
-919.99998339335036
 20
-1168.666625385096
 30
0.0
  0
VERTEX
  5
B1
100
AcDbEntity
  8
IMPORTED
  6
CONTINUOUS
 62
              30
100
AcDbVertex
100
AcDb2dVertex
 10
-924.99998339335036
 20
-1172.166625385096
 30
0.0
  0
VERTEX
  5
B2
100
AcDbEntity
  8
IMPORTED
  6
CONTINUOUS
 62
              30
100
AcDbVertex
100
AcDb2dVertex
 10
-934.99998339335036
 20
-1172.166625385096
 30
0.0
  0
VERTEX
  5
B3
100
AcDbEntity
  8
IMPORTED
  6
CONTINUOUS
 62
              30
100
AcDbVertex
100
AcDb2dVertex
 10
-939.99998339335082
 20
-1168.666625385096
 30
0.0
  0
VERTEX
  5
B4
100
AcDbEntity
  8
IMPORTED
  6
CONTINUOUS
 62
              30
100
AcDbVertex
100
AcDb2dVertex
 10
-944.99998339335082
 20
-1168.666625385096
 30
0.0
  0
VERTEX
  5
B5
100
AcDbEntity
  8
IMPORTED
  6
CONTINUOUS
 62
              30
100
AcDbVertex
100
AcDb2dVertex
 10
-950.99998339335082
 20
-1168.666625385096
 30
0.0
  0
VERTEX
  5
B6
100
AcDbEntity
  8
IMPORTED
  6
CONTINUOUS
 62
              30
100
AcDbVertex
100
AcDb2dVertex
 10
-968.99998339335082
 20
-1168.666625385096
 30
0.0
  0
VERTEX
  5
B7
100
AcDbEntity
  8
IMPORTED
  6
CONTINUOUS
 62
              30
100
AcDbVertex
100
AcDb2dVertex
 10
-973.99998339335082
 20
-1171.666625385096
 30
0.0
  0
VERTEX
  5
B8
100
AcDbEntity
  8
IMPORTED
  6
CONTINUOUS
 62
              30
100
AcDbVertex
100
AcDb2dVertex
 10
-977.99998339335082
 20
-1171.666625385096
 30
0.0
  0
VERTEX
  5
B9
100
AcDbEntity
  8
IMPORTED
  6
CONTINUOUS
 62
              30
100
AcDbVertex
100
AcDb2dVertex
 10
-977.99998339335082
 20
-1171.666625385096
 30
0.0
 42
0.414213562373095
 70
               2
 50
9.3574199307792870E+17
  0
VERTEX
  5
BA
100
AcDbEntity
  8
IMPORTED
  6
CONTINUOUS
 62
              30
100
AcDbVertex
100
AcDb2dVertex
 10
-980.99998339335082
 20
-1174.666625385096
 30
0.0
  0
VERTEX
  5
BB
100
AcDbEntity
  8
IMPORTED
  6
CONTINUOUS
 62
              30
100
AcDbVertex
100
AcDb2dVertex
 10
-980.99998339335082
 20
-1178.666625385096
 30
0.0
  0
VERTEX
  5
BC
100
AcDbEntity
  8
IMPORTED
  6
CONTINUOUS
 62
              30
100
AcDbVertex
100
AcDb2dVertex
 10
-983.99998339335082
 20
-1183.6666253850969
 30
0.0
  0
VERTEX
  5
BD
100
AcDbEntity
  8
IMPORTED
  6
CONTINUOUS
 62
              30
100
AcDbVertex
100
AcDb2dVertex
 10
-983.99998339335082
 20
-1201.666625385096
 30
0.0
  0
VERTEX
  5
BE
100
AcDbEntity
  8
IMPORTED
  6
CONTINUOUS
 62
              30
100
AcDbVertex
100
AcDb2dVertex
 10
-983.99998339335082
 20
-1207.666625385096
 30
0.0
  0
VERTEX
  5
BF
100
AcDbEntity
  8
IMPORTED
  6
CONTINUOUS
 62
              30
100
AcDbVertex
100
AcDb2dVertex
 10
-983.99998339335082
 20
-1212.666625385096
 30
0.0
  0
VERTEX
  5
C0
100
AcDbEntity
  8
IMPORTED
  6
CONTINUOUS
 62
              30
100
AcDbVertex
100
AcDb2dVertex
 10
-980.49998339335082
 20
-1217.666625385096
 30
0.0
  0
VERTEX
  5
C1
100
AcDbEntity
  8
IMPORTED
  6
CONTINUOUS
 62
              30
100
AcDbVertex
100
AcDb2dVertex
 10
-980.49998339335082
 20
-1227.6666253850965
 30
0.0
  0
VERTEX
  5
C2
100
AcDbEntity
  8
IMPORTED
  6
CONTINUOUS
 62
              30
100
AcDbVertex
100
AcDb2dVertex
 10
-983.99998339335082
 20
-1232.6666253850965
 30
0.0
  0
VERTEX
  5
C3
100
AcDbEntity
  8
IMPORTED
  6
CONTINUOUS
 62
              30
100
AcDbVertex
100
AcDb2dVertex
 10
-983.99998339335082
 20
-1237.6666253850965
 30
0.0
  0
VERTEX
  5
C4
100
AcDbEntity
  8
IMPORTED
  6
CONTINUOUS
 62
              30
100
AcDbVertex
100
AcDb2dVertex
 10
-983.99998339335082
 20
-1243.6666253850965
 30
0.0
  0
VERTEX
  5
C5
100
AcDbEntity
  8
IMPORTED
  6
CONTINUOUS
 62
              30
100
AcDbVertex
100
AcDb2dVertex
 10
-983.99998339335082
 20
-1261.666625385096
 30
0.0
  0
VERTEX
  5
C6
100
AcDbEntity
  8
IMPORTED
  6
CONTINUOUS
 62
              30
100
AcDbVertex
100
AcDb2dVertex
 10
-980.99998339335082
 20
-1266.6666253850965
 30
0.0
  0
VERTEX
  5
C7
100
AcDbEntity
  8
IMPORTED
  6
CONTINUOUS
 62
              30
100
AcDbVertex
100
AcDb2dVertex
 10
-980.99998339335082
 20
-1270.6666253850965
 30
0.0
  0
VERTEX
  5
C8
100
AcDbEntity
  8
IMPORTED
  6
CONTINUOUS
 62
              30
100
AcDbVertex
100
AcDb2dVertex
 10
-980.99998339335082
 20
-1270.6666253850965
 30
0.0
 42
0.414213562373095
 70
               2
  0
VERTEX
  5
C9
100
AcDbEntity
  8
IMPORTED
  6
CONTINUOUS
 62
              30
100
AcDbVertex
100
AcDb2dVertex
 10
-977.99998339335082
 20
-1273.6666253850965
 30
0.0
  0
VERTEX
  5
CA
100
AcDbEntity
  8
IMPORTED
  6
CONTINUOUS
 62
              30
100
AcDbVertex
100
AcDb2dVertex
 10
-973.99998339335082
 20
-1273.6666253850965
 30
0.0
  0
VERTEX
  5
CB
100
AcDbEntity
  8
IMPORTED
  6
CONTINUOUS
 62
              30
100
AcDbVertex
100
AcDb2dVertex
 10
-968.99998339335082
 20
-1276.6666253850965
 30
0.0
  0
VERTEX
  5
CC
100
AcDbEntity
  8
IMPORTED
  6
CONTINUOUS
 62
              30
100
AcDbVertex
100
AcDb2dVertex
 10
-950.99998339335082
 20
-1276.6666253850965
 30
0.0
  0
VERTEX
  5
CD
100
AcDbEntity
  8
IMPORTED
  6
CONTINUOUS
 62
              30
100
AcDbVertex
100
AcDb2dVertex
 10
-944.99998339335082
 20
-1276.6666253850965
 30
0.0
  0
VERTEX
  5
CE
100
AcDbEntity
  8
IMPORTED
  6
CONTINUOUS
 62
              30
100
AcDbVertex
100
AcDb2dVertex
 10
-939.99998339335082
 20
-1276.6666253850965
 30
0.0
  0
VERTEX
  5
CF
100
AcDbEntity
  8
IMPORTED
  6
CONTINUOUS
 62
              30
100
AcDbVertex
100
AcDb2dVertex
 10
-934.99998339335036
 20
-1273.1666253850965
 30
0.0
  0
VERTEX
  5
D0
100
AcDbEntity
  8
IMPORTED
  6
CONTINUOUS
 62
              30
100
AcDbVertex
100
AcDb2dVertex
 10
-924.99998339335036
 20
-1273.1666253850965
 30
0.0
  0
VERTEX
  5
D1
100
AcDbEntity
  8
IMPORTED
  6
CONTINUOUS
 62
              30
100
AcDbVertex
100
AcDb2dVertex
 10
-919.99998339335036
 20
-1276.6666253850965
 30
0.0
  0
VERTEX
  5
D2
100
AcDbEntity
  8
IMPORTED
  6
CONTINUOUS
 62
              30
100
AcDbVertex
100
AcDb2dVertex
 10
-914.99998339335036
 20
-1276.6666253850965
 30
0.0
  0
VERTEX
  5
D3
100
AcDbEntity
  8
IMPORTED
  6
CONTINUOUS
 62
              30
100
AcDbVertex
100
AcDb2dVertex
 10
-908.99998339335036
 20
-1276.6666253850965
 30
0.0
  0
VERTEX
  5
D4
100
AcDbEntity
  8
IMPORTED
  6
CONTINUOUS
 62
              30
100
AcDbVertex
100
AcDb2dVertex
 10
-890.99998339335036
 20
-1276.6666253850965
 30
0.0
  0
VERTEX
  5
D5
100
AcDbEntity
  8
IMPORTED
  6
CONTINUOUS
 62
              30
100
AcDbVertex
100
AcDb2dVertex
 10
-885.99998339335036
 20
-1273.6666253850965
 30
0.0
  0
VERTEX
  5
D6
100
AcDbEntity
  8
IMPORTED
  6
CONTINUOUS
 62
              30
100
AcDbVertex
100
AcDb2dVertex
 10
-881.99998339335036
 20
-1273.6666253850965
 30
0.0
  0
VERTEX
  5
D7
100
AcDbEntity
  8
IMPORTED
  6
CONTINUOUS
 62
              30
100
AcDbVertex
100
AcDb2dVertex
 10
-881.99998339335036
 20
-1273.6666253850965
 30
0.0
 42
0.414213562373095
 70
               2
 50
3.1191399769264294E+17
  0
VERTEX
  5
D8
100
AcDbEntity
  8
IMPORTED
  6
CONTINUOUS
 62
              30
100
AcDbVertex
100
AcDb2dVertex
 10
-878.99998339335036
 20
-1270.6666253850965
 30
0.0
  0
VERTEX
  5
D9
100
AcDbEntity
  8
IMPORTED
  6
CONTINUOUS
 62
              30
100
AcDbVertex
100
AcDb2dVertex
 10
-878.99998339335036
 20
-1266.6666253850965
 30
0.0
  0
VERTEX
  5
DA
100
AcDbEntity
  8
IMPORTED
  6
CONTINUOUS
 62
              30
100
AcDbVertex
100
AcDb2dVertex
 10
-875.99998339335036
 20
-1261.666625385096
 30
0.0
  0
VERTEX
  5
DB
100
AcDbEntity
  8
IMPORTED
  6
CONTINUOUS
 62
              30
100
AcDbVertex
100
AcDb2dVertex
 10
-875.99998339335036
 20
-1243.6666253850965
 30
0.0
  0
VERTEX
  5
DC
100
AcDbEntity
  8
IMPORTED
  6
CONTINUOUS
 62
              30
100
AcDbVertex
100
AcDb2dVertex
 10
-875.99998339335036
 20
-1237.6666253850965
 30
0.0
  0
SEQEND
  5
DD
100
AcDbEntity
  8
IMPORTED
  6
CONTINUOUS
 62
              30
  0
MTEXT
  5
DE
100
AcDbEntity
  8
IMPORTED
 62
               1
100
AcDbMText
 10
-1699.4998833933507
 20
-23.37256611947106
 30
0.0
 40
32.576797265624997
 41
0.0
 71
               1
 72
               1
  1
均しコンクリート
  7
_______
  0
MTEXT
  5
DF
100
AcDbEntity
  8
IMPORTED
 62
               1
100
AcDbMText
 10
-1724.4998833933507
 20
-109.51036611947104
 30
0.0
 40
32.576797265624997
 41
0.0
 71
               1
 72
               1
  1
再生クラッシャラン
  7
_______
  0
MTEXT
  5
E0
100
AcDbEntity
  8
IMPORTED
 62
               1
100
AcDbMText
 10
1509.6972207458557
 20
1619.1220267362814
 30
0.0
 40
32.576822916666664
 41
0.0
 71
               1
 72
               1
  1
柱 ESW120×120C2H塗装
  7
_______
  0
LINE
  5
E1
100
AcDbEntity
  8
IMPORTED
  6
CONTINUOUS
 62
               1
100
AcDbLine
 10
1339.9999166066489
 20
1437.9999746149037
 30
0.0
 11
1494.9999166066489
 21
1569.9999746149037
 31
0.0
  0
LINE
  5
E2
100
AcDbEntity
  8
IMPORTED
  6
CONTINUOUS
 62
               1
100
AcDbLine
 10
1494.9999166066489
 20
1569.9999746149037
 30
0.0
 11
1975.0
 21
1569.9999746149037
 31
0.0
  0
MTEXT
  5
E3
100
AcDbEntity
  8
IMPORTED
 62
               1
100
AcDbMText
 10
-568.16521260436969
 20
836.17013388052885
 30
0.0
 40
32.576797265624997
 41
0.0
 71
               1
 72
               1
  1
板600×600（別途）
  7
_______
  0
LINE
  5
E4
100
AcDbEntity
  8
IMPORTED
  6
CONTINUOUS
 62
               1
100
AcDbLine
 10
-639.99998339335093
 20
999.99997461490386
 30
0.0
 11
-578.16521260436957
 21
786.86557461490384
 31
0.0
  0
LINE
  5
E5
100
AcDbEntity
  8
IMPORTED
  6
CONTINUOUS
 62
               1
100
AcDbLine
 10
-578.16521260436957
 20
786.86557461490384
 30
0.0
 11
-187.12812921101875
 21
786.86557461490384
 31
0.0
  0
MTEXT
  5
E6
100
AcDbEntity
  8
IMPORTED
 62
               1
100
AcDbMText
 10
1563.3474166066489
 20
704.07612009732134
 30
0.0
 40
32.576822916666664
 41
0.0
 71
               1
 72
               1
  1
横木 ESW145×25M塗装
  7
_______
  0
LINE
  5
E7
100
AcDbEntity
  8
IMPORTED
  6
CONTINUOUS
 62
               1
100
AcDbLine
 10
2005.0
 20
651.90596384732135
 30
0.0
 11
1544.9999166066489
 21
651.90596384732135
 31
0.0
  0
MTEXT
  5
E8
100
AcDbEntity
  8
IMPORTED
 62
               1
100
AcDbMText
 10
1702.6505166066488
 20
60.395126881600405
 30
0.0
 40
32.576797265624997
 41
0.0
 71
               1
 72
               1
  1
樹脂発泡シート巻
  7
_______
  0
LINE
  5
E9
100
AcDbEntity
  8
IMPORTED
  6
CONTINUOUS
 62
               1
100
AcDbLine
 10
1683.5083166066488
 20
7.4926746149039438
 30
0.0
 11
2050.0
 21
7.4926746149039438
 31
0.0
  0
LINE
  5
EA
100
AcDbEntity
  8
IMPORTED
  6
CONTINUOUS
 62
               1
100
AcDbLine
 10
1310.664416606649
 20
293.9042746149039
 30
0.0
 11
1683.5083166066488
 21
7.4926746149039438
 31
0.0
  0
MTEXT
  5
EB
100
AcDbEntity
  8
IMPORTED
 62
               1
100
AcDbMText
 10
-1604.6151833933509
 20
227.04314053804148
 30
0.0
 40
32.576797265624997
 41
0.0
 71
               1
 72
               1
  1
基礎コンクリート
  7
_______
  0
LINE
  5
EC
100
AcDbEntity
  8
IMPORTED
  6
CONTINUOUS
 62
               1
100
AcDbLine
 10
-1628.9999833933507
 20
169.99997461490392
 30
0.0
 11
-1253.9999833933509
 21
169.99997461490392
 31
0.0
  0
LINE
  5
ED
100
AcDbEntity
  8
IMPORTED
  6
CONTINUOUS
 62
               1
100
AcDbLine
 10
-1253.9999833933509
 20
169.99997461490392
 30
0.0
 11
-1104.9999833933509
 21
283.99997461490392
 31
0.0
  0
LINE
  5
EE
100
AcDbEntity
  8
IMPORTED
  6
CONTINUOUS
 62
               1
100
AcDbLine
 10
-1723.9999833933507
 20
-80.000025385096052
 30
0.0
 11
-1338.9999833933509
 21
-80.000025385096052
 31
0.0
  0
LINE
  5
EF
100
AcDbEntity
  8
IMPORTED
  6
CONTINUOUS
 62
               1
100
AcDbLine
 10
-1338.9999833933509
 20
-80.000025385096052
 30
0.0
 11
-1164.9999833933509
 21
54.999974614903934
 31
0.0
  0
LINE
  5
F0
100
AcDbEntity
  8
IMPORTED
  6
CONTINUOUS
 62
               1
100
AcDbLine
 10
-1738.9999833933507
 20
-165.79382538509606
 30
0.0
 11
-1333.9999833933509
 21
-165.79382538509606
 31
0.0
  0
LINE
  5
F1
100
AcDbEntity
  8
IMPORTED
  6
CONTINUOUS
 62
               1
100
AcDbLine
 10
-1333.9999833933509
 20
-165.79382538509606
 30
0.0
 11
-1154.9999833933509
 21
-24.999925385096059
 31
0.0
  0
MTEXT
  5
F2
100
AcDbEntity
  8
IMPORTED
 62
               1
100
AcDbMText
 10
1571.8468227995825
 20
949.84447102868853
 30
0.0
 40
32.576797265624997
 41
0.0
 71
               1
 72
               1
  1
板600×600（別途）
  7
_______
  0
LINE
  5
F3
100
AcDbEntity
  8
IMPORTED
  6
CONTINUOUS
 62
               1
100
AcDbLine
 10
1367.9999166066489
 20
1074.9999746149037
 30
0.0
 11
1560.9629166066488
 21
896.53991176306351
 31
0.0
  0
LINE
  5
F4
100
AcDbEntity
  8
IMPORTED
  6
CONTINUOUS
 62
               1
100
AcDbLine
 10
1560.9629166066488
 20
896.53991176306351
 30
0.0
 11
1934.0
 21
896.53991176306351
 31
0.0
  0
LINE
  5
F5
100
AcDbEntity
  8
IMPORTED
  6
CONTINUOUS
 62
               1
100
AcDbLine
 10
-1044.9999831698333
 20
-1162.666625385096
 30
0.0
 11
-1512.4999832443391
 21
-1162.666625385096
 31
0.0
  0
LINE
  5
F6
100
AcDbEntity
  8
IMPORTED
  6
CONTINUOUS
 62
               1
100
AcDbLine
 10
-1286.9999831698335
 20
-1282.666625385096
 30
0.0
 11
-1512.4999832443391
 21
-1282.666625385096
 31
0.0
  0
LINE
  5
F7
100
AcDbEntity
  8
IMPORTED
  6
CONTINUOUS
 62
               1
100
AcDbLine
 10
-1472.4999833933507
 20
-1122.6666255341077
 30
0.0
 11
-1472.4999833933507
 21
-1162.666625385096
 31
0.0
  0
LINE
  5
F8
100
AcDbEntity
  8
IMPORTED
  6
CONTINUOUS
 62
               1
100
AcDbLine
 10
-1472.4999833933507
 20
-1282.666625385096
 30
0.0
 11
-1472.4999833933507
 21
-1322.6666252360844
 31
0.0
  0
LINE
  5
F9
100
AcDbEntity
  8
IMPORTED
  6
CONTINUOUS
 62
               1
100
AcDbLine
 10
-1472.4999833933507
 20
-1162.666625385096
 30
0.0
 11
-1472.4999833933507
 21
-1282.666625385096
 31
0.0
  0
SOLID
  5
FA
100
AcDbEntity
  8
IMPORTED
 62
               1
100
AcDbTrace
 10
-1472.4999833933507
 20
-1162.666625385096
 30
0.0
 11
-1469.0006504476837
 21
-1202.664183978846
 31
0.0
 12
-1475.9993163390177
 22
-1202.664183978846
 32
0.0
 13
-1475.9993163390177
 23
-1202.664183978846
 33
0.0
  0
SOLID
  5
FB
100
AcDbEntity
  8
IMPORTED
 62
               1
100
AcDbTrace
 10
-1472.4999833933507
 20
-1282.666625385096
 30
0.0
 11
-1475.9993163390177
 21
-1242.669066791346
 31
0.0
 12
-1469.0006504476837
 22
-1242.669066791346
 32
0.0
 13
-1469.0006504476837
 23
-1242.669066791346
 33
0.0
  0
MTEXT
  5
FC
100
AcDbEntity
  8
IMPORTED
 62
               1
100
AcDbMText
 10
-1531.0034729021784
 20
-1254.416625385096
 30
0.0
 40
32.576822916666664
 41
0.0
 71
               1
 72
               1
  1
120
  7
_______
 11
0.0
 21
1.0
 31
0.0
  0
LINE
  5
FD
100
AcDbEntity
  8
IMPORTED
  6
CONTINUOUS
 62
               1
100
AcDbLine
 10
-1286.9999831698335
 20
-1282.666625385096
 30
0.0
 11
-1512.4999832443391
 21
-1282.666625385096
 31
0.0
  0
LINE
  5
FE
100
AcDbEntity
  8
IMPORTED
  6
CONTINUOUS
 62
               1
100
AcDbLine
 10
-1289.9999831698335
 20
-1307.666625385096
 30
0.0
 11
-1512.4999832443391
 21
-1307.666625385096
 31
0.0
  0
LINE
  5
FF
100
AcDbEntity
  8
IMPORTED
  6
CONTINUOUS
 62
               1
100
AcDbLine
 10
-1472.4999833933507
 20
-1242.6666255341077
 30
0.0
 11
-1472.4999833933507
 21
-1282.666625385096
 31
0.0
  0
LINE
  5
100
100
AcDbEntity
  8
IMPORTED
  6
CONTINUOUS
 62
               1
100
AcDbLine
 10
-1472.4999833933507
 20
-1307.666625385096
 30
0.0
 11
-1472.4999833933507
 21
-1347.6666252360844
 31
0.0
  0
LINE
  5
101
100
AcDbEntity
  8
IMPORTED
  6
CONTINUOUS
 62
               1
100
AcDbLine
 10
-1472.4999833933507
 20
-1307.666625385096
 30
0.0
 11
-1472.4999833933507
 21
-1371.1667590286065
 31
0.0
  0
LINE
  5
102
100
AcDbEntity
  8
IMPORTED
  6
CONTINUOUS
 62
               1
100
AcDbLine
 10
-1472.4999833933507
 20
-1282.666625385096
 30
0.0
 11
-1472.4999833933507
 21
-1307.666625385096
 31
0.0
  0
SOLID
  5
103
100
AcDbEntity
  8
IMPORTED
 62
               1
100
AcDbTrace
 10
-1472.4999833933507
 20
-1282.666625385096
 30
0.0
 11
-1469.0006504476837
 21
-1322.664183978846
 31
0.0
 12
-1475.9993163390177
 22
-1322.664183978846
 32
0.0
 13
-1475.9993163390177
 23
-1322.664183978846
 33
0.0
  0
SOLID
  5
104
100
AcDbEntity
  8
IMPORTED
 62
               1
100
AcDbTrace
 10
-1472.4999833933507
 20
-1307.666625385096
 30
0.0
 11
-1475.9993163390177
 21
-1267.669066791346
 31
0.0
 12
-1469.0006504476837
 22
-1267.669066791346
 32
0.0
 13
-1469.0006504476837
 23
-1267.669066791346
 33
0.0
  0
MTEXT
  5
105
100
AcDbEntity
  8
IMPORTED
 62
               1
100
AcDbMText
 10
-1531.0034729021784
 20
-1371.1667590286067
 30
0.0
 40
32.576822916666664
 41
0.0
 71
               1
 72
               1
  1
25
  7
_______
 11
0.0
 21
1.0
 31
0.0
  0
LINE
  5
106
100
AcDbEntity
  8
IMPORTED
  6
CONTINUOUS
 62
               1
100
AcDbLine
 10
-1229.9999833933509
 20
-1225.6666256086135
 30
0.0
 11
-1229.9999833933509
 21
-826.00000014901161
 31
0.0
  0
LINE
  5
107
100
AcDbEntity
  8
IMPORTED
  6
CONTINUOUS
 62
               1
100
AcDbLine
 10
-989.99998339335082
 20
-1107.6666256086135
 30
0.0
 11
-989.99998339335082
 21
-826.00000014901161
 31
0.0
  0
LINE
  5
108
100
AcDbEntity
  8
IMPORTED
  6
CONTINUOUS
 62
               1
100
AcDbLine
 10
-1269.9999832443393
 20
-866.0
 30
0.0
 11
-1229.9999833933509
 21
-866.0
 31
0.0
  0
LINE
  5
109
100
AcDbEntity
  8
IMPORTED
  6
CONTINUOUS
 62
               1
100
AcDbLine
 10
-989.99998339335082
 20
-866.0
 30
0.0
 11
-949.99998354236243
 21
-866.0
 31
0.0
  0
LINE
  5
10A
100
AcDbEntity
  8
IMPORTED
  6
CONTINUOUS
 62
               1
100
AcDbLine
 10
-1229.9999833933509
 20
-866.0
 30
0.0
 11
-989.99998339335082
 21
-866.0
 31
0.0
  0
SOLID
  5
10B
100
AcDbEntity
  8
IMPORTED
 62
               1
100
AcDbTrace
 10
-1229.9999833933509
 20
-866.0
 30
0.0
 11
-1190.0024247996009
 21
-862.50066705433301
 31
0.0
 12
-1190.0024247996009
 22
-869.49933294566699
 32
0.0
 13
-1190.0024247996009
 23
-869.49933294566699
 33
0.0
  0
SOLID
  5
10C
100
AcDbEntity
  8
IMPORTED
 62
               1
100
AcDbTrace
 10
-989.99998339335082
 20
-866.0
 30
0.0
 11
-1029.9975419871007
 21
-869.49933294566699
 31
0.0
 12
-1029.9975419871007
 22
-862.50066705433301
 32
0.0
 13
-1029.9975419871007
 23
-862.50066705433301
 33
0.0
  0
MTEXT
  5
10D
100
AcDbEntity
  8
IMPORTED
 62
               1
100
AcDbMText
 10
-1141.7499833933509
 20
-807.49651049117244
 30
0.0
 40
32.576822916666664
 41
0.0
 71
               1
 72
               1
  1
240
  7
_______
  0
LINE
  5
10E
100
AcDbEntity
  8
IMPORTED
  6
CONTINUOUS
 62
               1
100
AcDbLine
 10
-989.99998339335082
 20
-1107.6666256086135
 30
0.0
 11
-989.99998339335082
 21
-826.00000014901161
 31
0.0
  0
LINE
  5
10F
100
AcDbEntity
  8
IMPORTED
  6
CONTINUOUS
 62
               1
100
AcDbLine
 10
-869.99998339335082
 20
-1107.6666256086135
 30
0.0
 11
-869.99998339335082
 21
-826.00000014901161
 31
0.0
  0
LINE
  5
110
100
AcDbEntity
  8
IMPORTED
  6
CONTINUOUS
 62
               1
100
AcDbLine
 10
-1029.9999832443391
 20
-866.0
 30
0.0
 11
-989.99998339335082
 21
-866.0
 31
0.0
  0
LINE
  5
111
100
AcDbEntity
  8
IMPORTED
  6
CONTINUOUS
 62
               1
100
AcDbLine
 10
-869.99998339335082
 20
-866.0
 30
0.0
 11
-829.99998354236243
 21
-866.0
 31
0.0
  0
LINE
  5
112
100
AcDbEntity
  8
IMPORTED
  6
CONTINUOUS
 62
               1
100
AcDbLine
 10
-989.99998339335082
 20
-866.0
 30
0.0
 11
-869.99998339335082
 21
-866.0
 31
0.0
  0
SOLID
  5
113
100
AcDbEntity
  8
IMPORTED
 62
               1
100
AcDbTrace
 10
-989.99998339335082
 20
-866.0
 30
0.0
 11
-950.00242479960082
 21
-862.50066705433301
 31
0.0
 12
-950.00242479960082
 22
-869.49933294566699
 32
0.0
 13
-950.00242479960082
 23
-869.49933294566699
 33
0.0
  0
SOLID
  5
114
100
AcDbEntity
  8
IMPORTED
 62
               1
100
AcDbTrace
 10
-869.99998339335082
 20
-866.0
 30
0.0
 11
-909.99754198710082
 21
-869.49933294566699
 31
0.0
 12
-909.99754198710082
 22
-862.50066705433301
 32
0.0
 13
-909.99754198710082
 23
-862.50066705433301
 33
0.0
  0
MTEXT
  5
115
100
AcDbEntity
  8
IMPORTED
 62
               1
100
AcDbMText
 10
-961.74998339335082
 20
-807.49651049117244
 30
0.0
 40
32.576822916666664
 41
0.0
 71
               1
 72
               1
  1
120
  7
_______
  0
LINE
  5
116
100
AcDbEntity
  8
IMPORTED
  6
CONTINUOUS
 62
               1
100
AcDbLine
 10
-869.99998339335082
 20
-1107.6666256086135
 30
0.0
 11
-869.99998339335082
 21
-826.00000014901161
 31
0.0
  0
LINE
  5
117
100
AcDbEntity
  8
IMPORTED
  6
CONTINUOUS
 62
               1
100
AcDbLine
 10
-629.99998339335093
 20
-1225.6666256086135
 30
0.0
 11
-629.99998339335093
 21
-826.00000014901161
 31
0.0
  0
LINE
  5
118
100
AcDbEntity
  8
IMPORTED
  6
CONTINUOUS
 62
               1
100
AcDbLine
 10
-909.99998324433921
 20
-866.0
 30
0.0
 11
-869.99998339335082
 21
-866.0
 31
0.0
  0
LINE
  5
119
100
AcDbEntity
  8
IMPORTED
  6
CONTINUOUS
 62
               1
100
AcDbLine
 10
-629.99998339335093
 20
-866.0
 30
0.0
 11
-589.99998354236254
 21
-866.0
 31
0.0
  0
LINE
  5
11A
100
AcDbEntity
  8
IMPORTED
  6
CONTINUOUS
 62
               1
100
AcDbLine
 10
-869.99998339335082
 20
-866.0
 30
0.0
 11
-629.99998339335093
 21
-866.0
 31
0.0
  0
SOLID
  5
11B
100
AcDbEntity
  8
IMPORTED
 62
               1
100
AcDbTrace
 10
-869.99998339335082
 20
-866.0
 30
0.0
 11
-830.00242479960082
 21
-862.50066705433301
 31
0.0
 12
-830.00242479960082
 22
-869.49933294566699
 32
0.0
 13
-830.00242479960082
 23
-869.49933294566699
 33
0.0
  0
SOLID
  5
11C
100
AcDbEntity
  8
IMPORTED
 62
               1
100
AcDbTrace
 10
-629.99998339335093
 20
-866.0
 30
0.0
 11
-669.99754198710093
 21
-869.49933294566699
 31
0.0
 12
-669.99754198710093
 22
-862.50066705433301
 32
0.0
 13
-669.99754198710093
 23
-862.50066705433301
 33
0.0
  0
MTEXT
  5
11D
100
AcDbEntity
  8
IMPORTED
 62
               1
100
AcDbMText
 10
-781.74998339335093
 20
-807.49651049117244
 30
0.0
 40
32.576822916666664
 41
0.0
 71
               1
 72
               1
  1
240
  7
_______
  0
LINE
  5
11E
100
AcDbEntity
  8
IMPORTED
  6
CONTINUOUS
 62
               1
100
AcDbLine
 10
-629.99998339335093
 20
-1225.6666256086135
 30
0.0
 11
-629.99998339335093
 21
-706.00000014901161
 31
0.0
  0
LINE
  5
11F
100
AcDbEntity
  8
IMPORTED
  6
CONTINUOUS
 62
               1
100
AcDbLine
 10
-1229.9999833933509
 20
-1225.6666256086135
 30
0.0
 11
-1229.9999833933509
 21
-706.00000014901161
 31
0.0
  0
LINE
  5
120
100
AcDbEntity
  8
IMPORTED
  6
CONTINUOUS
 62
               1
100
AcDbLine
 10
-589.99998354236254
 20
-746.0
 30
0.0
 11
-629.99998339335093
 21
-746.0
 31
0.0
  0
LINE
  5
121
100
AcDbEntity
  8
IMPORTED
  6
CONTINUOUS
 62
               1
100
AcDbLine
 10
-1229.9999833933509
 20
-746.0
 30
0.0
 11
-1269.9999832443393
 21
-746.0
 31
0.0
  0
LINE
  5
122
100
AcDbEntity
  8
IMPORTED
  6
CONTINUOUS
 62
               1
100
AcDbLine
 10
-629.99998339335093
 20
-746.0
 30
0.0
 11
-1229.9999833933509
 21
-746.0
 31
0.0
  0
SOLID
  5
123
100
AcDbEntity
  8
IMPORTED
 62
               1
100
AcDbTrace
 10
-629.99998339335093
 20
-746.0
 30
0.0
 11
-669.99754198710093
 21
-749.49933294566699
 31
0.0
 12
-669.99754198710093
 22
-742.50066705433301
 32
0.0
 13
-669.99754198710093
 23
-742.50066705433301
 33
0.0
  0
SOLID
  5
124
100
AcDbEntity
  8
IMPORTED
 62
               1
100
AcDbTrace
 10
-1229.9999833933509
 20
-746.0
 30
0.0
 11
-1190.0024247996009
 21
-742.50066705433301
 31
0.0
 12
-1190.0024247996009
 22
-749.49933294566699
 32
0.0
 13
-1190.0024247996009
 23
-749.49933294566699
 33
0.0
  0
MTEXT
  5
125
100
AcDbEntity
  8
IMPORTED
 62
               1
100
AcDbMText
 10
-961.74998339335093
 20
-687.49651049117244
 30
0.0
 40
32.576822916666664
 41
0.0
 71
               1
 72
               1
  1
600
  7
_______
  0
LINE
  5
126
100
AcDbEntity
  8
IMPORTED
  6
CONTINUOUS
 62
               1
100
AcDbLine
 10
-1139.9999833933509
 20
14.999974838421348
 30
0.0
 11
-1139.9999833933509
 21
-270.99992523608444
 31
0.0
  0
LINE
  5
127
100
AcDbEntity
  8
IMPORTED
  6
CONTINUOUS
 62
               1
100
AcDbLine
 10
-739.99998339335082
 20
14.999974838421348
 30
0.0
 11
-739.99998339335082
 21
-270.99992523608444
 31
0.0
  0
LINE
  5
128
100
AcDbEntity
  8
IMPORTED
  6
CONTINUOUS
 62
               1
100
AcDbLine
 10
-1179.9999832443393
 20
-230.99992538509605
 30
0.0
 11
-1139.9999833933509
 21
-230.99992538509605
 31
0.0
  0
LINE
  5
129
100
AcDbEntity
  8
IMPORTED
  6
CONTINUOUS
 62
               1
100
AcDbLine
 10
-739.99998339335082
 20
-230.99992538509605
 30
0.0
 11
-699.99998354236243
 21
-230.99992538509605
 31
0.0
  0
LINE
  5
12A
100
AcDbEntity
  8
IMPORTED
  6
CONTINUOUS
 62
               1
100
AcDbLine
 10
-1139.9999833933509
 20
-230.99992538509605
 30
0.0
 11
-739.99998339335082
 21
-230.99992538509605
 31
0.0
  0
SOLID
  5
12B
100
AcDbEntity
  8
IMPORTED
 62
               1
100
AcDbTrace
 10
-1139.9999833933509
 20
-230.99992538509605
 30
0.0
 11
-1100.0024247996009
 21
-227.50059243942903
 31
0.0
 12
-1100.0024247996009
 22
-234.49925833076307
 32
0.0
 13
-1100.0024247996009
 23
-234.49925833076307
 33
0.0
  0
SOLID
  5
12C
100
AcDbEntity
  8
IMPORTED
 62
               1
100
AcDbTrace
 10
-739.99998339335082
 20
-230.99992538509605
 30
0.0
 11
-779.99754198710082
 21
-234.49925833076307
 31
0.0
 12
-779.99754198710082
 22
-227.50059243942903
 32
0.0
 13
-779.99754198710082
 23
-227.50059243942903
 33
0.0
  0
MTEXT
  5
12D
100
AcDbEntity
  8
IMPORTED
 62
               1
100
AcDbMText
 10
-971.74998339335093
 20
-172.49643587626855
 30
0.0
 40
32.576822916666664
 41
0.0
 71
               1
 72
               1
  1
400
  7
_______
  0
LINE
  5
12E
100
AcDbEntity
  8
IMPORTED
  6
CONTINUOUS
 62
               1
100
AcDbLine
 10
-1189.9999833933509
 20
-134.99992516157863
 30
0.0
 11
-1189.9999833933509
 21
-270.99992523608444
 31
0.0
  0
LINE
  5
12F
100
AcDbEntity
  8
IMPORTED
  6
CONTINUOUS
 62
               1
100
AcDbLine
 10
-1139.9999833933509
 20
14.999974838421348
 30
0.0
 11
-1139.9999833933509
 21
-270.99992523608444
 31
0.0
  0
LINE
  5
130
100
AcDbEntity
  8
IMPORTED
  6
CONTINUOUS
 62
               1
100
AcDbLine
 10
-1229.9999832443393
 20
-230.99992538509605
 30
0.0
 11
-1189.9999833933509
 21
-230.99992538509605
 31
0.0
  0
LINE
  5
131
100
AcDbEntity
  8
IMPORTED
  6
CONTINUOUS
 62
               1
100
AcDbLine
 10
-1139.9999833933509
 20
-230.99992538509605
 30
0.0
 11
-1099.9999835423625
 21
-230.99992538509605
 31
0.0
  0
LINE
  5
132
100
AcDbEntity
  8
IMPORTED
  6
CONTINUOUS
 62
               1
100
AcDbLine
 10
-1189.9999833933509
 20
-230.99992538509605
 30
0.0
 11
-1139.9999833933509
 21
-230.99992538509605
 31
0.0
  0
SOLID
  5
133
100
AcDbEntity
  8
IMPORTED
 62
               1
100
AcDbTrace
 10
-1189.9999833933509
 20
-230.99992538509605
 30
0.0
 11
-1150.0024247996009
 21
-227.50059243942903
 31
0.0
 12
-1150.0024247996009
 22
-234.49925833076307
 32
0.0
 13
-1150.0024247996009
 23
-234.49925833076307
 33
0.0
  0
SOLID
  5
134
100
AcDbEntity
  8
IMPORTED
 62
               1
100
AcDbTrace
 10
-1139.9999833933509
 20
-230.99992538509605
 30
0.0
 11
-1179.9975419871009
 21
-234.49925833076307
 31
0.0
 12
-1179.9975419871009
 22
-227.50059243942903
 32
0.0
 13
-1179.9975419871009
 23
-227.50059243942903
 33
0.0
  0
MTEXT
  5
135
100
AcDbEntity
  8
IMPORTED
 62
               1
100
AcDbMText
 10
-1186.1666500600177
 20
-172.49643587626855
 30
0.0
 40
32.576822916666664
 41
0.0
 71
               1
 72
               1
  1
50
  7
_______
  0
LINE
  5
136
100
AcDbEntity
  8
IMPORTED
  6
CONTINUOUS
 62
               1
100
AcDbLine
 10
-739.99998339335082
 20
14.999974838421348
 30
0.0
 11
-739.99998339335082
 21
-270.99992523608444
 31
0.0
  0
LINE
  5
137
100
AcDbEntity
  8
IMPORTED
  6
CONTINUOUS
 62
               1
100
AcDbLine
 10
-689.99998339335093
 20
-134.99992516157863
 30
0.0
 11
-689.99998339335093
 21
-270.99992523608444
 31
0.0
  0
LINE
  5
138
100
AcDbEntity
  8
IMPORTED
  6
CONTINUOUS
 62
               1
100
AcDbLine
 10
-779.99998324433921
 20
-230.99992538509605
 30
0.0
 11
-739.99998339335082
 21
-230.99992538509605
 31
0.0
  0
LINE
  5
139
100
AcDbEntity
  8
IMPORTED
  6
CONTINUOUS
 62
               1
100
AcDbLine
 10
-689.99998339335093
 20
-230.99992538509605
 30
0.0
 11
-649.99998354236254
 21
-230.99992538509605
 31
0.0
  0
LINE
  5
13A
100
AcDbEntity
  8
IMPORTED
  6
CONTINUOUS
 62
               1
100
AcDbLine
 10
-739.99998339335082
 20
-230.99992538509605
 30
0.0
 11
-689.99998339335093
 21
-230.99992538509605
 31
0.0
  0
SOLID
  5
13B
100
AcDbEntity
  8
IMPORTED
 62
               1
100
AcDbTrace
 10
-739.99998339335082
 20
-230.99992538509605
 30
0.0
 11
-700.00242479960082
 21
-227.50059243942903
 31
0.0
 12
-700.00242479960082
 22
-234.49925833076307
 32
0.0
 13
-700.00242479960082
 23
-234.49925833076307
 33
0.0
  0
SOLID
  5
13C
100
AcDbEntity
  8
IMPORTED
 62
               1
100
AcDbTrace
 10
-689.99998339335093
 20
-230.99992538509605
 30
0.0
 11
-729.99754198710093
 21
-234.49925833076307
 31
0.0
 12
-729.99754198710093
 22
-227.50059243942903
 32
0.0
 13
-729.99754198710093
 23
-227.50059243942903
 33
0.0
  0
MTEXT
  5
13D
100
AcDbEntity
  8
IMPORTED
 62
               1
100
AcDbMText
 10
-736.16665006001756
 20
-172.49643587626855
 30
0.0
 40
32.576822916666664
 41
0.0
 71
               1
 72
               1
  1
50
  7
_______
  0
LINE
  5
13E
100
AcDbEntity
  8
IMPORTED
  6
CONTINUOUS
 62
               1
100
AcDbLine
 10
-1189.9999833933509
 20
-134.99992516157863
 30
0.0
 11
-1189.9999833933509
 21
-380.99992523608444
 31
0.0
  0
LINE
  5
13F
100
AcDbEntity
  8
IMPORTED
  6
CONTINUOUS
 62
               1
100
AcDbLine
 10
-689.99998339335093
 20
-134.99992516157863
 30
0.0
 11
-689.99998339335093
 21
-380.99992523608444
 31
0.0
  0
LINE
  5
140
100
AcDbEntity
  8
IMPORTED
  6
CONTINUOUS
 62
               1
100
AcDbLine
 10
-1229.9999832443393
 20
-340.99992538509605
 30
0.0
 11
-1189.9999833933509
 21
-340.99992538509605
 31
0.0
  0
LINE
  5
141
100
AcDbEntity
  8
IMPORTED
  6
CONTINUOUS
 62
               1
100
AcDbLine
 10
-689.99998339335093
 20
-340.99992538509605
 30
0.0
 11
-649.99998354236254
 21
-340.99992538509605
 31
0.0
  0
LINE
  5
142
100
AcDbEntity
  8
IMPORTED
  6
CONTINUOUS
 62
               1
100
AcDbLine
 10
-1189.9999833933509
 20
-340.99992538509605
 30
0.0
 11
-689.99998339335093
 21
-340.99992538509605
 31
0.0
  0
SOLID
  5
143
100
AcDbEntity
  8
IMPORTED
 62
               1
100
AcDbTrace
 10
-1189.9999833933509
 20
-340.99992538509605
 30
0.0
 11
-1150.0024247996009
 21
-337.500592439429
 31
0.0
 12
-1150.0024247996009
 22
-344.4992583307631
 32
0.0
 13
-1150.0024247996009
 23
-344.4992583307631
 33
0.0
  0
SOLID
  5
144
100
AcDbEntity
  8
IMPORTED
 62
               1
100
AcDbTrace
 10
-689.99998339335093
 20
-340.99992538509605
 30
0.0
 11
-729.99754198710093
 21
-344.4992583307631
 31
0.0
 12
-729.99754198710093
 22
-337.50059243942906
 32
0.0
 13
-729.99754198710093
 23
-337.50059243942906
 33
0.0
  0
MTEXT
  5
145
100
AcDbEntity
  8
IMPORTED
 62
               1
100
AcDbMText
 10
-971.74998339335093
 20
-282.49643587626855
 30
0.0
 40
32.576822916666664
 41
0.0
 71
               1
 72
               1
  1
500
  7
_______
  0
LINE
  5
146
100
AcDbEntity
  8
IMPORTED
  6
CONTINUOUS
 62
               1
100
AcDbLine
 10
-1379.9999831698335
 20
474.99997461490392
 30
0.0
 11
-1664.9999998509884
 21
474.99997461490392
 31
0.0
  0
LINE
  5
147
100
AcDbEntity
  8
IMPORTED
  6
CONTINUOUS
 62
               1
100
AcDbLine
 10
-1296.9999831698335
 20
774.99997461490386
 30
0.0
 11
-1664.9999998509884
 21
774.99997461490386
 31
0.0
  0
LINE
  5
148
100
AcDbEntity
  8
IMPORTED
  6
CONTINUOUS
 62
               1
100
AcDbLine
 10
-1625.0
 20
434.99997476391553
 30
0.0
 11
-1625.0
 21
474.99997461490392
 31
0.0
  0
LINE
  5
149
100
AcDbEntity
  8
IMPORTED
  6
CONTINUOUS
 62
               1
100
AcDbLine
 10
-1625.0
 20
774.99997461490386
 30
0.0
 11
-1625.0
 21
814.99997446589225
 31
0.0
  0
LINE
  5
14A
100
AcDbEntity
  8
IMPORTED
  6
CONTINUOUS
 62
               1
100
AcDbLine
 10
-1625.0
 20
474.99997461490392
 30
0.0
 11
-1625.0
 21
774.99997461490386
 31
0.0
  0
SOLID
  5
14B
100
AcDbEntity
  8
IMPORTED
 62
               1
100
AcDbTrace
 10
-1625.0
 20
474.99997461490392
 30
0.0
 11
-1628.499332945667
 21
514.99753320865398
 31
0.0
 12
-1621.500667054333
 22
514.99753320865398
 32
0.0
 13
-1621.500667054333
 23
514.99753320865398
 33
0.0
  0
SOLID
  5
14C
100
AcDbEntity
  8
IMPORTED
 62
               1
100
AcDbTrace
 10
-1625.0
 20
774.99997461490386
 30
0.0
 11
-1621.500667054333
 21
735.00241602115386
 31
0.0
 12
-1628.499332945667
 22
735.00241602115386
 32
0.0
 13
-1628.499332945667
 23
735.00241602115386
 33
0.0
  0
MTEXT
  5
14D
100
AcDbEntity
  8
IMPORTED
 62
               1
100
AcDbMText
 10
-1683.5034895088277
 20
593.24997461490386
 30
0.0
 40
32.576822916666664
 41
0.0
 71
               1
 72
               1
  1
300
  7
_______
 11
0.0
 21
1.0
 31
0.0
  0
LINE
  5
14E
100
AcDbEntity
  8
IMPORTED
  6
CONTINUOUS
 62
               1
100
AcDbLine
 10
-1296.9999831698335
 20
774.99997461490386
 30
0.0
 11
-1664.9999998509884
 21
774.99997461490386
 31
0.0
  0
LINE
  5
14F
100
AcDbEntity
  8
IMPORTED
  6
CONTINUOUS
 62
               1
100
AcDbLine
 10
-1296.9999831698335
 20
919.99997461490386
 30
0.0
 11
-1664.9999998509884
 21
919.99997461490386
 31
0.0
  0
LINE
  5
150
100
AcDbEntity
  8
IMPORTED
  6
CONTINUOUS
 62
               1
100
AcDbLine
 10
-1625.0
 20
734.99997476391547
 30
0.0
 11
-1625.0
 21
774.99997461490386
 31
0.0
  0
LINE
  5
151
100
AcDbEntity
  8
IMPORTED
  6
CONTINUOUS
 62
               1
100
AcDbLine
 10
-1625.0
 20
919.99997461490386
 30
0.0
 11
-1625.0
 21
959.99997446589225
 31
0.0
  0
LINE
  5
152
100
AcDbEntity
  8
IMPORTED
  6
CONTINUOUS
 62
               1
100
AcDbLine
 10
-1625.0
 20
774.99997461490386
 30
0.0
 11
-1625.0
 21
919.99997461490386
 31
0.0
  0
SOLID
  5
153
100
AcDbEntity
  8
IMPORTED
 62
               1
100
AcDbTrace
 10
-1625.0
 20
774.99997461490386
 30
0.0
 11
-1628.499332945667
 21
814.99753320865386
 31
0.0
 12
-1621.500667054333
 22
814.99753320865386
 32
0.0
 13
-1621.500667054333
 23
814.99753320865386
 33
0.0
  0
SOLID
  5
154
100
AcDbEntity
  8
IMPORTED
 62
               1
100
AcDbTrace
 10
-1625.0
 20
919.99997461490386
 30
0.0
 11
-1621.500667054333
 21
880.00241602115386
 31
0.0
 12
-1628.499332945667
 22
880.00241602115386
 32
0.0
 13
-1628.499332945667
 23
880.00241602115386
 33
0.0
  0
MTEXT
  5
155
100
AcDbEntity
  8
IMPORTED
 62
               1
100
AcDbMText
 10
-1683.5034895088277
 20
815.74997461490386
 30
0.0
 40
32.576822916666664
 41
0.0
 71
               1
 72
               1
  1
145
  7
_______
 11
0.0
 21
1.0
 31
0.0
  0
LINE
  5
156
100
AcDbEntity
  8
IMPORTED
  6
CONTINUOUS
 62
               1
100
AcDbLine
 10
-1296.9999831698335
 20
919.99997461490386
 30
0.0
 11
-1664.9999998509884
 21
919.99997461490386
 31
0.0
  0
LINE
  5
157
100
AcDbEntity
  8
IMPORTED
  6
CONTINUOUS
 62
               1
100
AcDbLine
 10
-1296.9999831698335
 20
1229.9999746149037
 30
0.0
 11
-1664.9999998509884
 21
1229.9999746149037
 31
0.0
  0
LINE
  5
158
100
AcDbEntity
  8
IMPORTED
  6
CONTINUOUS
 62
               1
100
AcDbLine
 10
-1625.0
 20
879.99997476391547
 30
0.0
 11
-1625.0
 21
919.99997461490386
 31
0.0
  0
LINE
  5
159
100
AcDbEntity
  8
IMPORTED
  6
CONTINUOUS
 62
               1
100
AcDbLine
 10
-1625.0
 20
1229.9999746149037
 30
0.0
 11
-1625.0
 21
1269.9999744658921
 31
0.0
  0
LINE
  5
15A
100
AcDbEntity
  8
IMPORTED
  6
CONTINUOUS
 62
               1
100
AcDbLine
 10
-1625.0
 20
919.99997461490386
 30
0.0
 11
-1625.0
 21
1229.9999746149037
 31
0.0
  0
SOLID
  5
15B
100
AcDbEntity
  8
IMPORTED
 62
               1
100
AcDbTrace
 10
-1625.0
 20
919.99997461490386
 30
0.0
 11
-1628.499332945667
 21
959.99753320865386
 31
0.0
 12
-1621.500667054333
 22
959.99753320865386
 32
0.0
 13
-1621.500667054333
 23
959.99753320865386
 33
0.0
  0
SOLID
  5
15C
100
AcDbEntity
  8
IMPORTED
 62
               1
100
AcDbTrace
 10
-1625.0
 20
1229.9999746149037
 30
0.0
 11
-1621.500667054333
 21
1190.0024160211537
 31
0.0
 12
-1628.499332945667
 22
1190.0024160211537
 32
0.0
 13
-1628.499332945667
 23
1190.0024160211537
 33
0.0
  0
MTEXT
  5
15D
100
AcDbEntity
  8
IMPORTED
 62
               1
100
AcDbMText
 10
-1683.5034895088277
 20
1043.2499746149037
 30
0.0
 40
32.576822916666664
 41
0.0
 71
               1
 72
               1
  1
310
  7
_______
 11
0.0
 21
1.0
 31
0.0
  0
LINE
  5
15E
100
AcDbEntity
  8
IMPORTED
  6
CONTINUOUS
 62
               1
100
AcDbLine
 10
-1296.9999831698335
 20
1229.9999746149037
 30
0.0
 11
-1664.9999998509884
 21
1229.9999746149037
 31
0.0
  0
LINE
  5
15F
100
AcDbEntity
  8
IMPORTED
  6
CONTINUOUS
 62
               1
100
AcDbLine
 10
-1296.9999831698335
 20
1374.9999746149037
 30
0.0
 11
-1664.9999998509884
 21
1374.9999746149037
 31
0.0
  0
LINE
  5
160
100
AcDbEntity
  8
IMPORTED
  6
CONTINUOUS
 62
               1
100
AcDbLine
 10
-1625.0
 20
1189.9999747639154
 30
0.0
 11
-1625.0
 21
1229.9999746149037
 31
0.0
  0
LINE
  5
161
100
AcDbEntity
  8
IMPORTED
  6
CONTINUOUS
 62
               1
100
AcDbLine
 10
-1625.0
 20
1374.9999746149037
 30
0.0
 11
-1625.0
 21
1414.9999744658921
 31
0.0
  0
LINE
  5
162
100
AcDbEntity
  8
IMPORTED
  6
CONTINUOUS
 62
               1
100
AcDbLine
 10
-1625.0
 20
1229.9999746149037
 30
0.0
 11
-1625.0
 21
1374.9999746149037
 31
0.0
  0
SOLID
  5
163
100
AcDbEntity
  8
IMPORTED
 62
               1
100
AcDbTrace
 10
-1625.0
 20
1229.9999746149037
 30
0.0
 11
-1628.499332945667
 21
1269.9975332086537
 31
0.0
 12
-1621.500667054333
 22
1269.9975332086537
 32
0.0
 13
-1621.500667054333
 23
1269.9975332086537
 33
0.0
  0
SOLID
  5
164
100
AcDbEntity
  8
IMPORTED
 62
               1
100
AcDbTrace
 10
-1625.0
 20
1374.9999746149037
 30
0.0
 11
-1621.500667054333
 21
1335.0024160211537
 31
0.0
 12
-1628.499332945667
 22
1335.0024160211537
 32
0.0
 13
-1628.499332945667
 23
1335.0024160211537
 33
0.0
  0
MTEXT
  5
165
100
AcDbEntity
  8
IMPORTED
 62
               1
100
AcDbMText
 10
-1683.5034895088277
 20
1270.7499746149037
 30
0.0
 40
32.576822916666664
 41
0.0
 71
               1
 72
               1
  1
145
  7
_______
 11
0.0
 21
1.0
 31
0.0
  0
LINE
  5
166
100
AcDbEntity
  8
IMPORTED
  6
CONTINUOUS
 62
               1
100
AcDbLine
 10
-1296.9999831698335
 20
1374.9999746149037
 30
0.0
 11
-1664.9999998509884
 21
1374.9999746149037
 31
0.0
  0
LINE
  5
167
100
AcDbEntity
  8
IMPORTED
  6
CONTINUOUS
 62
               1
100
AcDbLine
 10
-1054.9999831698333
 20
1524.9999746149037
 30
0.0
 11
-1664.9999998509884
 21
1524.9999746149037
 31
0.0
  0
LINE
  5
168
100
AcDbEntity
  8
IMPORTED
  6
CONTINUOUS
 62
               1
100
AcDbLine
 10
-1625.0
 20
1334.9999747639154
 30
0.0
 11
-1625.0
 21
1374.9999746149037
 31
0.0
  0
LINE
  5
169
100
AcDbEntity
  8
IMPORTED
  6
CONTINUOUS
 62
               1
100
AcDbLine
 10
-1625.0
 20
1524.9999746149037
 30
0.0
 11
-1625.0
 21
1564.9999744658921
 31
0.0
  0
LINE
  5
16A
100
AcDbEntity
  8
IMPORTED
  6
CONTINUOUS
 62
               1
100
AcDbLine
 10
-1625.0
 20
1374.9999746149037
 30
0.0
 11
-1625.0
 21
1524.9999746149037
 31
0.0
  0
SOLID
  5
16B
100
AcDbEntity
  8
IMPORTED
 62
               1
100
AcDbTrace
 10
-1625.0
 20
1374.9999746149037
 30
0.0
 11
-1628.499332945667
 21
1414.9975332086537
 31
0.0
 12
-1621.500667054333
 22
1414.9975332086537
 32
0.0
 13
-1621.500667054333
 23
1414.9975332086537
 33
0.0
  0
SOLID
  5
16C
100
AcDbEntity
  8
IMPORTED
 62
               1
100
AcDbTrace
 10
-1625.0
 20
1524.9999746149037
 30
0.0
 11
-1621.500667054333
 21
1485.0024160211537
 31
0.0
 12
-1628.499332945667
 22
1485.0024160211537
 32
0.0
 13
-1628.499332945667
 23
1485.0024160211537
 33
0.0
  0
MTEXT
  5
16D
100
AcDbEntity
  8
IMPORTED
 62
               1
100
AcDbMText
 10
-1683.5034895088277
 20
1418.2499746149037
 30
0.0
 40
32.576822916666664
 41
0.0
 71
               1
 72
               1
  1
150
  7
_______
 11
0.0
 21
1.0
 31
0.0
  0
LINE
  5
16E
100
AcDbEntity
  8
IMPORTED
  6
CONTINUOUS
 62
               1
100
AcDbLine
 10
-629.99998361686835
 20
-74.999925385096049
 30
0.0
 11
-265.00000014901161
 21
-74.999925385096049
 31
0.0
  0
LINE
  5
16F
100
AcDbEntity
  8
IMPORTED
  6
CONTINUOUS
 62
               1
100
AcDbLine
 10
-629.99998361686835
 20
24.999974614903937
 30
0.0
 11
-265.00000014901161
 21
24.999974614903937
 31
0.0
  0
LINE
  5
170
100
AcDbEntity
  8
IMPORTED
  6
CONTINUOUS
 62
               1
100
AcDbLine
 10
-305.0
 20
-114.99992523608444
 30
0.0
 11
-305.0
 21
-74.999925385096049
 31
0.0
  0
LINE
  5
171
100
AcDbEntity
  8
IMPORTED
  6
CONTINUOUS
 62
               1
100
AcDbLine
 10
-305.0
 20
24.999974614903937
 30
0.0
 11
-305.0
 21
64.999974465892336
 31
0.0
  0
LINE
  5
172
100
AcDbEntity
  8
IMPORTED
  6
CONTINUOUS
 62
               1
100
AcDbLine
 10
-305.0
 20
-74.999925385096049
 30
0.0
 11
-305.0
 21
24.999974614903937
 31
0.0
  0
SOLID
  5
173
100
AcDbEntity
  8
IMPORTED
 62
               1
100
AcDbTrace
 10
-305.0
 20
-74.999925385096049
 30
0.0
 11
-308.49933294566705
 21
-35.002366791346049
 31
0.0
 12
-301.50066705433295
 22
-35.002366791346049
 32
0.0
 13
-301.50066705433295
 23
-35.002366791346049
 33
0.0
  0
SOLID
  5
174
100
AcDbEntity
  8
IMPORTED
 62
               1
100
AcDbTrace
 10
-305.0
 20
24.999974614903937
 30
0.0
 11
-301.50066705433295
 21
-14.997583978846063
 31
0.0
 12
-308.49933294566705
 22
-14.997583978846063
 32
0.0
 13
-308.49933294566705
 23
-14.997583978846063
 33
0.0
  0
MTEXT
  5
175
100
AcDbEntity
  8
IMPORTED
 62
               1
100
AcDbMText
 10
-363.50348950882756
 20
-56.74997538509605
 30
0.0
 40
32.576822916666664
 41
0.0
 71
               1
 72
               1
  1
100
  7
_______
 11
0.0
 21
1.0
 31
0.0
  0
LINE
  5
176
100
AcDbEntity
  8
IMPORTED
  6
CONTINUOUS
 62
               1
100
AcDbLine
 10
-629.99998361686835
 20
24.999974614903937
 30
0.0
 11
-265.00000014901161
 21
24.999974614903937
 31
0.0
  0
LINE
  5
177
100
AcDbEntity
  8
IMPORTED
  6
CONTINUOUS
 62
               1
100
AcDbLine
 10
-629.99998361686835
 20
74.999974614903934
 30
0.0
 11
-265.00000014901161
 21
74.999974614903934
 31
0.0
  0
LINE
  5
178
100
AcDbEntity
  8
IMPORTED
  6
CONTINUOUS
 62
               1
100
AcDbLine
 10
-305.0
 20
-15.000025236084451
 30
0.0
 11
-305.0
 21
24.999974614903937
 31
0.0
  0
LINE
  5
179
100
AcDbEntity
  8
IMPORTED
  6
CONTINUOUS
 62
               1
100
AcDbLine
 10
-305.0
 20
74.999974614903934
 30
0.0
 11
-305.0
 21
114.99997446589232
 31
0.0
  0
LINE
  5
17A
100
AcDbEntity
  8
IMPORTED
  6
CONTINUOUS
 62
               1
100
AcDbLine
 10
-305.0
 20
24.999974614903937
 30
0.0
 11
-305.0
 21
74.999974614903934
 31
0.0
  0
SOLID
  5
17B
100
AcDbEntity
  8
IMPORTED
 62
               1
100
AcDbTrace
 10
-305.0
 20
24.999974614903937
 30
0.0
 11
-308.49933294566705
 21
64.997533208653948
 31
0.0
 12
-301.50066705433295
 22
64.997533208653948
 32
0.0
 13
-301.50066705433295
 23
64.997533208653948
 33
0.0
  0
SOLID
  5
17C
100
AcDbEntity
  8
IMPORTED
 62
               1
100
AcDbTrace
 10
-305.0
 20
74.999974614903934
 30
0.0
 11
-301.50066705433295
 21
35.002416021153934
 31
0.0
 12
-308.49933294566705
 22
35.002416021153934
 32
0.0
 13
-308.49933294566705
 23
35.002416021153934
 33
0.0
  0
MTEXT
  5
17D
100
AcDbEntity
  8
IMPORTED
 62
               1
100
AcDbMText
 10
-363.50348950882756
 20
28.833307948237266
 30
0.0
 40
32.576822916666664
 41
0.0
 71
               1
 72
               1
  1
50
  7
_______
 11
0.0
 21
1.0
 31
0.0
  0
LINE
  5
17E
100
AcDbEntity
  8
IMPORTED
  6
CONTINUOUS
 62
               1
100
AcDbLine
 10
-629.99998361686835
 20
74.999974614903934
 30
0.0
 11
-265.00000014901161
 21
74.999974614903934
 31
0.0
  0
LINE
  5
17F
100
AcDbEntity
  8
IMPORTED
  6
CONTINUOUS
 62
               1
100
AcDbLine
 10
-679.99998361686824
 20
424.99997461490392
 30
0.0
 11
-265.00000014901161
 21
424.99997461490392
 31
0.0
  0
LINE
  5
180
100
AcDbEntity
  8
IMPORTED
  6
CONTINUOUS
 62
               1
100
AcDbLine
 10
-305.0
 20
34.999974763915546
 30
0.0
 11
-305.0
 21
74.999974614903934
 31
0.0
  0
LINE
  5
181
100
AcDbEntity
  8
IMPORTED
  6
CONTINUOUS
 62
               1
100
AcDbLine
 10
-305.0
 20
424.99997461490392
 30
0.0
 11
-305.0
 21
464.99997446589231
 31
0.0
  0
LINE
  5
182
100
AcDbEntity
  8
IMPORTED
  6
CONTINUOUS
 62
               1
100
AcDbLine
 10
-305.0
 20
74.999974614903934
 30
0.0
 11
-305.0
 21
424.99997461490392
 31
0.0
  0
SOLID
  5
183
100
AcDbEntity
  8
IMPORTED
 62
               1
100
AcDbTrace
 10
-305.0
 20
74.999974614903934
 30
0.0
 11
-308.49933294566705
 21
114.99753320865393
 31
0.0
 12
-301.50066705433295
 22
114.99753320865393
 32
0.0
 13
-301.50066705433295
 23
114.99753320865393
 33
0.0
  0
SOLID
  5
184
100
AcDbEntity
  8
IMPORTED
 62
               1
100
AcDbTrace
 10
-305.0
 20
424.99997461490392
 30
0.0
 11
-301.50066705433295
 21
385.00241602115392
 31
0.0
 12
-308.49933294566705
 22
385.00241602115392
 32
0.0
 13
-308.49933294566705
 23
385.00241602115392
 33
0.0
  0
MTEXT
  5
185
100
AcDbEntity
  8
IMPORTED
 62
               1
100
AcDbMText
 10
-363.50348950882756
 20
218.24997461490392
 30
0.0
 40
32.576822916666664
 41
0.0
 71
               1
 72
               1
  1
350
  7
_______
 11
0.0
 21
1.0
 31
0.0
  0
LINE
  5
186
100
AcDbEntity
  8
IMPORTED
  6
CONTINUOUS
 62
               1
100
AcDbLine
 10
-679.99998361686824
 20
424.99997461490392
 30
0.0
 11
-265.00000014901161
 21
424.99997461490392
 31
0.0
  0
LINE
  5
187
100
AcDbEntity
  8
IMPORTED
  6
CONTINUOUS
 62
               1
100
AcDbLine
 10
-524.99998361686835
 20
474.99997461490392
 30
0.0
 11
-265.00000014901161
 21
474.99997461490392
 31
0.0
  0
LINE
  5
188
100
AcDbEntity
  8
IMPORTED
  6
CONTINUOUS
 62
               1
100
AcDbLine
 10
-305.0
 20
384.99997476391553
 30
0.0
 11
-305.0
 21
424.99997461490392
 31
0.0
  0
LINE
  5
189
100
AcDbEntity
  8
IMPORTED
  6
CONTINUOUS
 62
               1
100
AcDbLine
 10
-305.0
 20
474.99997461490392
 30
0.0
 11
-305.0
 21
514.99997446589236
 31
0.0
  0
LINE
  5
18A
100
AcDbEntity
  8
IMPORTED
  6
CONTINUOUS
 62
               1
100
AcDbLine
 10
-305.0
 20
424.99997461490392
 30
0.0
 11
-305.0
 21
474.99997461490392
 31
0.0
  0
SOLID
  5
18B
100
AcDbEntity
  8
IMPORTED
 62
               1
100
AcDbTrace
 10
-305.0
 20
424.99997461490392
 30
0.0
 11
-308.49933294566705
 21
464.99753320865392
 31
0.0
 12
-301.50066705433295
 22
464.99753320865392
 32
0.0
 13
-301.50066705433295
 23
464.99753320865392
 33
0.0
  0
SOLID
  5
18C
100
AcDbEntity
  8
IMPORTED
 62
               1
100
AcDbTrace
 10
-305.0
 20
474.99997461490392
 30
0.0
 11
-301.50066705433295
 21
435.00241602115392
 31
0.0
 12
-308.49933294566705
 22
435.00241602115392
 32
0.0
 13
-308.49933294566705
 23
435.00241602115392
 33
0.0
  0
MTEXT
  5
18D
100
AcDbEntity
  8
IMPORTED
 62
               1
100
AcDbMText
 10
-363.50348950882756
 20
428.83330794823723
 30
0.0
 40
32.576822916666664
 41
0.0
 71
               1
 72
               1
  1
50
  7
_______
 11
0.0
 21
1.0
 31
0.0
  0
LINE
  5
18E
100
AcDbEntity
  8
IMPORTED
  6
CONTINUOUS
 62
               1
100
AcDbLine
 10
-629.99998361686835
 20
-74.999925385096049
 30
0.0
 11
-125.00000014901156
 21
-74.999925385096049
 31
0.0
  0
LINE
  5
18F
100
AcDbEntity
  8
IMPORTED
  6
CONTINUOUS
 62
               1
100
AcDbLine
 10
-524.99998361686835
 20
474.99997461490392
 30
0.0
 11
-125.00000014901156
 21
474.99997461490392
 31
0.0
  0
LINE
  5
190
100
AcDbEntity
  8
IMPORTED
  6
CONTINUOUS
 62
               1
100
AcDbLine
 10
-164.99999999999994
 20
-114.99992523608444
 30
0.0
 11
-164.99999999999994
 21
-74.999925385096049
 31
0.0
  0
LINE
  5
191
100
AcDbEntity
  8
IMPORTED
  6
CONTINUOUS
 62
               1
100
AcDbLine
 10
-164.99999999999994
 20
474.99997461490392
 30
0.0
 11
-164.99999999999994
 21
514.99997446589236
 31
0.0
  0
LINE
  5
192
100
AcDbEntity
  8
IMPORTED
  6
CONTINUOUS
 62
               1
100
AcDbLine
 10
-164.99999999999994
 20
-74.999925385096049
 30
0.0
 11
-164.99999999999994
 21
474.99997461490392
 31
0.0
  0
SOLID
  5
193
100
AcDbEntity
  8
IMPORTED
 62
               1
100
AcDbTrace
 10
-164.99999999999994
 20
-74.999925385096049
 30
0.0
 11
-168.49933294566696
 21
-35.002366791346049
 31
0.0
 12
-161.50066705433292
 22
-35.002366791346049
 32
0.0
 13
-161.50066705433292
 23
-35.002366791346049
 33
0.0
  0
SOLID
  5
194
100
AcDbEntity
  8
IMPORTED
 62
               1
100
AcDbTrace
 10
-164.99999999999994
 20
474.99997461490392
 30
0.0
 11
-161.50066705433292
 21
435.00241602115392
 31
0.0
 12
-168.49933294566696
 22
435.00241602115392
 32
0.0
 13
-168.49933294566696
 23
435.00241602115392
 33
0.0
  0
MTEXT
  5
195
100
AcDbEntity
  8
IMPORTED
 62
               1
100
AcDbMText
 10
-223.50348950882744
 20
168.25002461490396
 30
0.0
 40
32.576822916666664
 41
0.0
 71
               1
 72
               1
  1
550
  7
_______
 11
0.0
 21
1.0
 31
0.0
  0
LINE
  5
196
100
AcDbEntity
  8
IMPORTED
  6
CONTINUOUS
 62
               1
100
AcDbLine
 10
-524.99998361686835
 20
474.99997461490392
 30
0.0
 11
-125.00000014901156
 21
474.99997461490392
 31
0.0
  0
LINE
  5
197
100
AcDbEntity
  8
IMPORTED
  6
CONTINUOUS
 62
               1
100
AcDbLine
 10
-824.99998361686824
 20
1524.9999746149037
 30
0.0
 11
-125.00000014901156
 21
1524.9999746149037
 31
0.0
  0
LINE
  5
198
100
AcDbEntity
  8
IMPORTED
  6
CONTINUOUS
 62
               1
100
AcDbLine
 10
-164.99999999999994
 20
434.99997476391553
 30
0.0
 11
-164.99999999999994
 21
474.99997461490392
 31
0.0
  0
LINE
  5
199
100
AcDbEntity
  8
IMPORTED
  6
CONTINUOUS
 62
               1
100
AcDbLine
 10
-164.99999999999994
 20
1524.9999746149037
 30
0.0
 11
-164.99999999999994
 21
1564.9999744658921
 31
0.0
  0
LINE
  5
19A
100
AcDbEntity
  8
IMPORTED
  6
CONTINUOUS
 62
               1
100
AcDbLine
 10
-164.99999999999994
 20
474.99997461490392
 30
0.0
 11
-164.99999999999994
 21
1524.9999746149037
 31
0.0
  0
SOLID
  5
19B
100
AcDbEntity
  8
IMPORTED
 62
               1
100
AcDbTrace
 10
-164.99999999999994
 20
474.99997461490392
 30
0.0
 11
-168.49933294566696
 21
514.99753320865398
 31
0.0
 12
-161.50066705433292
 22
514.99753320865398
 32
0.0
 13
-161.50066705433292
 23
514.99753320865398
 33
0.0
  0
SOLID
  5
19C
100
AcDbEntity
  8
IMPORTED
 62
               1
100
AcDbTrace
 10
-164.99999999999994
 20
1524.9999746149037
 30
0.0
 11
-161.50066705433292
 21
1485.0024160211537
 31
0.0
 12
-168.49933294566696
 22
1485.0024160211537
 32
0.0
 13
-168.49933294566696
 23
1485.0024160211537
 33
0.0
  0
MTEXT
  5
19D
100
AcDbEntity
  8
IMPORTED
 62
               1
100
AcDbMText
 10
-223.50348950882747
 20
957.66664128157061
 30
0.0
 40
32.576822916666664
 41
0.0
 71
               1
 72
               1
  1
1050
  7
_______
 11
0.0
 21
1.0
 31
0.0
  0
LINE
  5
19E
100
AcDbEntity
  8
IMPORTED
  6
CONTINUOUS
 62
               1
100
AcDbLine
 10
-1239.9999833933509
 20
1431.9999743913863
 30
0.0
 11
-1239.9999833933509
 21
1761.9999998509884
 31
0.0
  0
LINE
  5
19F
100
AcDbEntity
  8
IMPORTED
  6
CONTINUOUS
 62
               1
100
AcDbLine
 10
-999.99998339335082
 20
1579.9999743913863
 30
0.0
 11
-999.99998339335082
 21
1761.9999998509884
 31
0.0
  0
LINE
  5
1A0
100
AcDbEntity
  8
IMPORTED
  6
CONTINUOUS
 62
               1
100
AcDbLine
 10
-1279.9999832443393
 20
1722.0
 30
0.0
 11
-1239.9999833933509
 21
1722.0
 31
0.0
  0
LINE
  5
1A1
100
AcDbEntity
  8
IMPORTED
  6
CONTINUOUS
 62
               1
100
AcDbLine
 10
-999.99998339335082
 20
1722.0
 30
0.0
 11
-959.99998354236243
 21
1722.0
 31
0.0
  0
LINE
  5
1A2
100
AcDbEntity
  8
IMPORTED
  6
CONTINUOUS
 62
               1
100
AcDbLine
 10
-1239.9999833933509
 20
1722.0
 30
0.0
 11
-999.99998339335082
 21
1722.0
 31
0.0
  0
SOLID
  5
1A3
100
AcDbEntity
  8
IMPORTED
 62
               1
100
AcDbTrace
 10
-1239.9999833933509
 20
1722.0
 30
0.0
 11
-1200.0024247996009
 21
1725.499332945667
 31
0.0
 12
-1200.0024247996009
 22
1718.500667054333
 32
0.0
 13
-1200.0024247996009
 23
1718.500667054333
 33
0.0
  0
SOLID
  5
1A4
100
AcDbEntity
  8
IMPORTED
 62
               1
100
AcDbTrace
 10
-999.99998339335082
 20
1722.0
 30
0.0
 11
-1039.9975419871007
 21
1718.500667054333
 31
0.0
 12
-1039.9975419871007
 22
1725.499332945667
 32
0.0
 13
-1039.9975419871007
 23
1725.499332945667
 33
0.0
  0
MTEXT
  5
1A5
100
AcDbEntity
  8
IMPORTED
 62
               1
100
AcDbMText
 10
-1151.7499833933509
 20
1780.5034895088274
 30
0.0
 40
32.576822916666664
 41
0.0
 71
               1
 72
               1
  1
240
  7
_______
  0
LINE
  5
1A6
100
AcDbEntity
  8
IMPORTED
  6
CONTINUOUS
 62
               1
100
AcDbLine
 10
-999.99998339335082
 20
1579.9999743913863
 30
0.0
 11
-999.99998339335082
 21
1761.9999998509884
 31
0.0
  0
LINE
  5
1A7
100
AcDbEntity
  8
IMPORTED
  6
CONTINUOUS
 62
               1
100
AcDbLine
 10
-879.99998339335082
 20
1579.9999743913863
 30
0.0
 11
-879.99998339335082
 21
1761.9999998509884
 31
0.0
  0
LINE
  5
1A8
100
AcDbEntity
  8
IMPORTED
  6
CONTINUOUS
 62
               1
100
AcDbLine
 10
-1039.9999832443391
 20
1722.0
 30
0.0
 11
-999.99998339335082
 21
1722.0
 31
0.0
  0
LINE
  5
1A9
100
AcDbEntity
  8
IMPORTED
  6
CONTINUOUS
 62
               1
100
AcDbLine
 10
-879.99998339335082
 20
1722.0
 30
0.0
 11
-839.99998354236243
 21
1722.0
 31
0.0
  0
LINE
  5
1AA
100
AcDbEntity
  8
IMPORTED
  6
CONTINUOUS
 62
               1
100
AcDbLine
 10
-999.99998339335082
 20
1722.0
 30
0.0
 11
-879.99998339335082
 21
1722.0
 31
0.0
  0
SOLID
  5
1AB
100
AcDbEntity
  8
IMPORTED
 62
               1
100
AcDbTrace
 10
-999.99998339335082
 20
1722.0
 30
0.0
 11
-960.00242479960082
 21
1725.499332945667
 31
0.0
 12
-960.00242479960082
 22
1718.500667054333
 32
0.0
 13
-960.00242479960082
 23
1718.500667054333
 33
0.0
  0
SOLID
  5
1AC
100
AcDbEntity
  8
IMPORTED
 62
               1
100
AcDbTrace
 10
-879.99998339335082
 20
1722.0
 30
0.0
 11
-919.99754198710082
 21
1718.500667054333
 31
0.0
 12
-919.99754198710082
 22
1725.499332945667
 32
0.0
 13
-919.99754198710082
 23
1725.499332945667
 33
0.0
  0
MTEXT
  5
1AD
100
AcDbEntity
  8
IMPORTED
 62
               1
100
AcDbMText
 10
-971.74998339335082
 20
1780.5034895088274
 30
0.0
 40
32.576822916666664
 41
0.0
 71
               1
 72
               1
  1
120
  7
_______
  0
LINE
  5
1AE
100
AcDbEntity
  8
IMPORTED
  6
CONTINUOUS
 62
               1
100
AcDbLine
 10
-879.99998339335082
 20
1579.9999743913863
 30
0.0
 11
-879.99998339335082
 21
1761.9999998509884
 31
0.0
  0
LINE
  5
1AF
100
AcDbEntity
  8
IMPORTED
  6
CONTINUOUS
 62
               1
100
AcDbLine
 10
-639.99998339335093
 20
1431.9999743913863
 30
0.0
 11
-639.99998339335093
 21
1761.9999998509884
 31
0.0
  0
LINE
  5
1B0
100
AcDbEntity
  8
IMPORTED
  6
CONTINUOUS
 62
               1
100
AcDbLine
 10
-919.99998324433921
 20
1722.0
 30
0.0
 11
-879.99998339335082
 21
1722.0
 31
0.0
  0
LINE
  5
1B1
100
AcDbEntity
  8
IMPORTED
  6
CONTINUOUS
 62
               1
100
AcDbLine
 10
-639.99998339335093
 20
1722.0
 30
0.0
 11
-599.99998354236254
 21
1722.0
 31
0.0
  0
LINE
  5
1B2
100
AcDbEntity
  8
IMPORTED
  6
CONTINUOUS
 62
               1
100
AcDbLine
 10
-879.99998339335082
 20
1722.0
 30
0.0
 11
-639.99998339335093
 21
1722.0
 31
0.0
  0
SOLID
  5
1B3
100
AcDbEntity
  8
IMPORTED
 62
               1
100
AcDbTrace
 10
-879.99998339335082
 20
1722.0
 30
0.0
 11
-840.00242479960082
 21
1725.499332945667
 31
0.0
 12
-840.00242479960082
 22
1718.500667054333
 32
0.0
 13
-840.00242479960082
 23
1718.500667054333
 33
0.0
  0
SOLID
  5
1B4
100
AcDbEntity
  8
IMPORTED
 62
               1
100
AcDbTrace
 10
-639.99998339335093
 20
1722.0
 30
0.0
 11
-679.99754198710093
 21
1718.500667054333
 31
0.0
 12
-679.99754198710093
 22
1725.499332945667
 32
0.0
 13
-679.99754198710093
 23
1725.499332945667
 33
0.0
  0
MTEXT
  5
1B5
100
AcDbEntity
  8
IMPORTED
 62
               1
100
AcDbMText
 10
-791.74998339335093
 20
1780.5034895088274
 30
0.0
 40
32.576822916666664
 41
0.0
 71
               1
 72
               1
  1
240
  7
_______
  0
LINE
  5
1B6
100
AcDbEntity
  8
IMPORTED
  6
CONTINUOUS
 62
               1
100
AcDbLine
 10
-639.99998339335093
 20
1431.9999743913863
 30
0.0
 11
-639.99998339335093
 21
1891.9999998509884
 31
0.0
  0
LINE
  5
1B7
100
AcDbEntity
  8
IMPORTED
  6
CONTINUOUS
 62
               1
100
AcDbLine
 10
-1239.9999833933509
 20
1431.9999743913863
 30
0.0
 11
-1239.9999833933509
 21
1891.9999998509884
 31
0.0
  0
LINE
  5
1B8
100
AcDbEntity
  8
IMPORTED
  6
CONTINUOUS
 62
               1
100
AcDbLine
 10
-599.99998354236254
 20
1852.0
 30
0.0
 11
-639.99998339335093
 21
1852.0
 31
0.0
  0
LINE
  5
1B9
100
AcDbEntity
  8
IMPORTED
  6
CONTINUOUS
 62
               1
100
AcDbLine
 10
-1239.9999833933509
 20
1852.0
 30
0.0
 11
-1279.9999832443393
 21
1852.0
 31
0.0
  0
LINE
  5
1BA
100
AcDbEntity
  8
IMPORTED
  6
CONTINUOUS
 62
               1
100
AcDbLine
 10
-639.99998339335093
 20
1852.0
 30
0.0
 11
-1239.9999833933509
 21
1852.0
 31
0.0
  0
SOLID
  5
1BB
100
AcDbEntity
  8
IMPORTED
 62
               1
100
AcDbTrace
 10
-639.99998339335093
 20
1852.0
 30
0.0
 11
-679.99754198710093
 21
1848.500667054333
 31
0.0
 12
-679.99754198710093
 22
1855.499332945667
 32
0.0
 13
-679.99754198710093
 23
1855.499332945667
 33
0.0
  0
SOLID
  5
1BC
100
AcDbEntity
  8
IMPORTED
 62
               1
100
AcDbTrace
 10
-1239.9999833933509
 20
1852.0
 30
0.0
 11
-1200.0024247996009
 21
1855.499332945667
 31
0.0
 12
-1200.0024247996009
 22
1848.500667054333
 32
0.0
 13
-1200.0024247996009
 23
1848.500667054333
 33
0.0
  0
MTEXT
  5
1BD
100
AcDbEntity
  8
IMPORTED
 62
               1
100
AcDbMText
 10
-971.74998339335093
 20
1910.5034895088274
 30
0.0
 40
32.576822916666664
 41
0.0
 71
               1
 72
               1
  1
600
  7
_______
  0
LINE
  5
1BE
100
AcDbEntity
  8
IMPORTED
  6
CONTINUOUS
 62
               1
100
AcDbLine
 10
1079.9999166066489
 20
14.999974838421348
 30
0.0
 11
1079.9999166066489
 21
-270.99992523608444
 31
0.0
  0
LINE
  5
1BF
100
AcDbEntity
  8
IMPORTED
  6
CONTINUOUS
 62
               1
100
AcDbLine
 10
1479.9999166066489
 20
14.999974838421348
 30
0.0
 11
1479.9999166066489
 21
-270.99992523608444
 31
0.0
  0
LINE
  5
1C0
100
AcDbEntity
  8
IMPORTED
  6
CONTINUOUS
 62
               1
100
AcDbLine
 10
1039.9999167556605
 20
-230.99992538509605
 30
0.0
 11
1079.9999166066489
 21
-230.99992538509605
 31
0.0
  0
LINE
  5
1C1
100
AcDbEntity
  8
IMPORTED
  6
CONTINUOUS
 62
               1
100
AcDbLine
 10
1479.9999166066489
 20
-230.99992538509605
 30
0.0
 11
1519.9999164576373
 21
-230.99992538509605
 31
0.0
  0
LINE
  5
1C2
100
AcDbEntity
  8
IMPORTED
  6
CONTINUOUS
 62
               1
100
AcDbLine
 10
1079.9999166066489
 20
-230.99992538509605
 30
0.0
 11
1479.9999166066489
 21
-230.99992538509605
 31
0.0
  0
SOLID
  5
1C3
100
AcDbEntity
  8
IMPORTED
 62
               1
100
AcDbTrace
 10
1079.9999166066489
 20
-230.99992538509605
 30
0.0
 11
1119.9974752003989
 21
-227.50059243942903
 31
0.0
 12
1119.9974752003989
 22
-234.49925833076307
 32
0.0
 13
1119.9974752003989
 23
-234.49925833076307
 33
0.0
  0
SOLID
  5
1C4
100
AcDbEntity
  8
IMPORTED
 62
               1
100
AcDbTrace
 10
1479.9999166066489
 20
-230.99992538509605
 30
0.0
 11
1440.0023580128989
 21
-234.49925833076307
 31
0.0
 12
1440.0023580128989
 22
-227.50059243942903
 32
0.0
 13
1440.0023580128989
 23
-227.50059243942903
 33
0.0
  0
MTEXT
  5
1C5
100
AcDbEntity
  8
IMPORTED
 62
               1
100
AcDbMText
 10
1248.2499166066489
 20
-172.49643587626855
 30
0.0
 40
32.576822916666664
 41
0.0
 71
               1
 72
               1
  1
400
  7
_______
  0
LINE
  5
1C6
100
AcDbEntity
  8
IMPORTED
  6
CONTINUOUS
 62
               1
100
AcDbLine
 10
1029.9999166066491
 20
-134.99992516157863
 30
0.0
 11
1029.9999166066491
 21
-380.99992523608444
 31
0.0
  0
LINE
  5
1C7
100
AcDbEntity
  8
IMPORTED
  6
CONTINUOUS
 62
               1
100
AcDbLine
 10
1529.9999166066489
 20
-134.99992516157863
 30
0.0
 11
1529.9999166066489
 21
-380.99992523608444
 31
0.0
  0
LINE
  5
1C8
100
AcDbEntity
  8
IMPORTED
  6
CONTINUOUS
 62
               1
100
AcDbLine
 10
989.99991675566059
 20
-340.99992538509605
 30
0.0
 11
1029.9999166066491
 21
-340.99992538509605
 31
0.0
  0
LINE
  5
1C9
100
AcDbEntity
  8
IMPORTED
  6
CONTINUOUS
 62
               1
100
AcDbLine
 10
1529.9999166066489
 20
-340.99992538509605
 30
0.0
 11
1569.9999164576373
 21
-340.99992538509605
 31
0.0
  0
LINE
  5
1CA
100
AcDbEntity
  8
IMPORTED
  6
CONTINUOUS
 62
               1
100
AcDbLine
 10
1029.9999166066491
 20
-340.99992538509605
 30
0.0
 11
1529.9999166066489
 21
-340.99992538509605
 31
0.0
  0
SOLID
  5
1CB
100
AcDbEntity
  8
IMPORTED
 62
               1
100
AcDbTrace
 10
1029.9999166066491
 20
-340.99992538509605
 30
0.0
 11
1069.9974752003991
 21
-337.500592439429
 31
0.0
 12
1069.9974752003991
 22
-344.4992583307631
 32
0.0
 13
1069.9974752003991
 23
-344.4992583307631
 33
0.0
  0
SOLID
  5
1CC
100
AcDbEntity
  8
IMPORTED
 62
               1
100
AcDbTrace
 10
1529.9999166066489
 20
-340.99992538509605
 30
0.0
 11
1490.0023580128989
 21
-344.4992583307631
 31
0.0
 12
1490.0023580128989
 22
-337.50059243942906
 32
0.0
 13
1490.0023580128989
 23
-337.50059243942906
 33
0.0
  0
MTEXT
  5
1CD
100
AcDbEntity
  8
IMPORTED
 62
               1
100
AcDbMText
 10
1248.2499166066489
 20
-282.49643587626855
 30
0.0
 40
32.576822916666664
 41
0.0
 71
               1
 72
               1
  1
500
  7
_______
  0
LINE
  5
1CE
100
AcDbEntity
  8
IMPORTED
  6
CONTINUOUS
 62
               1
100
AcDbLine
 10
1029.9999166066491
 20
-134.99992516157863
 30
0.0
 11
1029.9999166066491
 21
-270.99992523608444
 31
0.0
  0
LINE
  5
1CF
100
AcDbEntity
  8
IMPORTED
  6
CONTINUOUS
 62
               1
100
AcDbLine
 10
1079.9999166066489
 20
14.999974838421348
 30
0.0
 11
1079.9999166066489
 21
-270.99992523608444
 31
0.0
  0
LINE
  5
1D0
100
AcDbEntity
  8
IMPORTED
  6
CONTINUOUS
 62
               1
100
AcDbLine
 10
989.99991675566059
 20
-230.99992538509605
 30
0.0
 11
1029.9999166066491
 21
-230.99992538509605
 31
0.0
  0
LINE
  5
1D1
100
AcDbEntity
  8
IMPORTED
  6
CONTINUOUS
 62
               1
100
AcDbLine
 10
1079.9999166066489
 20
-230.99992538509605
 30
0.0
 11
1119.9999164576373
 21
-230.99992538509605
 31
0.0
  0
LINE
  5
1D2
100
AcDbEntity
  8
IMPORTED
  6
CONTINUOUS
 62
               1
100
AcDbLine
 10
1029.9999166066491
 20
-230.99992538509605
 30
0.0
 11
1079.9999166066489
 21
-230.99992538509605
 31
0.0
  0
SOLID
  5
1D3
100
AcDbEntity
  8
IMPORTED
 62
               1
100
AcDbTrace
 10
1029.9999166066491
 20
-230.99992538509605
 30
0.0
 11
1069.9974752003991
 21
-227.50059243942903
 31
0.0
 12
1069.9974752003991
 22
-234.49925833076307
 32
0.0
 13
1069.9974752003991
 23
-234.49925833076307
 33
0.0
  0
SOLID
  5
1D4
100
AcDbEntity
  8
IMPORTED
 62
               1
100
AcDbTrace
 10
1079.9999166066489
 20
-230.99992538509605
 30
0.0
 11
1040.0023580128989
 21
-234.49925833076307
 31
0.0
 12
1040.0023580128989
 22
-227.50059243942903
 32
0.0
 13
1040.0023580128989
 23
-227.50059243942903
 33
0.0
  0
MTEXT
  5
1D5
100
AcDbEntity
  8
IMPORTED
 62
               1
100
AcDbMText
 10
1033.8332499399824
 20
-172.49643587626855
 30
0.0
 40
32.576822916666664
 41
0.0
 71
               1
 72
               1
  1
50
  7
_______
  0
LINE
  5
1D6
100
AcDbEntity
  8
IMPORTED
  6
CONTINUOUS
 62
               1
100
AcDbLine
 10
1479.9999166066489
 20
14.999974838421348
 30
0.0
 11
1479.9999166066489
 21
-270.99992523608444
 31
0.0
  0
LINE
  5
1D7
100
AcDbEntity
  8
IMPORTED
  6
CONTINUOUS
 62
               1
100
AcDbLine
 10
1529.9999166066489
 20
-134.99992516157863
 30
0.0
 11
1529.9999166066489
 21
-270.99992523608444
 31
0.0
  0
LINE
  5
1D8
100
AcDbEntity
  8
IMPORTED
  6
CONTINUOUS
 62
               1
100
AcDbLine
 10
1439.9999167556605
 20
-230.99992538509605
 30
0.0
 11
1479.9999166066489
 21
-230.99992538509605
 31
0.0
  0
LINE
  5
1D9
100
AcDbEntity
  8
IMPORTED
  6
CONTINUOUS
 62
               1
100
AcDbLine
 10
1529.9999166066489
 20
-230.99992538509605
 30
0.0
 11
1569.9999164576373
 21
-230.99992538509605
 31
0.0
  0
LINE
  5
1DA
100
AcDbEntity
  8
IMPORTED
  6
CONTINUOUS
 62
               1
100
AcDbLine
 10
1479.9999166066489
 20
-230.99992538509605
 30
0.0
 11
1529.9999166066489
 21
-230.99992538509605
 31
0.0
  0
SOLID
  5
1DB
100
AcDbEntity
  8
IMPORTED
 62
               1
100
AcDbTrace
 10
1479.9999166066489
 20
-230.99992538509605
 30
0.0
 11
1519.9974752003989
 21
-227.50059243942903
 31
0.0
 12
1519.9974752003989
 22
-234.49925833076307
 32
0.0
 13
1519.9974752003989
 23
-234.49925833076307
 33
0.0
  0
SOLID
  5
1DC
100
AcDbEntity
  8
IMPORTED
 62
               1
100
AcDbTrace
 10
1529.9999166066489
 20
-230.99992538509605
 30
0.0
 11
1490.0023580128989
 21
-234.49925833076307
 31
0.0
 12
1490.0023580128989
 22
-227.50059243942903
 32
0.0
 13
1490.0023580128989
 23
-227.50059243942903
 33
0.0
  0
MTEXT
  5
1DD
100
AcDbEntity
  8
IMPORTED
 62
               1
100
AcDbMText
 10
1483.8332499399821
 20
-172.49643587626855
 30
0.0
 40
32.576822916666664
 41
0.0
 71
               1
 72
               1
  1
50
  7
_______
  0
LINE
  5
1DE
100
AcDbEntity
  8
IMPORTED
  6
CONTINUOUS
 62
               1
100
AcDbLine
 10
1355.9999166066489
 20
801.99997461490386
 30
0.0
 11
1544.9999166066489
 21
651.90596384732135
 31
0.0
  0
LINE
  5
1DF
100
AcDbEntity
  8
IMPORTED
  6
CONTINUOUS
 62
               1
100
AcDbLine
 10
1219.9999166066489
 20
1579.9999743913863
 30
0.0
 11
1219.9999166066489
 21
1849.9999998509884
 31
0.0
  0
LINE
  5
1E0
100
AcDbEntity
  8
IMPORTED
  6
CONTINUOUS
 62
               1
100
AcDbLine
 10
1339.9999166066489
 20
1579.9999743913863
 30
0.0
 11
1339.9999166066489
 21
1849.9999998509884
 31
0.0
  0
LINE
  5
1E1
100
AcDbEntity
  8
IMPORTED
  6
CONTINUOUS
 62
               1
100
AcDbLine
 10
1179.9999167556605
 20
1810.0
 30
0.0
 11
1219.9999166066489
 21
1810.0
 31
0.0
  0
LINE
  5
1E2
100
AcDbEntity
  8
IMPORTED
  6
CONTINUOUS
 62
               1
100
AcDbLine
 10
1339.9999166066489
 20
1810.0
 30
0.0
 11
1379.9999164576373
 21
1810.0
 31
0.0
  0
LINE
  5
1E3
100
AcDbEntity
  8
IMPORTED
  6
CONTINUOUS
 62
               1
100
AcDbLine
 10
1219.9999166066489
 20
1810.0
 30
0.0
 11
1339.9999166066489
 21
1810.0
 31
0.0
  0
SOLID
  5
1E4
100
AcDbEntity
  8
IMPORTED
 62
               1
100
AcDbTrace
 10
1219.9999166066489
 20
1810.0
 30
0.0
 11
1259.9974752003989
 21
1813.499332945667
 31
0.0
 12
1259.9974752003989
 22
1806.500667054333
 32
0.0
 13
1259.9974752003989
 23
1806.500667054333
 33
0.0
  0
SOLID
  5
1E5
100
AcDbEntity
  8
IMPORTED
 62
               1
100
AcDbTrace
 10
1339.9999166066489
 20
1810.0
 30
0.0
 11
1300.0023580128989
 21
1806.500667054333
 31
0.0
 12
1300.0023580128989
 22
1813.499332945667
 32
0.0
 13
1300.0023580128989
 23
1813.499332945667
 33
0.0
  0
MTEXT
  5
1E6
100
AcDbEntity
  8
IMPORTED
 62
               1
100
AcDbMText
 10
1248.2499166066489
 20
1868.5034895088274
 30
0.0
 40
32.576822916666664
 41
0.0
 71
               1
 72
               1
  1
120
  7
_______
  0
LINE
  5
1E7
100
AcDbEntity
  8
IMPORTED
  6
CONTINUOUS
 62
               1
100
AcDbLine
 10
1339.9999166066489
 20
1579.9999743913863
 30
0.0
 11
1339.9999166066489
 21
1849.9999998509884
 31
0.0
  0
LINE
  5
1E8
100
AcDbEntity
  8
IMPORTED
  6
CONTINUOUS
 62
               1
100
AcDbLine
 10
1364.9999166066489
 20
1431.9999743913863
 30
0.0
 11
1364.9999166066489
 21
1849.9999998509884
 31
0.0
  0
LINE
  5
1E9
100
AcDbEntity
  8
IMPORTED
  6
CONTINUOUS
 62
               1
100
AcDbLine
 10
1299.9999167556605
 20
1810.0
 30
0.0
 11
1339.9999166066489
 21
1810.0
 31
0.0
  0
LINE
  5
1EA
100
AcDbEntity
  8
IMPORTED
  6
CONTINUOUS
 62
               1
100
AcDbLine
 10
1364.9999166066489
 20
1810.0
 30
0.0
 11
1404.9999164576373
 21
1810.0
 31
0.0
  0
LINE
  5
1EB
100
AcDbEntity
  8
IMPORTED
  6
CONTINUOUS
 62
               1
100
AcDbLine
 10
1364.9999166066489
 20
1810.0
 30
0.0
 11
1426.3333333333333
 21
1810.0
 31
0.0
  0
LINE
  5
1EC
100
AcDbEntity
  8
IMPORTED
  6
CONTINUOUS
 62
               1
100
AcDbLine
 10
1339.9999166066489
 20
1810.0
 30
0.0
 11
1364.9999166066489
 21
1810.0
 31
0.0
  0
SOLID
  5
1ED
100
AcDbEntity
  8
IMPORTED
 62
               1
100
AcDbTrace
 10
1339.9999166066489
 20
1810.0
 30
0.0
 11
1379.9974752003989
 21
1813.499332945667
 31
0.0
 12
1379.9974752003989
 22
1806.500667054333
 32
0.0
 13
1379.9974752003989
 23
1806.500667054333
 33
0.0
  0
SOLID
  5
1EE
100
AcDbEntity
  8
IMPORTED
 62
               1
100
AcDbTrace
 10
1364.9999166066489
 20
1810.0
 30
0.0
 11
1325.0023580128989
 21
1806.500667054333
 31
0.0
 12
1325.0023580128989
 22
1813.499332945667
 32
0.0
 13
1325.0023580128989
 23
1813.499332945667
 33
0.0
  0
MTEXT
  5
1EF
100
AcDbEntity
  8
IMPORTED
 62
               1
100
AcDbMText
 10
1384.0
 20
1868.5034895088274
 30
0.0
 40
32.576822916666664
 41
0.0
 71
               1
 72
               1
  1
25
  7
_______
  0
CIRCLE
  5
1F0
100
AcDbEntity
  8
IMPORTED
  6
CONTINUOUS
 62
              30
100
AcDbCircle
 10
-969.99998339335082
 20
1259.9999746149037
 30
0.0
 40
6.2999999999999545
  0
POLYLINE
  5
1F1
100
AcDbEntity
  8
IMPORTED
  6
CONTINUOUS
 62
              30
100
AcDb2dPolyline
 66
               1
 10
0.0
 20
0.0
 30
0.0
 70
             129
  0
VERTEX
  5
1F2
100
AcDbEntity
  8
IMPORTED
  6
CONTINUOUS
 62
              30
100
AcDbVertex
100
AcDb2dVertex
 10
-970.94998339335086
 20
1263.9374746149037
 30
0.0
  0
VERTEX
  5
1F3
100
AcDbEntity
  8
IMPORTED
  6
CONTINUOUS
 62
              30
100
AcDbVertex
100
AcDb2dVertex
 10
-969.04998339335077
 20
1263.9374746149037
 30
0.0
  0
VERTEX
  5
1F4
100
AcDbEntity
  8
IMPORTED
  6
CONTINUOUS
 62
              30
100
AcDbVertex
100
AcDb2dVertex
 10
-969.04998339335077
 20
1262.4437246149039
 30
0.0
 42
0.414213562373095
 70
               2
  0
VERTEX
  5
1F5
100
AcDbEntity
  8
IMPORTED
  6
CONTINUOUS
 62
              30
100
AcDbVertex
100
AcDb2dVertex
 10
-967.55623339335079
 20
1260.9499746149038
 30
0.0
  0
VERTEX
  5
1F6
100
AcDbEntity
  8
IMPORTED
  6
CONTINUOUS
 62
              30
100
AcDbVertex
100
AcDb2dVertex
 10
-966.06248339335082
 20
1260.9499746149038
 30
0.0
  0
VERTEX
  5
1F7
100
AcDbEntity
  8
IMPORTED
  6
CONTINUOUS
 62
              30
100
AcDbVertex
100
AcDb2dVertex
 10
-966.06248339335082
 20
1259.0499746149037
 30
0.0
  0
VERTEX
  5
1F8
100
AcDbEntity
  8
IMPORTED
  6
CONTINUOUS
 62
              30
100
AcDbVertex
100
AcDb2dVertex
 10
-967.55623339335079
 20
1259.0499746149037
 30
0.0
 42
0.414213562373095
 70
               2
 50
9.3574199307792870E+17
  0
VERTEX
  5
1F9
100
AcDbEntity
  8
IMPORTED
  6
CONTINUOUS
 62
              30
100
AcDbVertex
100
AcDb2dVertex
 10
-969.04998339335077
 20
1257.5562246149036
 30
0.0
  0
VERTEX
  5
1FA
100
AcDbEntity
  8
IMPORTED
  6
CONTINUOUS
 62
              30
100
AcDbVertex
100
AcDb2dVertex
 10
-969.04998339335077
 20
1256.0624746149037
 30
0.0
  0
VERTEX
  5
1FB
100
AcDbEntity
  8
IMPORTED
  6
CONTINUOUS
 62
              30
100
AcDbVertex
100
AcDb2dVertex
 10
-970.94998339335086
 20
1256.0624746149037
 30
0.0
  0
VERTEX
  5
1FC
100
AcDbEntity
  8
IMPORTED
  6
CONTINUOUS
 62
              30
100
AcDbVertex
100
AcDb2dVertex
 10
-970.94998339335086
 20
1257.5562246149036
 30
0.0
 42
0.414213562373095
 70
               2
  0
VERTEX
  5
1FD
100
AcDbEntity
  8
IMPORTED
  6
CONTINUOUS
 62
              30
100
AcDbVertex
100
AcDb2dVertex
 10
-972.44373339335084
 20
1259.0499746149037
 30
0.0
  0
VERTEX
  5
1FE
100
AcDbEntity
  8
IMPORTED
  6
CONTINUOUS
 62
              30
100
AcDbVertex
100
AcDb2dVertex
 10
-973.93748339335082
 20
1259.0499746149037
 30
0.0
  0
VERTEX
  5
1FF
100
AcDbEntity
  8
IMPORTED
  6
CONTINUOUS
 62
              30
100
AcDbVertex
100
AcDb2dVertex
 10
-973.93748339335082
 20
1260.9499746149038
 30
0.0
  0
VERTEX
  5
200
100
AcDbEntity
  8
IMPORTED
  6
CONTINUOUS
 62
              30
100
AcDbVertex
100
AcDb2dVertex
 10
-972.44373339335084
 20
1260.9499746149038
 30
0.0
 42
0.414213562373095
 70
               2
 50
3.1191399769264294E+17
  0
VERTEX
  5
201
100
AcDbEntity
  8
IMPORTED
  6
CONTINUOUS
 62
              30
100
AcDbVertex
100
AcDb2dVertex
 10
-970.94998339335086
 20
1262.4437246149039
 30
0.0
  0
SEQEND
  5
202
100
AcDbEntity
  8
IMPORTED
  6
CONTINUOUS
 62
              30
  0
CIRCLE
  5
203
100
AcDbEntity
  8
IMPORTED
  6
CONTINUOUS
 62
              30
100
AcDbCircle
 10
-909.99998339335082
 20
1344.9999746149037
 30
0.0
 40
6.2999999999999545
  0
POLYLINE
  5
204
100
AcDbEntity
  8
IMPORTED
  6
CONTINUOUS
 62
              30
100
AcDb2dPolyline
 66
               1
 10
0.0
 20
0.0
 30
0.0
 70
             129
  0
VERTEX
  5
205
100
AcDbEntity
  8
IMPORTED
  6
CONTINUOUS
 62
              30
100
AcDbVertex
100
AcDb2dVertex
 10
-910.94998339335086
 20
1348.9374746149037
 30
0.0
  0
VERTEX
  5
206
100
AcDbEntity
  8
IMPORTED
  6
CONTINUOUS
 62
              30
100
AcDbVertex
100
AcDb2dVertex
 10
-909.04998339335077
 20
1348.9374746149037
 30
0.0
  0
VERTEX
  5
207
100
AcDbEntity
  8
IMPORTED
  6
CONTINUOUS
 62
              30
100
AcDbVertex
100
AcDb2dVertex
 10
-909.04998339335077
 20
1347.4437246149039
 30
0.0
 42
0.414213562373095
 70
               2
  0
VERTEX
  5
208
100
AcDbEntity
  8
IMPORTED
  6
CONTINUOUS
 62
              30
100
AcDbVertex
100
AcDb2dVertex
 10
-907.55623339335079
 20
1345.9499746149038
 30
0.0
  0
VERTEX
  5
209
100
AcDbEntity
  8
IMPORTED
  6
CONTINUOUS
 62
              30
100
AcDbVertex
100
AcDb2dVertex
 10
-906.06248339335082
 20
1345.9499746149038
 30
0.0
  0
VERTEX
  5
20A
100
AcDbEntity
  8
IMPORTED
  6
CONTINUOUS
 62
              30
100
AcDbVertex
100
AcDb2dVertex
 10
-906.06248339335082
 20
1344.0499746149037
 30
0.0
  0
VERTEX
  5
20B
100
AcDbEntity
  8
IMPORTED
  6
CONTINUOUS
 62
              30
100
AcDbVertex
100
AcDb2dVertex
 10
-907.55623339335079
 20
1344.0499746149037
 30
0.0
 42
0.414213562373095
 70
               2
 50
9.3574199307792870E+17
  0
VERTEX
  5
20C
100
AcDbEntity
  8
IMPORTED
  6
CONTINUOUS
 62
              30
100
AcDbVertex
100
AcDb2dVertex
 10
-909.04998339335077
 20
1342.5562246149036
 30
0.0
  0
VERTEX
  5
20D
100
AcDbEntity
  8
IMPORTED
  6
CONTINUOUS
 62
              30
100
AcDbVertex
100
AcDb2dVertex
 10
-909.04998339335077
 20
1341.0624746149037
 30
0.0
  0
VERTEX
  5
20E
100
AcDbEntity
  8
IMPORTED
  6
CONTINUOUS
 62
              30
100
AcDbVertex
100
AcDb2dVertex
 10
-910.94998339335086
 20
1341.0624746149037
 30
0.0
  0
VERTEX
  5
20F
100
AcDbEntity
  8
IMPORTED
  6
CONTINUOUS
 62
              30
100
AcDbVertex
100
AcDb2dVertex
 10
-910.94998339335086
 20
1342.5562246149036
 30
0.0
 42
0.414213562373095
 70
               2
  0
VERTEX
  5
210
100
AcDbEntity
  8
IMPORTED
  6
CONTINUOUS
 62
              30
100
AcDbVertex
100
AcDb2dVertex
 10
-912.44373339335084
 20
1344.0499746149037
 30
0.0
  0
VERTEX
  5
211
100
AcDbEntity
  8
IMPORTED
  6
CONTINUOUS
 62
              30
100
AcDbVertex
100
AcDb2dVertex
 10
-913.93748339335082
 20
1344.0499746149037
 30
0.0
  0
VERTEX
  5
212
100
AcDbEntity
  8
IMPORTED
  6
CONTINUOUS
 62
              30
100
AcDbVertex
100
AcDb2dVertex
 10
-913.93748339335082
 20
1345.9499746149038
 30
0.0
  0
VERTEX
  5
213
100
AcDbEntity
  8
IMPORTED
  6
CONTINUOUS
 62
              30
100
AcDbVertex
100
AcDb2dVertex
 10
-912.44373339335084
 20
1345.9499746149038
 30
0.0
 42
0.414213562373095
 70
               2
 50
3.1191399769264294E+17
  0
VERTEX
  5
214
100
AcDbEntity
  8
IMPORTED
  6
CONTINUOUS
 62
              30
100
AcDbVertex
100
AcDb2dVertex
 10
-910.94998339335086
 20
1347.4437246149039
 30
0.0
  0
SEQEND
  5
215
100
AcDbEntity
  8
IMPORTED
  6
CONTINUOUS
 62
              30
  0
POLYLINE
  5
216
100
AcDbEntity
  8
IMPORTED
  6
CONTINUOUS
 62
              30
100
AcDb2dPolyline
 66
               1
 10
0.0
 20
0.0
 30
0.0
 70
             129
  0
VERTEX
  5
217
100
AcDbEntity
  8
IMPORTED
  6
CONTINUOUS
 62
              30
100
AcDbVertex
100
AcDb2dVertex
 10
1079.9999166066489
 20
424.99997461490392
 30
0.0
  0
VERTEX
  5
218
100
AcDbEntity
  8
IMPORTED
  6
CONTINUOUS
 62
              30
100
AcDbVertex
100
AcDb2dVertex
 10
1479.9999166066489
 20
424.99997461490392
 30
0.0
  0
VERTEX
  5
219
100
AcDbEntity
  8
IMPORTED
  6
CONTINUOUS
 62
              30
100
AcDbVertex
100
AcDb2dVertex
 10
1479.9999166066489
 20
74.999974614903934
 30
0.0
  0
VERTEX
  5
21A
100
AcDbEntity
  8
IMPORTED
  6
CONTINUOUS
 62
              30
100
AcDbVertex
100
AcDb2dVertex
 10
1079.9999166066489
 20
74.999974614903934
 30
0.0
  0
VERTEX
  5
21B
100
AcDbEntity
  8
IMPORTED
  6
CONTINUOUS
 62
              30
100
AcDbVertex
100
AcDb2dVertex
 10
1079.9999166066489
 20
424.99997461490392
 30
0.0
  0
SEQEND
  5
21C
100
AcDbEntity
  8
IMPORTED
  6
CONTINUOUS
 62
              30
  0
LINE
  5
21D
100
AcDbEntity
  8
IMPORTED
  6
CONTINUOUS
 62
              30
100
AcDbLine
 10
1079.9999166066489
 20
305.10757461490391
 30
0.0
 11
1199.892316606649
 21
424.99997461490392
 31
0.0
  0
LINE
  5
21E
100
AcDbEntity
  8
IMPORTED
  6
CONTINUOUS
 62
              30
100
AcDbLine
 10
1079.9999166066489
 20
135.40197461490393
 30
0.0
 11
1369.5979166066491
 21
424.99997461490392
 31
0.0
  0
LINE
  5
21F
100
AcDbEntity
  8
IMPORTED
  6
CONTINUOUS
 62
              30
100
AcDbLine
 10
1189.3035166066491
 20
74.999974614903934
 30
0.0
 11
1479.9999166066489
 21
365.6963746149039
 31
0.0
  0
LINE
  5
220
100
AcDbEntity
  8
IMPORTED
  6
CONTINUOUS
 62
              30
100
AcDbLine
 10
1359.0091166066488
 20
74.999974614903934
 30
0.0
 11
1479.9999166066489
 21
195.99077461490393
 31
0.0
  0
LINE
  5
221
100
AcDbEntity
  8
IMPORTED
  6
CONTINUOUS
 62
              30
100
AcDbLine
 10
1079.9999166066489
 20
324.90657461490389
 30
0.0
 11
1180.0933166066491
 21
424.99997461490392
 31
0.0
  0
LINE
  5
222
100
AcDbEntity
  8
IMPORTED
  6
CONTINUOUS
 62
              30
100
AcDbLine
 10
1079.9999166066489
 20
155.20097461490394
 30
0.0
 11
1349.7989166066488
 21
424.99997461490392
 31
0.0
  0
LINE
  5
223
100
AcDbEntity
  8
IMPORTED
  6
CONTINUOUS
 62
              30
100
AcDbLine
 10
1169.5045166066488
 20
74.999974614903934
 30
0.0
 11
1479.9999166066489
 21
385.49537461490388
 31
0.0
  0
LINE
  5
224
100
AcDbEntity
  8
IMPORTED
  6
CONTINUOUS
 62
              30
100
AcDbLine
 10
1339.2101166066489
 20
74.999974614903934
 30
0.0
 11
1479.9999166066489
 21
215.78977461490393
 31
0.0
  0
LINE
  5
225
100
AcDbEntity
  8
IMPORTED
  6
CONTINUOUS
 62
              30
100
AcDbLine
 10
1079.9999166066489
 20
344.70557461490392
 30
0.0
 11
1160.2943166066489
 21
424.99997461490392
 31
0.0
  0
LINE
  5
226
100
AcDbEntity
  8
IMPORTED
  6
CONTINUOUS
 62
              30
100
AcDbLine
 10
1079.9999166066489
 20
174.99997461490392
 30
0.0
 11
1329.9999166066489
 21
424.99997461490392
 31
0.0
  0
LINE
  5
227
100
AcDbEntity
  8
IMPORTED
  6
CONTINUOUS
 62
              30
100
AcDbLine
 10
1149.7055166066489
 20
74.999974614903934
 30
0.0
 11
1479.9999166066489
 21
405.29437461490392
 31
0.0
  0
LINE
  5
228
100
AcDbEntity
  8
IMPORTED
  6
CONTINUOUS
 62
              30
100
AcDbLine
 10
1319.4111166066489
 20
74.999974614903934
 30
0.0
 11
1479.9999166066489
 21
235.58877461490391
 31
0.0
  0
POLYLINE
  5
229
100
AcDbEntity
  8
IMPORTED
  6
CONTINUOUS
 62
              30
100
AcDb2dPolyline
 66
               1
 10
0.0
 20
0.0
 30
0.0
 70
             129
  0
VERTEX
  5
22A
100
AcDbEntity
  8
IMPORTED
  6
CONTINUOUS
 62
              30
100
AcDbVertex
100
AcDb2dVertex
 10
1029.9999166066491
 20
25.000074614903934
 30
0.0
  0
VERTEX
  5
22B
100
AcDbEntity
  8
IMPORTED
  6
CONTINUOUS
 62
              30
100
AcDbVertex
100
AcDb2dVertex
 10
1529.9999166066489
 20
25.000074614903934
 30
0.0
  0
VERTEX
  5
22C
100
AcDbEntity
  8
IMPORTED
  6
CONTINUOUS
 62
              30
100
AcDbVertex
100
AcDb2dVertex
 10
1529.9999166066489
 20
-74.999925385096049
 30
0.0
  0
VERTEX
  5
22D
100
AcDbEntity
  8
IMPORTED
  6
CONTINUOUS
 62
              30
100
AcDbVertex
100
AcDb2dVertex
 10
1029.9999166066491
 20
-74.999925385096049
 30
0.0
  0
VERTEX
  5
22E
100
AcDbEntity
  8
IMPORTED
  6
CONTINUOUS
 62
              30
100
AcDbVertex
100
AcDb2dVertex
 10
1029.9999166066491
 20
25.000074614903934
 30
0.0
  0
SEQEND
  5
22F
100
AcDbEntity
  8
IMPORTED
  6
CONTINUOUS
 62
              30
  0
POLYLINE
  5
230
100
AcDbEntity
  8
IMPORTED
  6
CONTINUOUS
 62
              30
100
AcDb2dPolyline
 66
               1
 10
0.0
 20
0.0
 30
0.0
 70
             129
  0
VERTEX
  5
231
100
AcDbEntity
  8
IMPORTED
  6
CONTINUOUS
 62
              30
100
AcDbVertex
100
AcDb2dVertex
 10
1029.9999166066491
 20
74.999974614903934
 30
0.0
  0
VERTEX
  5
232
100
AcDbEntity
  8
IMPORTED
  6
CONTINUOUS
 62
              30
100
AcDbVertex
100
AcDb2dVertex
 10
1529.9999166066489
 20
74.999974614903934
 30
0.0
  0
VERTEX
  5
233
100
AcDbEntity
  8
IMPORTED
  6
CONTINUOUS
 62
              30
100
AcDbVertex
100
AcDb2dVertex
 10
1529.9999166066489
 20
24.999974614903937
 30
0.0
  0
VERTEX
  5
234
100
AcDbEntity
  8
IMPORTED
  6
CONTINUOUS
 62
              30
100
AcDbVertex
100
AcDb2dVertex
 10
1029.9999166066491
 20
24.999974614903937
 30
0.0
  0
VERTEX
  5
235
100
AcDbEntity
  8
IMPORTED
  6
CONTINUOUS
 62
              30
100
AcDbVertex
100
AcDb2dVertex
 10
1029.9999166066491
 20
74.999974614903934
 30
0.0
  0
SEQEND
  5
236
100
AcDbEntity
  8
IMPORTED
  6
CONTINUOUS
 62
              30
  0
LINE
  5
237
100
AcDbEntity
  8
IMPORTED
  6
CONTINUOUS
 62
              30
100
AcDbLine
 10
1411.8577166066489
 20
75.175574614903937
 30
0.0
 11
1461.8577166066489
 21
25.175574614903933
 31
0.0
  0
LINE
  5
238
100
AcDbEntity
  8
IMPORTED
  6
CONTINUOUS
 62
              30
100
AcDbLine
 10
1425.9999166066489
 20
75.175574614903937
 30
0.0
 11
1475.9999166066489
 21
25.175574614903933
 31
0.0
  0
LINE
  5
239
100
AcDbEntity
  8
IMPORTED
  6
CONTINUOUS
 62
              30
100
AcDbLine
 10
1261.8577166066489
 20
75.175574614903937
 30
0.0
 11
1311.8577166066489
 21
25.175574614903933
 31
0.0
  0
LINE
  5
23A
100
AcDbEntity
  8
IMPORTED
  6
CONTINUOUS
 62
              30
100
AcDbLine
 10
1275.9999166066489
 20
75.175574614903937
 30
0.0
 11
1325.9999166066489
 21
25.175574614903933
 31
0.0
  0
LINE
  5
23B
100
AcDbEntity
  8
IMPORTED
  6
CONTINUOUS
 62
              30
100
AcDbLine
 10
1111.8577166066489
 20
75.175574614903937
 30
0.0
 11
1161.8577166066489
 21
25.175574614903933
 31
0.0
  0
LINE
  5
23C
100
AcDbEntity
  8
IMPORTED
  6
CONTINUOUS
 62
              30
100
AcDbLine
 10
1125.9999166066489
 20
75.175574614903937
 30
0.0
 11
1175.9999166066489
 21
25.175574614903933
 31
0.0
  0
LINE
  5
23D
100
AcDbEntity
  8
IMPORTED
  6
CONTINUOUS
 62
              30
100
AcDbLine
 10
1475.1287166066488
 20
-74.878725385096047
 30
0.0
 11
1417.393516606649
 21
25.121274614903935
 31
0.0
  0
LINE
  5
23E
100
AcDbEntity
  8
IMPORTED
  6
CONTINUOUS
 62
              30
100
AcDbLine
 10
1431.827316606649
 20
0.1211746149039374
 30
0.0
 11
1446.261116606649
 21
25.121174614903939
 31
0.0
  0
LINE
  5
23F
100
AcDbEntity
  8
IMPORTED
  6
CONTINUOUS
 62
              30
100
AcDbLine
 10
1460.6947166066489
 20
-49.878725385096061
 30
0.0
 11
1446.261116606649
 21
-74.87882538509605
 31
0.0
  0
LINE
  5
240
100
AcDbEntity
  8
IMPORTED
  6
CONTINUOUS
 62
              30
100
AcDbLine
 10
1391.128716606649
 20
-74.878725385096047
 30
0.0
 11
1333.393516606649
 21
25.121274614903935
 31
0.0
  0
LINE
  5
241
100
AcDbEntity
  8
IMPORTED
  6
CONTINUOUS
 62
              30
100
AcDbLine
 10
1347.827316606649
 20
0.1211746149039374
 30
0.0
 11
1362.261116606649
 21
25.121174614903939
 31
0.0
  0
LINE
  5
242
100
AcDbEntity
  8
IMPORTED
  6
CONTINUOUS
 62
              30
100
AcDbLine
 10
1376.6947166066489
 20
-49.878725385096061
 30
0.0
 11
1362.261116606649
 21
-74.87882538509605
 31
0.0
  0
LINE
  5
243
100
AcDbEntity
  8
IMPORTED
  6
CONTINUOUS
 62
              30
100
AcDbLine
 10
1307.128716606649
 20
-74.878725385096047
 30
0.0
 11
1249.393516606649
 21
25.121274614903935
 31
0.0
  0
LINE
  5
244
100
AcDbEntity
  8
IMPORTED
  6
CONTINUOUS
 62
              30
100
AcDbLine
 10
1263.827316606649
 20
0.1211746149039374
 30
0.0
 11
1278.261116606649
 21
25.121174614903939
 31
0.0
  0
LINE
  5
245
100
AcDbEntity
  8
IMPORTED
  6
CONTINUOUS
 62
              30
100
AcDbLine
 10
1292.6947166066489
 20
-49.878725385096061
 30
0.0
 11
1278.261116606649
 21
-74.87882538509605
 31
0.0
  0
LINE
  5
246
100
AcDbEntity
  8
IMPORTED
  6
CONTINUOUS
 62
              30
100
AcDbLine
 10
1223.128716606649
 20
-74.878725385096047
 30
0.0
 11
1165.393516606649
 21
25.121274614903935
 31
0.0
  0
LINE
  5
247
100
AcDbEntity
  8
IMPORTED
  6
CONTINUOUS
 62
              30
100
AcDbLine
 10
1179.827316606649
 20
0.1211746149039374
 30
0.0
 11
1194.261116606649
 21
25.121174614903939
 31
0.0
  0
LINE
  5
248
100
AcDbEntity
  8
IMPORTED
  6
CONTINUOUS
 62
              30
100
AcDbLine
 10
1208.6947166066489
 20
-49.878725385096061
 30
0.0
 11
1194.261116606649
 21
-74.87882538509605
 31
0.0
  0
LINE
  5
249
100
AcDbEntity
  8
IMPORTED
  6
CONTINUOUS
 62
              30
100
AcDbLine
 10
1139.128716606649
 20
-74.878725385096047
 30
0.0
 11
1081.393516606649
 21
25.121274614903935
 31
0.0
  0
LINE
  5
24A
100
AcDbEntity
  8
IMPORTED
  6
CONTINUOUS
 62
              30
100
AcDbLine
 10
1095.827316606649
 20
0.1211746149039374
 30
0.0
 11
1110.261116606649
 21
25.121174614903939
 31
0.0
  0
LINE
  5
24B
100
AcDbEntity
  8
IMPORTED
  6
CONTINUOUS
 62
              30
100
AcDbLine
 10
1124.6947166066489
 20
-49.878725385096061
 30
0.0
 11
1110.261116606649
 21
-74.87882538509605
 31
0.0
  0
POLYLINE
  5
24C
100
AcDbEntity
  8
IMPORTED
  6
CONTINUOUS
 62
              30
100
AcDb2dPolyline
 66
               1
 10
0.0
 20
0.0
 30
0.0
 70
             129
  0
VERTEX
  5
24D
100
AcDbEntity
  8
IMPORTED
  6
CONTINUOUS
 62
              30
100
AcDbVertex
100
AcDb2dVertex
 10
-1139.9999833933509
 20
424.99997461490392
 30
0.0
  0
VERTEX
  5
24E
100
AcDbEntity
  8
IMPORTED
  6
CONTINUOUS
 62
              30
100
AcDbVertex
100
AcDb2dVertex
 10
-739.99998339335082
 20
424.99997461490392
 30
0.0
  0
VERTEX
  5
24F
100
AcDbEntity
  8
IMPORTED
  6
CONTINUOUS
 62
              30
100
AcDbVertex
100
AcDb2dVertex
 10
-739.99998339335082
 20
74.999974614903934
 30
0.0
  0
VERTEX
  5
250
100
AcDbEntity
  8
IMPORTED
  6
CONTINUOUS
 62
              30
100
AcDbVertex
100
AcDb2dVertex
 10
-1139.9999833933509
 20
74.999974614903934
 30
0.0
  0
VERTEX
  5
251
100
AcDbEntity
  8
IMPORTED
  6
CONTINUOUS
 62
              30
100
AcDbVertex
100
AcDb2dVertex
 10
-1139.9999833933509
 20
424.99997461490392
 30
0.0
  0
SEQEND
  5
252
100
AcDbEntity
  8
IMPORTED
  6
CONTINUOUS
 62
              30
  0
LINE
  5
253
100
AcDbEntity
  8
IMPORTED
  6
CONTINUOUS
 62
              30
100
AcDbLine
 10
-1139.9999833933509
 20
305.10757461490391
 30
0.0
 11
-1020.1075833933508
 21
424.99997461490392
 31
0.0
  0
LINE
  5
254
100
AcDbEntity
  8
IMPORTED
  6
CONTINUOUS
 62
              30
100
AcDbLine
 10
-1139.9999833933509
 20
135.40197461490393
 30
0.0
 11
-850.40198339335086
 21
424.99997461490392
 31
0.0
  0
LINE
  5
255
100
AcDbEntity
  8
IMPORTED
  6
CONTINUOUS
 62
              30
100
AcDbLine
 10
-1030.6963833933507
 20
74.999974614903934
 30
0.0
 11
-739.99998339335082
 21
365.6963746149039
 31
0.0
  0
LINE
  5
256
100
AcDbEntity
  8
IMPORTED
  6
CONTINUOUS
 62
              30
100
AcDbLine
 10
-860.99078339335085
 20
74.999974614903934
 30
0.0
 11
-739.99998339335082
 21
195.99077461490393
 31
0.0
  0
LINE
  5
257
100
AcDbEntity
  8
IMPORTED
  6
CONTINUOUS
 62
              30
100
AcDbLine
 10
-1139.9999833933509
 20
324.90657461490389
 30
0.0
 11
-1039.906583393351
 21
424.99997461490392
 31
0.0
  0
LINE
  5
258
100
AcDbEntity
  8
IMPORTED
  6
CONTINUOUS
 62
              30
100
AcDbLine
 10
-1139.9999833933509
 20
155.20097461490394
 30
0.0
 11
-870.20098339335084
 21
424.99997461490392
 31
0.0
  0
LINE
  5
259
100
AcDbEntity
  8
IMPORTED
  6
CONTINUOUS
 62
              30
100
AcDbLine
 10
-1050.4953833933509
 20
74.999974614903934
 30
0.0
 11
-739.99998339335082
 21
385.49537461490388
 31
0.0
  0
LINE
  5
25A
100
AcDbEntity
  8
IMPORTED
  6
CONTINUOUS
 62
              30
100
AcDbLine
 10
-880.78978339335083
 20
74.999974614903934
 30
0.0
 11
-739.99998339335082
 21
215.78977461490393
 31
0.0
  0
LINE
  5
25B
100
AcDbEntity
  8
IMPORTED
  6
CONTINUOUS
 62
              30
100
AcDbLine
 10
-1139.9999833933509
 20
344.70557461490392
 30
0.0
 11
-1059.7055833933509
 21
424.99997461490392
 31
0.0
  0
LINE
  5
25C
100
AcDbEntity
  8
IMPORTED
  6
CONTINUOUS
 62
              30
100
AcDbLine
 10
-1139.9999833933509
 20
174.99997461490392
 30
0.0
 11
-889.99998339335082
 21
424.99997461490392
 31
0.0
  0
LINE
  5
25D
100
AcDbEntity
  8
IMPORTED
  6
CONTINUOUS
 62
              30
100
AcDbLine
 10
-1070.2943833933509
 20
74.999974614903934
 30
0.0
 11
-739.99998339335082
 21
405.29437461490392
 31
0.0
  0
LINE
  5
25E
100
AcDbEntity
  8
IMPORTED
  6
CONTINUOUS
 62
              30
100
AcDbLine
 10
-900.58878339335081
 20
74.999974614903934
 30
0.0
 11
-739.99998339335082
 21
235.58877461490391
 31
0.0
  0
MTEXT
  5
25F
100
AcDbEntity
  8
IMPORTED
 62
              30
100
AcDbMText
 10
-1069.0409833933509
 20
-1587.1883967809972
 30
0.0
 40
65.153671484374996
 41
0.0
 71
               1
 72
               1
  1
平面図
  7
_______
  0
POLYLINE
  5
260
100
AcDbEntity
  8
IMPORTED
  6
CONTINUOUS
 62
              30
100
AcDb2dPolyline
 66
               1
 10
0.0
 20
0.0
 30
0.0
 70
             129
  0
VERTEX
  5
261
100
AcDbEntity
  8
IMPORTED
  6
CONTINUOUS
 62
              30
100
AcDbVertex
100
AcDb2dVertex
 10
-1132.0391833933509
 20
-1564.9999253850958
 30
0.0
  0
VERTEX
  5
262
100
AcDbEntity
  8
IMPORTED
  6
CONTINUOUS
 62
              30
100
AcDbVertex
100
AcDb2dVertex
 10
-732.03918339335087
 20
-1564.9999253850958
 30
0.0
  0
VERTEX
  5
263
100
AcDbEntity
  8
IMPORTED
  6
CONTINUOUS
 62
              30
100
AcDbVertex
100
AcDb2dVertex
 10
-732.03918339335087
 20
-1674.9999253850958
 30
0.0
  0
VERTEX
  5
264
100
AcDbEntity
  8
IMPORTED
  6
CONTINUOUS
 62
              30
100
AcDbVertex
100
AcDb2dVertex
 10
-1132.0391833933509
 20
-1674.9999253850958
 30
0.0
  0
VERTEX
  5
265
100
AcDbEntity
  8
IMPORTED
  6
CONTINUOUS
 62
              30
100
AcDbVertex
100
AcDb2dVertex
 10
-1132.0391833933509
 20
-1564.9999253850958
 30
0.0
  0
SEQEND
  5
266
100
AcDbEntity
  8
IMPORTED
  6
CONTINUOUS
 62
              30
  0
LINE
  5
267
100
AcDbEntity
  8
IMPORTED
  6
CONTINUOUS
 62
              30
100
AcDbLine
 10
869.99991660664898
 20
478.00007461490389
 30
0.0
 11
1669.9999166066489
 21
478.00007461490389
 31
0.0
  0
LINE
  5
268
100
AcDbEntity
  8
IMPORTED
  6
CONTINUOUS
 62
              30
100
AcDbLine
 10
-584.99998339335093
 20
474.99997461490392
 30
0.0
 11
-1319.9999833933509
 21
474.99997461490392
 31
0.0
  0
POLYLINE
  5
269
100
AcDbEntity
  8
IMPORTED
  6
CONTINUOUS
 62
              30
100
AcDb2dPolyline
 66
               1
 10
0.0
 20
0.0
 30
0.0
 70
             129
  0
VERTEX
  5
26A
100
AcDbEntity
  8
IMPORTED
  6
CONTINUOUS
 62
              30
100
AcDbVertex
100
AcDb2dVertex
 10
-1189.9999833933509
 20
25.000074614903934
 30
0.0
  0
VERTEX
  5
26B
100
AcDbEntity
  8
IMPORTED
  6
CONTINUOUS
 62
              30
100
AcDbVertex
100
AcDb2dVertex
 10
-689.99998339335093
 20
25.000074614903934
 30
0.0
  0
VERTEX
  5
26C
100
AcDbEntity
  8
IMPORTED
  6
CONTINUOUS
 62
              30
100
AcDbVertex
100
AcDb2dVertex
 10
-689.99998339335093
 20
-74.999925385096049
 30
0.0
  0
VERTEX
  5
26D
100
AcDbEntity
  8
IMPORTED
  6
CONTINUOUS
 62
              30
100
AcDbVertex
100
AcDb2dVertex
 10
-1189.9999833933509
 20
-74.999925385096049
 30
0.0
  0
VERTEX
  5
26E
100
AcDbEntity
  8
IMPORTED
  6
CONTINUOUS
 62
              30
100
AcDbVertex
100
AcDb2dVertex
 10
-1189.9999833933509
 20
25.000074614903934
 30
0.0
  0
SEQEND
  5
26F
100
AcDbEntity
  8
IMPORTED
  6
CONTINUOUS
 62
              30
  0
POLYLINE
  5
270
100
AcDbEntity
  8
IMPORTED
  6
CONTINUOUS
 62
              30
100
AcDb2dPolyline
 66
               1
 10
0.0
 20
0.0
 30
0.0
 70
             129
  0
VERTEX
  5
271
100
AcDbEntity
  8
IMPORTED
  6
CONTINUOUS
 62
              30
100
AcDbVertex
100
AcDb2dVertex
 10
-1189.9999833933509
 20
74.999974614903934
 30
0.0
  0
VERTEX
  5
272
100
AcDbEntity
  8
IMPORTED
  6
CONTINUOUS
 62
              30
100
AcDbVertex
100
AcDb2dVertex
 10
-689.99998339335093
 20
74.999974614903934
 30
0.0
  0
VERTEX
  5
273
100
AcDbEntity
  8
IMPORTED
  6
CONTINUOUS
 62
              30
100
AcDbVertex
100
AcDb2dVertex
 10
-689.99998339335093
 20
24.999974614903937
 30
0.0
  0
VERTEX
  5
274
100
AcDbEntity
  8
IMPORTED
  6
CONTINUOUS
 62
              30
100
AcDbVertex
100
AcDb2dVertex
 10
-1189.9999833933509
 20
24.999974614903937
 30
0.0
  0
VERTEX
  5
275
100
AcDbEntity
  8
IMPORTED
  6
CONTINUOUS
 62
              30
100
AcDbVertex
100
AcDb2dVertex
 10
-1189.9999833933509
 20
74.999974614903934
 30
0.0
  0
SEQEND
  5
276
100
AcDbEntity
  8
IMPORTED
  6
CONTINUOUS
 62
              30
  0
LINE
  5
277
100
AcDbEntity
  8
IMPORTED
  6
CONTINUOUS
 62
              30
100
AcDbLine
 10
-808.14218339335082
 20
75.175574614903937
 30
0.0
 11
-758.14218339335082
 21
25.175574614903933
 31
0.0
  0
LINE
  5
278
100
AcDbEntity
  8
IMPORTED
  6
CONTINUOUS
 62
              30
100
AcDbLine
 10
-793.99998339335082
 20
75.175574614903937
 30
0.0
 11
-743.99998339335082
 21
25.175574614903933
 31
0.0
  0
LINE
  5
279
100
AcDbEntity
  8
IMPORTED
  6
CONTINUOUS
 62
              30
100
AcDbLine
 10
-958.14218339335082
 20
75.175574614903937
 30
0.0
 11
-908.14218339335082
 21
25.175574614903933
 31
0.0
  0
LINE
  5
27A
100
AcDbEntity
  8
IMPORTED
  6
CONTINUOUS
 62
              30
100
AcDbLine
 10
-943.99998339335082
 20
75.175574614903937
 30
0.0
 11
-893.99998339335082
 21
25.175574614903933
 31
0.0
  0
LINE
  5
27B
100
AcDbEntity
  8
IMPORTED
  6
CONTINUOUS
 62
              30
100
AcDbLine
 10
-1108.1421833933509
 20
75.175574614903937
 30
0.0
 11
-1058.1421833933509
 21
25.175574614903933
 31
0.0
  0
LINE
  5
27C
100
AcDbEntity
  8
IMPORTED
  6
CONTINUOUS
 62
              30
100
AcDbLine
 10
-1093.9999833933509
 20
75.175574614903937
 30
0.0
 11
-1043.9999833933509
 21
25.175574614903933
 31
0.0
  0
LINE
  5
27D
100
AcDbEntity
  8
IMPORTED
  6
CONTINUOUS
 62
              30
100
AcDbLine
 10
-744.87118339335086
 20
-74.878725385096047
 30
0.0
 11
-802.60638339335082
 21
25.121274614903935
 31
0.0
  0
LINE
  5
27E
100
AcDbEntity
  8
IMPORTED
  6
CONTINUOUS
 62
              30
100
AcDbLine
 10
-788.17258339335092
 20
0.1211746149039374
 30
0.0
 11
-773.7387833933509
 21
25.121174614903939
 31
0.0
  0
LINE
  5
27F
100
AcDbEntity
  8
IMPORTED
  6
CONTINUOUS
 62
              30
100
AcDbLine
 10
-759.30518339335083
 20
-49.878725385096061
 30
0.0
 11
-773.7387833933509
 21
-74.87882538509605
 31
0.0
  0
LINE
  5
280
100
AcDbEntity
  8
IMPORTED
  6
CONTINUOUS
 62
              30
100
AcDbLine
 10
-828.87118339335086
 20
-74.878725385096047
 30
0.0
 11
-886.60638339335082
 21
25.121274614903935
 31
0.0
  0
LINE
  5
281
100
AcDbEntity
  8
IMPORTED
  6
CONTINUOUS
 62
              30
100
AcDbLine
 10
-872.17258339335081
 20
0.1211746149039374
 30
0.0
 11
-857.7387833933509
 21
25.121174614903939
 31
0.0
  0
LINE
  5
282
100
AcDbEntity
  8
IMPORTED
  6
CONTINUOUS
 62
              30
100
AcDbLine
 10
-843.30518339335083
 20
-49.878725385096061
 30
0.0
 11
-857.7387833933509
 21
-74.87882538509605
 31
0.0
  0
LINE
  5
283
100
AcDbEntity
  8
IMPORTED
  6
CONTINUOUS
 62
              30
100
AcDbLine
 10
-912.87118339335086
 20
-74.878725385096047
 30
0.0
 11
-970.60638339335082
 21
25.121274614903935
 31
0.0
  0
LINE
  5
284
100
AcDbEntity
  8
IMPORTED
  6
CONTINUOUS
 62
              30
100
AcDbLine
 10
-956.17258339335081
 20
0.1211746149039374
 30
0.0
 11
-941.7387833933509
 21
25.121174614903939
 31
0.0
  0
LINE
  5
285
100
AcDbEntity
  8
IMPORTED
  6
CONTINUOUS
 62
              30
100
AcDbLine
 10
-927.30518339335083
 20
-49.878725385096061
 30
0.0
 11
-941.7387833933509
 21
-74.87882538509605
 31
0.0
  0
LINE
  5
286
100
AcDbEntity
  8
IMPORTED
  6
CONTINUOUS
 62
              30
100
AcDbLine
 10
-996.87118339335086
 20
-74.878725385096047
 30
0.0
 11
-1054.6063833933508
 21
25.121274614903935
 31
0.0
  0
LINE
  5
287
100
AcDbEntity
  8
IMPORTED
  6
CONTINUOUS
 62
              30
100
AcDbLine
 10
-1040.1725833933508
 20
0.1211746149039374
 30
0.0
 11
-1025.7387833933508
 21
25.121174614903939
 31
0.0
  0
LINE
  5
288
100
AcDbEntity
  8
IMPORTED
  6
CONTINUOUS
 62
              30
100
AcDbLine
 10
-1011.3051833933508
 20
-49.878725385096061
 30
0.0
 11
-1025.7387833933508
 21
-74.87882538509605
 31
0.0
  0
LINE
  5
289
100
AcDbEntity
  8
IMPORTED
  6
CONTINUOUS
 62
              30
100
AcDbLine
 10
-1080.8711833933507
 20
-74.878725385096047
 30
0.0
 11
-1138.6063833933508
 21
25.121274614903935
 31
0.0
  0
LINE
  5
28A
100
AcDbEntity
  8
IMPORTED
  6
CONTINUOUS
 62
              30
100
AcDbLine
 10
-1124.1725833933508
 20
0.1211746149039374
 30
0.0
 11
-1109.7387833933508
 21
25.121174614903939
 31
0.0
  0
LINE
  5
28B
100
AcDbEntity
  8
IMPORTED
  6
CONTINUOUS
 62
              30
100
AcDbLine
 10
-1095.3051833933509
 20
-49.878725385096061
 30
0.0
 11
-1109.7387833933508
 21
-74.87882538509605
 31
0.0
  0
MTEXT
  5
28C
100
AcDbEntity
  8
IMPORTED
 62
              30
100
AcDbMText
 10
-1071.8993833933509
 20
-427.18839678099761
 30
0.0
 40
65.153671484374996
 41
0.0
 71
               1
 72
               1
  1
正面図
  7
_______
  0
POLYLINE
  5
28D
100
AcDbEntity
  8
IMPORTED
  6
CONTINUOUS
 62
              30
100
AcDb2dPolyline
 66
               1
 10
0.0
 20
0.0
 30
0.0
 70
             129
  0
VERTEX
  5
28E
100
AcDbEntity
  8
IMPORTED
  6
CONTINUOUS
 62
              30
100
AcDbVertex
100
AcDb2dVertex
 10
-1134.8975833933509
 20
-404.99992538509605
 30
0.0
  0
VERTEX
  5
28F
100
AcDbEntity
  8
IMPORTED
  6
CONTINUOUS
 62
              30
100
AcDbVertex
100
AcDb2dVertex
 10
-734.89758339335083
 20
-404.99992538509605
 30
0.0
  0
VERTEX
  5
290
100
AcDbEntity
  8
IMPORTED
  6
CONTINUOUS
 62
              30
100
AcDbVertex
100
AcDb2dVertex
 10
-734.89758339335083
 20
-514.99992538509605
 30
0.0
  0
VERTEX
  5
291
100
AcDbEntity
  8
IMPORTED
  6
CONTINUOUS
 62
              30
100
AcDbVertex
100
AcDb2dVertex
 10
-1134.8975833933509
 20
-514.99992538509605
 30
0.0
  0
VERTEX
  5
292
100
AcDbEntity
  8
IMPORTED
  6
CONTINUOUS
 62
              30
100
AcDbVertex
100
AcDb2dVertex
 10
-1134.8975833933509
 20
-404.99992538509605
 30
0.0
  0
SEQEND
  5
293
100
AcDbEntity
  8
IMPORTED
  6
CONTINUOUS
 62
              30
  0
MTEXT
  5
294
100
AcDbEntity
  8
IMPORTED
 62
              30
100
AcDbMText
 10
1147.9982166066491
 20
-427.18839678099761
 30
0.0
 40
65.153671484374996
 41
0.0
 71
               1
 72
               1
  1
側面図
  7
_______
  0
POLYLINE
  5
295
100
AcDbEntity
  8
IMPORTED
  6
CONTINUOUS
 62
              30
100
AcDb2dPolyline
 66
               1
 10
0.0
 20
0.0
 30
0.0
 70
             129
  0
VERTEX
  5
296
100
AcDbEntity
  8
IMPORTED
  6
CONTINUOUS
 62
              30
100
AcDbVertex
100
AcDb2dVertex
 10
1084.9999166066489
 20
-404.99992538509605
 30
0.0
  0
VERTEX
  5
297
100
AcDbEntity
  8
IMPORTED
  6
CONTINUOUS
 62
              30
100
AcDbVertex
100
AcDb2dVertex
 10
1484.9999166066489
 20
-404.99992538509605
 30
0.0
  0
VERTEX
  5
298
100
AcDbEntity
  8
IMPORTED
  6
CONTINUOUS
 62
              30
100
AcDbVertex
100
AcDb2dVertex
 10
1484.9999166066489
 20
-514.99992538509605
 30
0.0
  0
VERTEX
  5
299
100
AcDbEntity
  8
IMPORTED
  6
CONTINUOUS
 62
              30
100
AcDbVertex
100
AcDb2dVertex
 10
1084.9999166066489
 20
-514.99992538509605
 30
0.0
  0
VERTEX
  5
29A
100
AcDbEntity
  8
IMPORTED
  6
CONTINUOUS
 62
              30
100
AcDbVertex
100
AcDb2dVertex
 10
1084.9999166066489
 20
-404.99992538509605
 30
0.0
  0
SEQEND
  5
29B
100
AcDbEntity
  8
IMPORTED
  6
CONTINUOUS
 62
              30
  0
MTEXT
  5
29C
100
AcDbEntity
  8
IMPORTED
 62
              30
100
AcDbMText
 10
-1290.8555833933508
 20
549.67359767740379
 30
0.0
 40
54.2947390625
 41
0.0
 71
               1
 72
               1
  1
▽GL
  7
_______
  0
POLYLINE
  5
29D
100
AcDbEntity
  8
IMPORTED
  6
STYLE_05
 62
              30
100
AcDb2dPolyline
 66
               1
 10
0.0
 20
0.0
 30
0.0
 70
             129
  0
VERTEX
  5
29E
100
AcDbEntity
  8
IMPORTED
  6
STYLE_05
 62
              30
100
AcDbVertex
100
AcDb2dVertex
 10
-1129.9999833933509
 20
-1022.6666253850959
 30
0.0
  0
VERTEX
  5
29F
100
AcDbEntity
  8
IMPORTED
  6
STYLE_05
 62
              30
100
AcDbVertex
100
AcDb2dVertex
 10
-729.99998339335082
 20
-1022.6666253850959
 30
0.0
  0
VERTEX
  5
2A0
100
AcDbEntity
  8
IMPORTED
  6
STYLE_05
 62
              30
100
AcDbVertex
100
AcDb2dVertex
 10
-729.99998339335082
 20
-1422.666625385096
 30
0.0
  0
VERTEX
  5
2A1
100
AcDbEntity
  8
IMPORTED
  6
STYLE_05
 62
              30
100
AcDbVertex
100
AcDb2dVertex
 10
-1129.9999833933509
 20
-1422.666625385096
 30
0.0
  0
VERTEX
  5
2A2
100
AcDbEntity
  8
IMPORTED
  6
STYLE_05
 62
              30
100
AcDbVertex
100
AcDb2dVertex
 10
-1129.9999833933509
 20
-1022.6666253850959
 30
0.0
  0
SEQEND
  5
2A3
100
AcDbEntity
  8
IMPORTED
  6
STYLE_05
 62
              30
  0
POLYLINE
  5
2A4
100
AcDbEntity
  8
IMPORTED
  6
STYLE_05
 62
              30
100
AcDb2dPolyline
 66
               1
 10
0.0
 20
0.0
 30
0.0
 70
             129
  0
VERTEX
  5
2A5
100
AcDbEntity
  8
IMPORTED
  6
STYLE_05
 62
              30
100
AcDbVertex
100
AcDb2dVertex
 10
-1179.9999833933509
 20
-972.66662538509593
 30
0.0
  0
VERTEX
  5
2A6
100
AcDbEntity
  8
IMPORTED
  6
STYLE_05
 62
              30
100
AcDbVertex
100
AcDb2dVertex
 10
-679.99998339335093
 20
-972.66662538509593
 30
0.0
  0
VERTEX
  5
2A7
100
AcDbEntity
  8
IMPORTED
  6
STYLE_05
 62
              30
100
AcDbVertex
100
AcDb2dVertex
 10
-679.99998339335093
 20
-1472.666625385096
 30
0.0
  0
VERTEX
  5
2A8
100
AcDbEntity
  8
IMPORTED
  6
STYLE_05
 62
              30
100
AcDbVertex
100
AcDb2dVertex
 10
-1179.9999833933509
 20
-1472.666625385096
 30
0.0
  0
VERTEX
  5
2A9
100
AcDbEntity
  8
IMPORTED
  6
STYLE_05
 62
              30
100
AcDbVertex
100
AcDb2dVertex
 10
-1179.9999833933509
 20
-972.66662538509593
 30
0.0
  0
SEQEND
  5
2AA
100
AcDbEntity
  8
IMPORTED
  6
STYLE_05
 62
              30
  0
POLYLINE
  5
2AB
100
AcDbEntity
  8
IMPORTED
  6
STYLE_01
 62
              30
100
AcDb2dPolyline
 66
               1
 10
0.0
 20
0.0
 30
0.0
 70
             129
  0
VERTEX
  5
2AC
100
AcDbEntity
  8
IMPORTED
  6
STYLE_01
 62
              30
100
AcDbVertex
100
AcDb2dVertex
 10
1367.9999166066489
 20
1374.9999746149037
 30
0.0
  0
VERTEX
  5
2AD
100
AcDbEntity
  8
IMPORTED
  6
STYLE_01
 62
              30
100
AcDbVertex
100
AcDb2dVertex
 10
1364.9999166066489
 20
1374.9999746149037
 30
0.0
  0
VERTEX
  5
2AE
100
AcDbEntity
  8
IMPORTED
  6
STYLE_01
 62
              30
100
AcDbVertex
100
AcDb2dVertex
 10
1364.9999166066489
 20
774.99997461490386
 30
0.0
  0
VERTEX
  5
2AF
100
AcDbEntity
  8
IMPORTED
  6
STYLE_01
 62
              30
100
AcDbVertex
100
AcDb2dVertex
 10
1367.9999166066489
 20
774.99997461490386
 30
0.0
  0
VERTEX
  5
2B0
100
AcDbEntity
  8
IMPORTED
  6
STYLE_01
 62
              30
100
AcDbVertex
100
AcDb2dVertex
 10
1367.9999166066489
 20
1374.9999746149037
 30
0.0
  0
SEQEND
  5
2B1
100
AcDbEntity
  8
IMPORTED
  6
STYLE_01
 62
              30
  0
MTEXT
  5
2B2
100
AcDbEntity
  8
IMPORTED
 62
              30
100
AcDbMText
 10
894.25141660664895
 20
548.26719767740383
 30
0.0
 40
54.2947390625
 41
0.0
 71
               1
 72
               1
  1
▽GL
  7
_______
  0
POLYLINE
  5
2B3
100
AcDbEntity
  8
IMPORTED
  6
CONTINUOUS
 62
              30
100
AcDb2dPolyline
 66
               1
 10
0.0
 20
0.0
 30
0.0
 70
             129
  0
VERTEX
  5
2B4
100
AcDbEntity
  8
IMPORTED
  6
CONTINUOUS
 62
              30
100
AcDbVertex
100
AcDb2dVertex
 10
-3893.9999833933507
 20
2750.9999746149037
 30
0.0
  0
VERTEX
  5
2B5
100
AcDbEntity
  8
IMPORTED
  6
CONTINUOUS
 62
              30
100
AcDbVertex
100
AcDb2dVertex
 10
3906.0000166066488
 20
2750.9999746149037
 30
0.0
  0
VERTEX
  5
2B6
100
AcDbEntity
  8
IMPORTED
  6
CONTINUOUS
 62
              30
100
AcDbVertex
100
AcDb2dVertex
 10
3906.0000166066488
 20
-2749.0000253850958
 30
0.0
  0
VERTEX
  5
2B7
100
AcDbEntity
  8
IMPORTED
  6
CONTINUOUS
 62
              30
100
AcDbVertex
100
AcDb2dVertex
 10
-3893.9999833933507
 20
-2749.0000253850958
 30
0.0
  0
VERTEX
  5
2B8
100
AcDbEntity
  8
IMPORTED
  6
CONTINUOUS
 62
              30
100
AcDbVertex
100
AcDb2dVertex
 10
-3893.9999833933507
 20
2750.9999746149037
 30
0.0
  0
SEQEND
  5
2B9
100
AcDbEntity
  8
IMPORTED
  6
CONTINUOUS
 62
              30
  0
MTEXT
  5
2BA
100
AcDbEntity
  8
IMPORTED
 62
              30
100
AcDbMText
 10
2463.7360166066487
 20
2330.7388976774037
 30
0.0
 40
54.2947390625
 41
0.0
 71
               1
 72
               1
  1
記　　号
  7
_______
  0
MTEXT
  5
2BB
100
AcDbEntity
  8
IMPORTED
 62
              30
100
AcDbMText
 10
3216.4110166066489
 20
2334.6168976774038
 30
0.0
 40
54.2947390625
 41
0.0
 71
               1
 72
               1
  1
S-022
  7
_______
  0
MTEXT
  5
2BC
100
AcDbEntity
  8
IMPORTED
 62
              30
100
AcDbMText
 10
2463.7360166066487
 20
1972.6778976774037
 30
0.0
 40
54.2947390625
 41
0.0
 71
               1
 72
               1
  1
縮　　尺
  7
_______
  0
MTEXT
  5
2BD
100
AcDbEntity
  8
IMPORTED
 62
              30
100
AcDbMText
 10
2463.7360166066487
 20
2510.7388976774037
 30
0.0
 40
54.2947390625
 41
0.0
 71
               1
 72
               1
  1
仕　　様
  7
_______
  0
MTEXT
  5
2BE
100
AcDbEntity
  8
IMPORTED
 62
              30
100
AcDbMText
 10
2463.7360166066487
 20
2692.677897677404
 30
0.0
 40
54.2947390625
 41
0.0
 71
               1
 72
               1
  1
品　　名
  7
_______
  0
MTEXT
  5
2BF
100
AcDbEntity
  8
IMPORTED
 62
              30
100
AcDbMText
 10
3075.1260166066486
 20
2690.7388976774037
 30
0.0
 40
54.2947390625
 41
0.0
 71
               1
 72
               1
  1
ＥＳＷ案内板
  7
_______
  0
LINE
  5
2C0
100
AcDbEntity
  8
IMPORTED
  6
CONTINUOUS
 62
              30
100
AcDbLine
 10
-3893.9999833933507
 20
-2448.999925385096
 30
0.0
 11
3906.0000166066488
 21
-2448.999925385096
 31
0.0
  0
MTEXT
  5
2C1
100
AcDbEntity
  8
IMPORTED
 62
              30
100
AcDbMText
 10
2324.7270166066487
 20
-2537.6505566350957
 30
0.0
 40
97.73046875
 41
0.0
 71
               1
 72
               1
  1
イー・トップ株式会社
  7
_______
  0
MTEXT
  5
2C2
100
AcDbEntity
  8
IMPORTED
 62
              30
100
AcDbMText
 10
2965.3550166066489
 20
2511.331897677404
 30
0.0
 40
54.2947390625
 41
0.0
 71
               1
 72
               1
  1
ＥＩＮスーパーウッド
  7
_______
  0
LINE
  5
2C3
100
AcDbEntity
  8
IMPORTED
  6
CONTINUOUS
 62
              30
100
AcDbLine
 10
3905.9999166066486
 20
2570.9999746149037
 30
0.0
 11
2405.9999166066486
 21
2570.9999746149037
 31
0.0
  0
LINE
  5
2C4
100
AcDbEntity
  8
IMPORTED
  6
CONTINUOUS
 62
              30
100
AcDbLine
 10
3905.9999166066486
 20
2390.9999746149037
 30
0.0
 11
2405.9999166066486
 21
2390.9999746149037
 31
0.0
  0
LINE
  5
2C5
100
AcDbEntity
  8
IMPORTED
  6
CONTINUOUS
 62
              30
100
AcDbLine
 10
3905.9999166066486
 20
2210.9999746149037
 30
0.0
 11
2405.9999166066486
 21
2210.9999746149037
 31
0.0
  0
LINE
  5
2C6
100
AcDbEntity
  8
IMPORTED
  6
CONTINUOUS
 62
              30
100
AcDbLine
 10
3905.9999166066486
 20
2030.9999746149037
 30
0.0
 11
2405.9999166066486
 21
2030.9999746149037
 31
0.0
  0
LINE
  5
2C7
100
AcDbEntity
  8
IMPORTED
  6
CONTINUOUS
 62
              30
100
AcDbLine
 10
3905.9999166066486
 20
1850.9999746149037
 30
0.0
 11
2405.9999166066486
 21
1850.9999746149037
 31
0.0
  0
LINE
  5
2C8
100
AcDbEntity
  8
IMPORTED
  6
CONTINUOUS
 62
              30
100
AcDbLine
 10
2805.9999166066486
 20
2750.9999746149037
 30
0.0
 11
2805.9999166066486
 21
1850.9999746149037
 31
0.0
  0
LINE
  5
2C9
100
AcDbEntity
  8
IMPORTED
  6
CONTINUOUS
 62
              30
100
AcDbLine
 10
2405.9999166066486
 20
2750.9999746149037
 30
0.0
 11
2405.9999166066486
 21
1850.9999746149037
 31
0.0
  0
MTEXT
  5
2CA
100
AcDbEntity
  8
IMPORTED
 62
              30
100
AcDbMText
 10
3128.2870166066486
 20
2154.6168976774038
 30
0.0
 40
54.2947390625
 41
0.0
 71
               1
 72
               1
  1
W600×H600
  7
_______
  0
MTEXT
  5
2CB
100
AcDbEntity
  8
IMPORTED
 62
              30
100
AcDbMText
 10
2463.7360166066487
 20
2150.7388976774037
 30
0.0
 40
54.2947390625
 41
0.0
 71
               1
 72
               1
  1
規格寸法
  7
_______
  0
POLYLINE
  5
2CC
100
AcDbEntity
  8
IMPORTED
  6
CONTINUOUS
 62
              30
100
AcDb2dPolyline
 66
               1
 10
0.0
 20
0.0
 30
0.0
 70
             129
  0
VERTEX
  5
2CD
100
AcDbEntity
  8
IMPORTED
  6
CONTINUOUS
 62
              30
100
AcDbVertex
100
AcDb2dVertex
 10
1219.9999166066489
 20
424.99997461490392
 30
0.0
  0
VERTEX
  5
2CE
100
AcDbEntity
  8
IMPORTED
  6
CONTINUOUS
 62
              30
100
AcDbVertex
100
AcDb2dVertex
 10
1339.9999166066489
 20
424.99997461490392
 30
0.0
  0
VERTEX
  5
2CF
100
AcDbEntity
  8
IMPORTED
  6
CONTINUOUS
 62
              30
100
AcDbVertex
100
AcDb2dVertex
 10
1339.9999166066489
 20
74.999974614903934
 30
0.0
  0
VERTEX
  5
2D0
100
AcDbEntity
  8
IMPORTED
  6
CONTINUOUS
 62
              30
100
AcDbVertex
100
AcDb2dVertex
 10
1219.9999166066489
 20
74.999974614903934
 30
0.0
  0
SEQEND
  5
2D1
100
AcDbEntity
  8
IMPORTED
  6
CONTINUOUS
 62
              30
  0
LINE
  5
2D2
100
AcDbEntity
  8
IMPORTED
  6
CONTINUOUS
 62
              30
100
AcDbLine
 10
1219.9999166066489
 20
424.50477461490391
 30
0.0
 11
1220.4951166066489
 21
424.99997461490392
 31
0.0
  0
LINE
  5
2D3
100
AcDbEntity
  8
IMPORTED
  6
CONTINUOUS
 62
              30
100
AcDbLine
 10
1220.0000166066491
 20
336.11647461490389
 30
0.0
 11
1308.883416606649
 21
424.99987461490389
 31
0.0
  0
LINE
  5
2D4
100
AcDbEntity
  8
IMPORTED
  6
CONTINUOUS
 62
              30
100
AcDbLine
 10
1219.9999166066489
 20
247.7280746149039
 30
0.0
 11
1339.9999166066489
 21
367.7280746149039
 31
0.0
  0
LINE
  5
2D5
100
AcDbEntity
  8
IMPORTED
  6
CONTINUOUS
 62
              30
100
AcDbLine
 10
1219.9999166066489
 20
159.33987461490392
 30
0.0
 11
1339.9999166066489
 21
279.33987461490392
 31
0.0
  0
LINE
  5
2D6
100
AcDbEntity
  8
IMPORTED
  6
CONTINUOUS
 62
              30
100
AcDbLine
 10
1224.048416606649
 20
75.000074614903937
 30
0.0
 11
1339.9998166066489
 21
190.95147461490393
 31
0.0
  0
LINE
  5
2D7
100
AcDbEntity
  8
IMPORTED
  6
CONTINUOUS
 62
              30
100
AcDbLine
 10
1312.436716606649
 20
74.999974614903934
 30
0.0
 11
1339.9999166066489
 21
102.56317461490393
 31
0.0
  0
LINE
  5
2D8
100
AcDbEntity
  8
IMPORTED
  6
CONTINUOUS
 62
              30
100
AcDbLine
 10
1250.8252166066491
 20
75.000074614903937
 30
0.0
 11
1220.0000166066491
 21
105.82527461490393
 31
0.0
  0
LINE
  5
2D9
100
AcDbEntity
  8
IMPORTED
  6
CONTINUOUS
 62
              30
100
AcDbLine
 10
1339.2135166066489
 20
74.999974614903934
 30
0.0
 11
1219.9999166066489
 21
194.21357461490393
 31
0.0
  0
LINE
  5
2DA
100
AcDbEntity
  8
IMPORTED
  6
CONTINUOUS
 62
              30
100
AcDbLine
 10
1339.9999166066489
 20
162.60197461490392
 30
0.0
 11
1219.9999166066489
 21
282.6019746149039
 31
0.0
  0
LINE
  5
2DB
100
AcDbEntity
  8
IMPORTED
  6
CONTINUOUS
 62
              30
100
AcDbLine
 10
1339.9999166066489
 20
250.99017461490394
 30
0.0
 11
1219.9999166066489
 21
370.99017461490394
 31
0.0
  0
LINE
  5
2DC
100
AcDbEntity
  8
IMPORTED
  6
CONTINUOUS
 62
              30
100
AcDbLine
 10
1339.9999166066489
 20
339.37857461490393
 30
0.0
 11
1254.3785166066489
 21
424.99997461490392
 31
0.0
  0
LINE
  5
2DD
100
AcDbEntity
  8
IMPORTED
  6
CONTINUOUS
 62
              30
100
AcDbLine
 10
-1000.4950833933508
 20
424.50477461490391
 30
0.0
 11
-999.99988339335084
 21
424.99997461490392
 31
0.0
  0
LINE
  5
2DE
100
AcDbEntity
  8
IMPORTED
  6
CONTINUOUS
 62
              30
100
AcDbLine
 10
-1000.4949833933508
 20
336.11647461490389
 30
0.0
 11
-911.61158339335088
 21
424.99987461490389
 31
0.0
  0
LINE
  5
2DF
100
AcDbEntity
  8
IMPORTED
  6
CONTINUOUS
 62
              30
100
AcDbLine
 10
-1000.4950833933508
 20
247.7280746149039
 30
0.0
 11
-880.49508339335091
 21
367.7280746149039
 31
0.0
  0
LINE
  5
2E0
100
AcDbEntity
  8
IMPORTED
  6
CONTINUOUS
 62
              30
100
AcDbLine
 10
-1000.4950833933508
 20
159.33987461490392
 30
0.0
 11
-880.49508339335091
 21
279.33987461490392
 31
0.0
  0
LINE
  5
2E1
100
AcDbEntity
  8
IMPORTED
  6
CONTINUOUS
 62
              30
100
AcDbLine
 10
-996.44658339335081
 20
75.000074614903937
 30
0.0
 11
-880.49518339335089
 21
190.95147461490393
 31
0.0
  0
LINE
  5
2E2
100
AcDbEntity
  8
IMPORTED
  6
CONTINUOUS
 62
              30
100
AcDbLine
 10
-908.05828339335085
 20
74.999974614903934
 30
0.0
 11
-880.49508339335091
 21
102.56317461490393
 31
0.0
  0
LINE
  5
2E3
100
AcDbEntity
  8
IMPORTED
  6
CONTINUOUS
 62
              30
100
AcDbLine
 10
-969.66978339335083
 20
75.000074614903937
 30
0.0
 11
-1000.4949833933508
 21
105.82527461490393
 31
0.0
  0
LINE
  5
2E4
100
AcDbEntity
  8
IMPORTED
  6
CONTINUOUS
 62
              30
100
AcDbLine
 10
-881.28148339335087
 20
74.999974614903934
 30
0.0
 11
-1000.4950833933508
 21
194.21357461490393
 31
0.0
  0
LINE
  5
2E5
100
AcDbEntity
  8
IMPORTED
  6
CONTINUOUS
 62
              30
100
AcDbLine
 10
-880.49508339335091
 20
162.60197461490392
 30
0.0
 11
-1000.4950833933508
 21
282.6019746149039
 31
0.0
  0
LINE
  5
2E6
100
AcDbEntity
  8
IMPORTED
  6
CONTINUOUS
 62
              30
100
AcDbLine
 10
-880.49508339335091
 20
250.99017461490394
 30
0.0
 11
-1000.4950833933508
 21
370.99017461490394
 31
0.0
  0
LINE
  5
2E7
100
AcDbEntity
  8
IMPORTED
  6
CONTINUOUS
 62
              30
100
AcDbLine
 10
-880.49508339335091
 20
339.37857461490393
 30
0.0
 11
-966.1164833933509
 21
424.99997461490392
 31
0.0
  0
MTEXT
  5
2E8
100
AcDbEntity
  8
IMPORTED
 62
              30
100
AcDbMText
 10
3181.416016606649
 20
1970.7388976774039
 30
0.0
 40
54.2947390625
 41
0.0
 71
               1
 72
               1
  1
1：20(A3)
  7
_______
  0
LINE
  5
2E9
100
AcDbEntity
  8
IMPORTED
  6
CONTINUOUS
 62
              30
100
AcDbLine
 10
1219.9999166066489
 20
1519.9999746149037
 30
0.0
 11
1339.9999166066489
 21
1519.9999746149037
 31
0.0
  0
LINE
  5
2EA
100
AcDbEntity
  8
IMPORTED
  6
CONTINUOUS
 62
              30
100
AcDbLine
 10
1334.9999166066489
 20
1524.9999746149037
 30
0.0
 11
1334.9999166066489
 21
74.999974614903934
 31
0.0
  0
LINE
  5
2EB
100
AcDbEntity
  8
IMPORTED
  6
CONTINUOUS
 62
              30
100
AcDbLine
 10
1224.9999166066489
 20
74.999974614903934
 30
0.0
 11
1224.9999166066489
 21
1524.9999746149037
 31
0.0
  0
POLYLINE
  5
2EC
100
AcDbEntity
  8
IMPORTED
  6
CONTINUOUS
 62
              30
100
AcDb2dPolyline
 66
               1
 10
0.0
 20
0.0
 30
0.0
 70
             129
  0
VERTEX
  5
2ED
100
AcDbEntity
  8
IMPORTED
  6
CONTINUOUS
 62
              30
100
AcDbVertex
100
AcDb2dVertex
 10
1224.9999166066489
 20
1524.9999746149037
 30
0.0
  0
VERTEX
  5
2EE
100
AcDbEntity
  8
IMPORTED
  6
CONTINUOUS
 62
              30
100
AcDbVertex
100
AcDb2dVertex
 10
1334.9999166066489
 20
1524.9999746149037
 30
0.0
  0
VERTEX
  5
2EF
100
AcDbEntity
  8
IMPORTED
  6
CONTINUOUS
 62
              30
100
AcDbVertex
100
AcDb2dVertex
 10
1339.9999166066489
 20
1519.9999746149037
 30
0.0
  0
VERTEX
  5
2F0
100
AcDbEntity
  8
IMPORTED
  6
CONTINUOUS
 62
              30
100
AcDbVertex
100
AcDb2dVertex
 10
1339.9999166066489
 20
74.999974614903934
 30
0.0
  0
VERTEX
  5
2F1
100
AcDbEntity
  8
IMPORTED
  6
CONTINUOUS
 62
              30
100
AcDbVertex
100
AcDb2dVertex
 10
1219.9999166066489
 20
74.999974614903934
 30
0.0
  0
VERTEX
  5
2F2
100
AcDbEntity
  8
IMPORTED
  6
CONTINUOUS
 62
              30
100
AcDbVertex
100
AcDb2dVertex
 10
1219.9999166066489
 20
1519.9999746149037
 30
0.0
  0
SEQEND
  5
2F3
100
AcDbEntity
  8
IMPORTED
  6
CONTINUOUS
 62
              30
  0
POLYLINE
  5
2F4
100
AcDbEntity
  8
IMPORTED
  6
CONTINUOUS
 62
              30
100
AcDb2dPolyline
 66
               1
 10
0.0
 20
0.0
 30
0.0
 70
             128
  0
VERTEX
  5
2F5
100
AcDbEntity
  8
IMPORTED
  6
CONTINUOUS
 62
              30
100
AcDbVertex
100
AcDb2dVertex
 10
-879.99998339335082
 20
774.99997461490386
 30
0.0
  0
VERTEX
  5
2F6
100
AcDbEntity
  8
IMPORTED
  6
CONTINUOUS
 62
              30
100
AcDbVertex
100
AcDb2dVertex
 10
-879.99998339335082
 20
74.999974614903934
 30
0.0
  0
VERTEX
  5
2F7
100
AcDbEntity
  8
IMPORTED
  6
CONTINUOUS
 62
              30
100
AcDbVertex
100
AcDb2dVertex
 10
-999.99998339335082
 20
74.999974614903934
 30
0.0
  0
VERTEX
  5
2F8
100
AcDbEntity
  8
IMPORTED
  6
CONTINUOUS
 62
              30
100
AcDbVertex
100
AcDb2dVertex
 10
-999.99998339335082
 20
774.99997461490386
 30
0.0
  0
SEQEND
  5
2F9
100
AcDbEntity
  8
IMPORTED
  6
CONTINUOUS
 62
              30
  0
LINE
  5
2FA
100
AcDbEntity
  8
IMPORTED
  6
CONTINUOUS
 62
              30
100
AcDbLine
 10
-999.99998339335082
 20
1519.9999746149037
 30
0.0
 11
-879.99998339335082
 21
1519.9999746149037
 31
0.0
  0
LINE
  5
2FB
100
AcDbEntity
  8
IMPORTED
  6
CONTINUOUS
 62
              30
100
AcDbLine
 10
-994.99998339335082
 20
74.999974614903934
 30
0.0
 11
-994.99998339335082
 21
774.99997461490386
 31
0.0
  0
LINE
  5
2FC
100
AcDbEntity
  8
IMPORTED
  6
CONTINUOUS
 62
              30
100
AcDbLine
 10
-884.99998339335082
 20
1524.9999746149037
 30
0.0
 11
-884.99998339335082
 21
1374.9999746149037
 31
0.0
  0
POLYLINE
  5
2FD
100
AcDbEntity
  8
IMPORTED
  6
STYLE_01
 62
              30
100
AcDb2dPolyline
 66
               1
 10
0.0
 20
0.0
 30
0.0
 70
             129
  0
VERTEX
  5
2FE
100
AcDbEntity
  8
IMPORTED
  6
STYLE_01
 62
              30
100
AcDbVertex
100
AcDb2dVertex
 10
-1229.9999833933509
 20
-1307.666625385096
 30
0.0
  0
VERTEX
  5
2FF
100
AcDbEntity
  8
IMPORTED
  6
STYLE_01
 62
              30
100
AcDbVertex
100
AcDb2dVertex
 10
-629.99998339335093
 20
-1307.666625385096
 30
0.0
  0
VERTEX
  5
300
100
AcDbEntity
  8
IMPORTED
  6
STYLE_01
 62
              30
100
AcDbVertex
100
AcDb2dVertex
 10
-629.99998339335093
 20
-1310.666625385096
 30
0.0
  0
VERTEX
  5
301
100
AcDbEntity
  8
IMPORTED
  6
STYLE_01
 62
              30
100
AcDbVertex
100
AcDb2dVertex
 10
-1229.9999833933509
 20
-1310.666625385096
 30
0.0
  0
SEQEND
  5
302
100
AcDbEntity
  8
IMPORTED
  6
STYLE_01
 62
              30
  0
LINE
  5
303
100
AcDbEntity
  8
IMPORTED
  6
CONTINUOUS
 62
              30
100
AcDbLine
 10
-884.99998339335082
 20
774.99997461490386
 30
0.0
 11
-884.99998339335082
 21
74.999974614903934
 31
0.0
  0
LINE
  5
304
100
AcDbEntity
  8
IMPORTED
  6
CONTINUOUS
 62
              30
100
AcDbLine
 10
-999.99998339335082
 20
919.99997461490386
 30
0.0
 11
-999.99998339335082
 21
1229.9999746149037
 31
0.0
  0
LINE
  5
305
100
AcDbEntity
  8
IMPORTED
  6
CONTINUOUS
 62
              30
100
AcDbLine
 10
-994.99998339335082
 20
919.99997461490386
 30
0.0
 11
-994.99998339335082
 21
1229.9999746149037
 31
0.0
  0
POLYLINE
  5
306
100
AcDbEntity
  8
IMPORTED
  6
CONTINUOUS
 62
              30
100
AcDb2dPolyline
 66
               1
 10
0.0
 20
0.0
 30
0.0
 70
             128
  0
VERTEX
  5
307
100
AcDbEntity
  8
IMPORTED
  6
CONTINUOUS
 62
              30
100
AcDbVertex
100
AcDb2dVertex
 10
-999.99998339335082
 20
1374.9999746149037
 30
0.0
  0
VERTEX
  5
308
100
AcDbEntity
  8
IMPORTED
  6
CONTINUOUS
 62
              30
100
AcDbVertex
100
AcDb2dVertex
 10
-999.99998339335082
 20
1519.9999746149037
 30
0.0
  0
VERTEX
  5
309
100
AcDbEntity
  8
IMPORTED
  6
CONTINUOUS
 62
              30
100
AcDbVertex
100
AcDb2dVertex
 10
-994.99998339335082
 20
1524.9999746149037
 30
0.0
  0
VERTEX
  5
30A
100
AcDbEntity
  8
IMPORTED
  6
CONTINUOUS
 62
              30
100
AcDbVertex
100
AcDb2dVertex
 10
-884.99998339335082
 20
1524.9999746149037
 30
0.0
  0
VERTEX
  5
30B
100
AcDbEntity
  8
IMPORTED
  6
CONTINUOUS
 62
              30
100
AcDbVertex
100
AcDb2dVertex
 10
-879.99998339335082
 20
1519.9999746149037
 30
0.0
  0
VERTEX
  5
30C
100
AcDbEntity
  8
IMPORTED
  6
CONTINUOUS
 62
              30
100
AcDbVertex
100
AcDb2dVertex
 10
-879.99998339335082
 20
1374.9999746149037
 30
0.0
  0
SEQEND
  5
30D
100
AcDbEntity
  8
IMPORTED
  6
CONTINUOUS
 62
              30
  0
LINE
  5
30E
100
AcDbEntity
  8
IMPORTED
  6
CONTINUOUS
 62
              30
100
AcDbLine
 10
-994.99998339335082
 20
1374.9999746149037
 30
0.0
 11
-994.99998339335082
 21
1524.9999746149037
 31
0.0
  0
LINE
  5
30F
100
AcDbEntity
  8
IMPORTED
  6
CONTINUOUS
 62
              30
100
AcDbLine
 10
-879.99998339335082
 20
1229.9999746149037
 30
0.0
 11
-879.99998339335082
 21
919.99997461490386
 31
0.0
  0
LINE
  5
310
100
AcDbEntity
  8
IMPORTED
  6
CONTINUOUS
 62
              30
100
AcDbLine
 10
-884.99998339335082
 20
1229.9999746149037
 30
0.0
 11
-884.99998339335082
 21
919.99997461490386
 31
0.0
  0
POLYLINE
  5
311
100
AcDbEntity
  8
IMPORTED
  6
STYLE_01
 62
              30
100
AcDb2dPolyline
 66
               1
 10
0.0
 20
0.0
 30
0.0
 70
               1
 75
               5
  0
VERTEX
  5
312
100
AcDbEntity
  8
IMPORTED
  6
STYLE_01
 62
              30
100
AcDbVertex
100
AcDb2dVertex
 10
-642.99998339335093
 20
774.99997461490386
 30
0.0
  0
VERTEX
  5
313
100
AcDbEntity
  8
IMPORTED
  6
STYLE_01
 62
              30
100
AcDbVertex
100
AcDb2dVertex
 10
-639.99998339335093
 20
777.99997461490386
 30
0.0
  0
VERTEX
  5
314
100
AcDbEntity
  8
IMPORTED
  6
STYLE_01
 62
              30
100
AcDbVertex
100
AcDb2dVertex
 10
-639.99998339335093
 20
1371.9999746149037
 30
0.0
  0
VERTEX
  5
315
100
AcDbEntity
  8
IMPORTED
  6
STYLE_01
 62
              30
100
AcDbVertex
100
AcDb2dVertex
 10
-642.99998339335093
 20
1374.9999746149037
 30
0.0
  0
VERTEX
  5
316
100
AcDbEntity
  8
IMPORTED
  6
STYLE_01
 62
              30
100
AcDbVertex
100
AcDb2dVertex
 10
-1236.9999833933509
 20
1374.9999746149037
 30
0.0
  0
VERTEX
  5
317
100
AcDbEntity
  8
IMPORTED
  6
STYLE_01
 62
              30
100
AcDbVertex
100
AcDb2dVertex
 10
-1239.9999833933509
 20
1371.9999746149037
 30
0.0
  0
VERTEX
  5
318
100
AcDbEntity
  8
IMPORTED
  6
STYLE_01
 62
              30
100
AcDbVertex
100
AcDb2dVertex
 10
-1239.9999833933509
 20
777.99997461490386
 30
0.0
  0
VERTEX
  5
319
100
AcDbEntity
  8
IMPORTED
  6
STYLE_01
 62
              30
100
AcDbVertex
100
AcDb2dVertex
 10
-1236.9999833933509
 20
774.99997461490386
 30
0.0
  0
SEQEND
  5
31A
100
AcDbEntity
  8
IMPORTED
  6
STYLE_01
 62
              30
  0
POLYLINE
  5
31C
100
AcDbEntity
  8
IMPORTED
  6
CONTINUOUS
 62
              30
100
AcDb2dPolyline
 66
               1
 10
0.0
 20
0.0
 30
0.0
 70
               1
 75
               5
  0
VERTEX
  5
31D
100
AcDbEntity
  8
IMPORTED
  6
CONTINUOUS
 62
              30
100
AcDbVertex
100
AcDb2dVertex
 10
-642.99998339335093
 20
1374.9999746149037
 30
0.0
  0
VERTEX
  5
31E
100
AcDbEntity
  8
IMPORTED
  6
CONTINUOUS
 62
              30
100
AcDbVertex
100
AcDb2dVertex
 10
-1236.9999833933509
 20
1374.9999746149037
 30
0.0
  0
VERTEX
  5
31F
100
AcDbEntity
  8
IMPORTED
  6
CONTINUOUS
 62
              30
100
AcDbVertex
100
AcDb2dVertex
 10
-1239.9999833933509
 20
1371.9999746149037
 30
0.0
  0
VERTEX
  5
320
100
AcDbEntity
  8
IMPORTED
  6
CONTINUOUS
 62
              30
100
AcDbVertex
100
AcDb2dVertex
 10
-1239.9999833933509
 20
1232.9999746149037
 30
0.0
  0
VERTEX
  5
321
100
AcDbEntity
  8
IMPORTED
  6
CONTINUOUS
 62
              30
100
AcDbVertex
100
AcDb2dVertex
 10
-1236.9999833933509
 20
1229.9999746149037
 30
0.0
  0
VERTEX
  5
322
100
AcDbEntity
  8
IMPORTED
  6
CONTINUOUS
 62
              30
100
AcDbVertex
100
AcDb2dVertex
 10
-642.99998339335093
 20
1229.9999746149037
 30
0.0
  0
VERTEX
  5
323
100
AcDbEntity
  8
IMPORTED
  6
CONTINUOUS
 62
              30
100
AcDbVertex
100
AcDb2dVertex
 10
-639.99998339335093
 20
1232.9999746149037
 30
0.0
  0
VERTEX
  5
324
100
AcDbEntity
  8
IMPORTED
  6
CONTINUOUS
 62
              30
100
AcDbVertex
100
AcDb2dVertex
 10
-639.99998339335093
 20
1371.9999746149037
 30
0.0
  0
SEQEND
  5
325
100
AcDbEntity
  8
IMPORTED
  6
CONTINUOUS
 62
              30
  0
LINE
  5
327
100
AcDbEntity
  8
IMPORTED
  6
STYLE_05
 62
              30
100
AcDbLine
 10
-999.99998339335082
 20
1374.9999746149037
 30
0.0
 11
-999.99998339335082
 21
1229.9999746149037
 31
0.0
  0
LINE
  5
328
100
AcDbEntity
  8
IMPORTED
  6
STYLE_05
 62
              30
100
AcDbLine
 10
-994.99998339335082
 20
1374.9999746149037
 30
0.0
 11
-994.99998339335082
 21
1229.9999746149037
 31
0.0
  0
LINE
  5
329
100
AcDbEntity
  8
IMPORTED
  6
STYLE_05
 62
              30
100
AcDbLine
 10
-884.99998339335082
 20
1374.9999746149037
 30
0.0
 11
-884.99998339335082
 21
1229.9999746149037
 31
0.0
  0
LINE
  5
32A
100
AcDbEntity
  8
IMPORTED
  6
STYLE_05
 62
              30
100
AcDbLine
 10
-879.99998339335082
 20
1374.9999746149037
 30
0.0
 11
-879.99998339335082
 21
1229.9999746149037
 31
0.0
  0
LINE
  5
32B
100
AcDbEntity
  8
IMPORTED
  6
CONTINUOUS
 62
              30
100
AcDbLine
 10
-1236.9999833933509
 20
1374.9999746149037
 30
0.0
 11
-1236.9999833933509
 21
1229.9999746149037
 31
0.0
  0
LINE
  5
32C
100
AcDbEntity
  8
IMPORTED
  6
CONTINUOUS
 62
              30
100
AcDbLine
 10
-642.99998339335093
 20
1229.9999746149037
 30
0.0
 11
-642.99998339335093
 21
1374.9999746149037
 31
0.0
  0
LINE
  5
32D
100
AcDbEntity
  8
IMPORTED
  6
CONTINUOUS
 62
              30
100
AcDbLine
 10
-639.99998339335093
 20
1371.9999746149037
 30
0.0
 11
-1239.9999833933509
 21
1371.9999746149037
 31
0.0
  0
LINE
  5
32E
100
AcDbEntity
  8
IMPORTED
  6
CONTINUOUS
 62
              30
100
AcDbLine
 10
-1239.9999833933509
 20
1232.9999746149037
 30
0.0
 11
-639.99998339335093
 21
1232.9999746149037
 31
0.0
  0
POLYLINE
  5
32F
100
AcDbEntity
  8
IMPORTED
  6
CONTINUOUS
 62
              30
100
AcDb2dPolyline
 66
               1
 10
0.0
 20
0.0
 30
0.0
 70
               1
 75
               5
  0
VERTEX
  5
330
100
AcDbEntity
  8
IMPORTED
  6
CONTINUOUS
 62
              30
100
AcDbVertex
100
AcDb2dVertex
 10
-639.99998339335093
 20
919.99997461490386
 30
0.0
  0
VERTEX
  5
331
100
AcDbEntity
  8
IMPORTED
  6
CONTINUOUS
 62
              30
100
AcDbVertex
100
AcDb2dVertex
 10
-1239.9999833933509
 20
919.99997461490386
 30
0.0
  0
VERTEX
  5
332
100
AcDbEntity
  8
IMPORTED
  6
CONTINUOUS
 62
              30
100
AcDbVertex
100
AcDb2dVertex
 10
-1239.9999833933509
 20
777.99997461490386
 30
0.0
  0
VERTEX
  5
333
100
AcDbEntity
  8
IMPORTED
  6
CONTINUOUS
 62
              30
100
AcDbVertex
100
AcDb2dVertex
 10
-1236.9999833933509
 20
774.99997461490386
 30
0.0
  0
VERTEX
  5
334
100
AcDbEntity
  8
IMPORTED
  6
CONTINUOUS
 62
              30
100
AcDbVertex
100
AcDb2dVertex
 10
-642.99998339335093
 20
774.99997461490386
 30
0.0
  0
VERTEX
  5
335
100
AcDbEntity
  8
IMPORTED
  6
CONTINUOUS
 62
              30
100
AcDbVertex
100
AcDb2dVertex
 10
-639.99998339335093
 20
777.99997461490386
 30
0.0
  0
SEQEND
  5
336
100
AcDbEntity
  8
IMPORTED
  6
CONTINUOUS
 62
              30
  0
LINE
  5
338
100
AcDbEntity
  8
IMPORTED
  6
CONTINUOUS
 62
              30
100
AcDbLine
 10
-642.99998339335093
 20
919.99997461490386
 30
0.0
 11
-639.99998339335093
 21
916.99997461490386
 31
0.0
  0
LINE
  5
339
100
AcDbEntity
  8
IMPORTED
  6
CONTINUOUS
 62
              30
100
AcDbLine
 10
-1236.9999833933509
 20
919.99997461490386
 30
0.0
 11
-1239.9999833933509
 21
916.99997461490386
 31
0.0
  0
LINE
  5
33A
100
AcDbEntity
  8
IMPORTED
  6
STYLE_05
 62
              30
100
AcDbLine
 10
-994.99998339335082
 20
919.99997461490386
 30
0.0
 11
-994.99998339335082
 21
774.99997461490386
 31
0.0
  0
LINE
  5
33B
100
AcDbEntity
  8
IMPORTED
  6
STYLE_05
 62
              30
100
AcDbLine
 10
-999.99998339335082
 20
919.99997461490386
 30
0.0
 11
-999.99998339335082
 21
774.99997461490386
 31
0.0
  0
LINE
  5
33C
100
AcDbEntity
  8
IMPORTED
  6
STYLE_05
 62
              30
100
AcDbLine
 10
-879.99998339335082
 20
919.99997461490386
 30
0.0
 11
-879.99998339335082
 21
774.99997461490386
 31
0.0
  0
LINE
  5
33D
100
AcDbEntity
  8
IMPORTED
  6
STYLE_05
 62
              30
100
AcDbLine
 10
-884.99998339335082
 20
919.99997461490386
 30
0.0
 11
-884.99998339335082
 21
774.99997461490386
 31
0.0
  0
LINE
  5
33E
100
AcDbEntity
  8
IMPORTED
  6
CONTINUOUS
 62
              30
100
AcDbLine
 10
-1239.9999833933509
 20
916.99997461490386
 30
0.0
 11
-639.99998339335093
 21
916.99997461490386
 31
0.0
  0
LINE
  5
33F
100
AcDbEntity
  8
IMPORTED
  6
CONTINUOUS
 62
              30
100
AcDbLine
 10
-1239.9999833933509
 20
777.99997461490386
 30
0.0
 11
-639.99998339335093
 21
777.99997461490386
 31
0.0
  0
LINE
  5
340
100
AcDbEntity
  8
IMPORTED
  6
CONTINUOUS
 62
              30
100
AcDbLine
 10
-642.99998339335093
 20
774.99997461490386
 30
0.0
 11
-642.99998339335093
 21
916.99997461490386
 31
0.0
  0
LINE
  5
341
100
AcDbEntity
  8
IMPORTED
  6
CONTINUOUS
 62
              30
100
AcDbLine
 10
-1236.9999833933509
 20
774.99997461490386
 30
0.0
 11
-1236.9999833933509
 21
919.99997461490386
 31
0.0
  0
POLYLINE
  5
342
100
AcDbEntity
  8
IMPORTED
  6
CONTINUOUS
 62
              30
100
AcDb2dPolyline
 66
               1
 10
0.0
 20
0.0
 30
0.0
 70
               1
 75
               5
  0
VERTEX
  5
343
100
AcDbEntity
  8
IMPORTED
  6
CONTINUOUS
 62
              30
100
AcDbVertex
100
AcDb2dVertex
 10
1339.9999166066489
 20
1371.9999746149037
 30
0.0
  0
VERTEX
  5
344
100
AcDbEntity
  8
IMPORTED
  6
CONTINUOUS
 62
              30
100
AcDbVertex
100
AcDb2dVertex
 10
1339.9999166066489
 20
1232.9999746149037
 30
0.0
  0
VERTEX
  5
345
100
AcDbEntity
  8
IMPORTED
  6
CONTINUOUS
 62
              30
100
AcDbVertex
100
AcDb2dVertex
 10
1342.9999166066489
 20
1229.9999746149037
 30
0.0
  0
VERTEX
  5
346
100
AcDbEntity
  8
IMPORTED
  6
CONTINUOUS
 62
              30
100
AcDbVertex
100
AcDb2dVertex
 10
1361.9999166066489
 20
1229.9999746149037
 30
0.0
  0
VERTEX
  5
347
100
AcDbEntity
  8
IMPORTED
  6
CONTINUOUS
 62
              30
100
AcDbVertex
100
AcDb2dVertex
 10
1364.9999166066489
 20
1232.9999746149037
 30
0.0
  0
VERTEX
  5
348
100
AcDbEntity
  8
IMPORTED
  6
CONTINUOUS
 62
              30
100
AcDbVertex
100
AcDb2dVertex
 10
1364.9999166066489
 20
1371.9999746149037
 30
0.0
  0
VERTEX
  5
349
100
AcDbEntity
  8
IMPORTED
  6
CONTINUOUS
 62
              30
100
AcDbVertex
100
AcDb2dVertex
 10
1361.9999166066489
 20
1374.9999746149037
 30
0.0
  0
VERTEX
  5
34A
100
AcDbEntity
  8
IMPORTED
  6
CONTINUOUS
 62
              30
100
AcDbVertex
100
AcDb2dVertex
 10
1342.9999166066489
 20
1374.9999746149037
 30
0.0
  0
SEQEND
  5
34B
100
AcDbEntity
  8
IMPORTED
  6
CONTINUOUS
 62
              30
  0
LINE
  5
34D
100
AcDbEntity
  8
IMPORTED
  6
CONTINUOUS
 62
              30
100
AcDbLine
 10
1339.9999166066489
 20
1371.9999746149037
 30
0.0
 11
1364.9999166066489
 21
1371.9999746149037
 31
0.0
  0
LINE
  5
34E
100
AcDbEntity
  8
IMPORTED
  6
CONTINUOUS
 62
              30
100
AcDbLine
 10
1361.9999166066489
 20
1374.9999746149037
 30
0.0
 11
1361.9999166066489
 21
1229.9999746149037
 31
0.0
  0
LINE
  5
34F
100
AcDbEntity
  8
IMPORTED
  6
CONTINUOUS
 62
              30
100
AcDbLine
 10
1342.9999166066489
 20
1229.9999746149037
 30
0.0
 11
1342.9999166066489
 21
1374.9999746149037
 31
0.0
  0
LINE
  5
350
100
AcDbEntity
  8
IMPORTED
  6
CONTINUOUS
 62
              30
100
AcDbLine
 10
1339.9999166066489
 20
1232.9999746149037
 30
0.0
 11
1364.9999166066489
 21
1232.9999746149037
 31
0.0
  0
POLYLINE
  5
351
100
AcDbEntity
  8
IMPORTED
  6
CONTINUOUS
 62
              30
100
AcDb2dPolyline
 66
               1
 10
0.0
 20
0.0
 30
0.0
 70
               1
 75
               5
  0
VERTEX
  5
352
100
AcDbEntity
  8
IMPORTED
  6
CONTINUOUS
 62
              30
100
AcDbVertex
100
AcDb2dVertex
 10
1339.9999166066489
 20
916.99997461490386
 30
0.0
  0
VERTEX
  5
353
100
AcDbEntity
  8
IMPORTED
  6
CONTINUOUS
 62
              30
100
AcDbVertex
100
AcDb2dVertex
 10
1339.9999166066489
 20
777.99997461490386
 30
0.0
  0
VERTEX
  5
354
100
AcDbEntity
  8
IMPORTED
  6
CONTINUOUS
 62
              30
100
AcDbVertex
100
AcDb2dVertex
 10
1342.9999166066489
 20
774.99997461490386
 30
0.0
  0
VERTEX
  5
355
100
AcDbEntity
  8
IMPORTED
  6
CONTINUOUS
 62
              30
100
AcDbVertex
100
AcDb2dVertex
 10
1361.9999166066489
 20
774.99997461490386
 30
0.0
  0
VERTEX
  5
356
100
AcDbEntity
  8
IMPORTED
  6
CONTINUOUS
 62
              30
100
AcDbVertex
100
AcDb2dVertex
 10
1364.9999166066489
 20
777.99997461490386
 30
0.0
  0
VERTEX
  5
357
100
AcDbEntity
  8
IMPORTED
  6
CONTINUOUS
 62
              30
100
AcDbVertex
100
AcDb2dVertex
 10
1364.9999166066489
 20
916.99997461490386
 30
0.0
  0
VERTEX
  5
358
100
AcDbEntity
  8
IMPORTED
  6
CONTINUOUS
 62
              30
100
AcDbVertex
100
AcDb2dVertex
 10
1361.9999166066489
 20
919.99997461490386
 30
0.0
  0
VERTEX
  5
359
100
AcDbEntity
  8
IMPORTED
  6
CONTINUOUS
 62
              30
100
AcDbVertex
100
AcDb2dVertex
 10
1342.9999166066489
 20
919.99997461490386
 30
0.0
  0
SEQEND
  5
35A
100
AcDbEntity
  8
IMPORTED
  6
CONTINUOUS
 62
              30
  0
LINE
  5
35C
100
AcDbEntity
  8
IMPORTED
  6
CONTINUOUS
 62
              30
100
AcDbLine
 10
1339.9999166066489
 20
916.99997461490386
 30
0.0
 11
1364.9999166066489
 21
916.99997461490386
 31
0.0
  0
LINE
  5
35D
100
AcDbEntity
  8
IMPORTED
  6
CONTINUOUS
 62
              30
100
AcDbLine
 10
1361.9999166066489
 20
919.99997461490386
 30
0.0
 11
1361.9999166066489
 21
774.99997461490386
 31
0.0
  0
LINE
  5
35E
100
AcDbEntity
  8
IMPORTED
  6
CONTINUOUS
 62
              30
100
AcDbLine
 10
1342.9999166066489
 20
774.99997461490386
 30
0.0
 11
1342.9999166066489
 21
919.99997461490386
 31
0.0
  0
LINE
  5
35F
100
AcDbEntity
  8
IMPORTED
  6
CONTINUOUS
 62
              30
100
AcDbLine
 10
1339.9999166066489
 20
777.99997461490386
 30
0.0
 11
1364.9999166066489
 21
777.99997461490386
 31
0.0
  0
POLYLINE
  5
360
100
AcDbEntity
  8
IMPORTED
  6
CONTINUOUS
 62
              30
100
AcDb2dPolyline
 66
               1
 10
0.0
 20
0.0
 30
0.0
 70
               1
 75
               5
  0
VERTEX
  5
361
100
AcDbEntity
  8
IMPORTED
  6
CONTINUOUS
 62
              30
100
AcDbVertex
100
AcDb2dVertex
 10
-629.99998339335093
 20
-1285.666625385096
 30
0.0
  0
VERTEX
  5
362
100
AcDbEntity
  8
IMPORTED
  6
CONTINUOUS
 62
              30
100
AcDbVertex
100
AcDb2dVertex
 10
-632.99998339335093
 20
-1282.666625385096
 30
0.0
  0
VERTEX
  5
363
100
AcDbEntity
  8
IMPORTED
  6
CONTINUOUS
 62
              30
100
AcDbVertex
100
AcDb2dVertex
 10
-1226.9999833933509
 20
-1282.666625385096
 30
0.0
  0
VERTEX
  5
364
100
AcDbEntity
  8
IMPORTED
  6
CONTINUOUS
 62
              30
100
AcDbVertex
100
AcDb2dVertex
 10
-1229.9999833933509
 20
-1285.666625385096
 30
0.0
  0
VERTEX
  5
365
100
AcDbEntity
  8
IMPORTED
  6
CONTINUOUS
 62
              30
100
AcDbVertex
100
AcDb2dVertex
 10
-1229.9999833933509
 20
-1304.666625385096
 30
0.0
  0
VERTEX
  5
366
100
AcDbEntity
  8
IMPORTED
  6
CONTINUOUS
 62
              30
100
AcDbVertex
100
AcDb2dVertex
 10
-1226.9999833933509
 20
-1307.666625385096
 30
0.0
  0
VERTEX
  5
367
100
AcDbEntity
  8
IMPORTED
  6
CONTINUOUS
 62
              30
100
AcDbVertex
100
AcDb2dVertex
 10
-632.99998339335093
 20
-1307.666625385096
 30
0.0
  0
VERTEX
  5
368
100
AcDbEntity
  8
IMPORTED
  6
CONTINUOUS
 62
              30
100
AcDbVertex
100
AcDb2dVertex
 10
-629.99998339335093
 20
-1304.666625385096
 30
0.0
  0
SEQEND
  5
369
100
AcDbEntity
  8
IMPORTED
  6
CONTINUOUS
 62
              30
  0
LINE
  5
36B
100
AcDbEntity
  8
IMPORTED
  6
CONTINUOUS
 62
              30
100
AcDbLine
 10
-1226.9999833933509
 20
-1282.666625385096
 30
0.0
 11
-1226.9999833933509
 21
-1307.666625385096
 31
0.0
  0
LINE
  5
36C
100
AcDbEntity
  8
IMPORTED
  6
CONTINUOUS
 62
              30
100
AcDbLine
 10
-632.99998339335093
 20
-1282.666625385096
 30
0.0
 11
-632.99998339335093
 21
-1307.666625385096
 31
0.0
  0
LINE
  5
36D
100
AcDbEntity
  8
IMPORTED
  6
CONTINUOUS
 62
              30
100
AcDbLine
 10
-629.99998339335093
 20
-1304.666625385096
 30
0.0
 11
-1229.9999833933509
 21
-1304.666625385096
 31
0.0
  0
LINE
  5
36E
100
AcDbEntity
  8
IMPORTED
  6
CONTINUOUS
 62
              30
100
AcDbLine
 10
-1229.9999833933509
 20
-1285.666625385096
 30
0.0
 11
-629.99998339335093
 21
-1285.666625385096
 31
0.0
  0
CIRCLE
  5
36F
100
AcDbEntity
  8
IMPORTED
  6
CONTINUOUS
 62
              30
100
AcDbCircle
 10
-969.99998339335082
 20
804.99997461490375
 30
0.0
 40
6.2999999999999545
  0
POLYLINE
  5
370
100
AcDbEntity
  8
IMPORTED
  6
CONTINUOUS
 62
              30
100
AcDb2dPolyline
 66
               1
 10
0.0
 20
0.0
 30
0.0
 70
             129
  0
VERTEX
  5
371
100
AcDbEntity
  8
IMPORTED
  6
CONTINUOUS
 62
              30
100
AcDbVertex
100
AcDb2dVertex
 10
-970.94998339335086
 20
808.93747461490375
 30
0.0
  0
VERTEX
  5
372
100
AcDbEntity
  8
IMPORTED
  6
CONTINUOUS
 62
              30
100
AcDbVertex
100
AcDb2dVertex
 10
-969.04998339335077
 20
808.93747461490375
 30
0.0
  0
VERTEX
  5
373
100
AcDbEntity
  8
IMPORTED
  6
CONTINUOUS
 62
              30
100
AcDbVertex
100
AcDb2dVertex
 10
-969.04998339335077
 20
807.44372461490377
 30
0.0
 42
0.4142135623731174
 70
               2
  0
VERTEX
  5
374
100
AcDbEntity
  8
IMPORTED
  6
CONTINUOUS
 62
              30
100
AcDbVertex
100
AcDb2dVertex
 10
-967.55623339335079
 20
805.94997461490379
 30
0.0
  0
VERTEX
  5
375
100
AcDbEntity
  8
IMPORTED
  6
CONTINUOUS
 62
              30
100
AcDbVertex
100
AcDb2dVertex
 10
-966.06248339335082
 20
805.94997461490379
 30
0.0
  0
VERTEX
  5
376
100
AcDbEntity
  8
IMPORTED
  6
CONTINUOUS
 62
              30
100
AcDbVertex
100
AcDb2dVertex
 10
-966.06248339335082
 20
804.0499746149037
 30
0.0
  0
VERTEX
  5
377
100
AcDbEntity
  8
IMPORTED
  6
CONTINUOUS
 62
              30
100
AcDbVertex
100
AcDb2dVertex
 10
-967.55623339335079
 20
804.0499746149037
 30
0.0
 42
0.4142135623730728
 70
               2
 50
9.3574199307792870E+17
  0
VERTEX
  5
378
100
AcDbEntity
  8
IMPORTED
  6
CONTINUOUS
 62
              30
100
AcDbVertex
100
AcDb2dVertex
 10
-969.04998339335077
 20
802.55622461490373
 30
0.0
  0
VERTEX
  5
379
100
AcDbEntity
  8
IMPORTED
  6
CONTINUOUS
 62
              30
100
AcDbVertex
100
AcDb2dVertex
 10
-969.04998339335077
 20
801.06247461490375
 30
0.0
  0
VERTEX
  5
37A
100
AcDbEntity
  8
IMPORTED
  6
CONTINUOUS
 62
              30
100
AcDbVertex
100
AcDb2dVertex
 10
-970.94998339335086
 20
801.06247461490375
 30
0.0
  0
VERTEX
  5
37B
100
AcDbEntity
  8
IMPORTED
  6
CONTINUOUS
 62
              30
100
AcDbVertex
100
AcDb2dVertex
 10
-970.94998339335086
 20
802.55622461490373
 30
0.0
 42
0.4142135623731174
 70
               2
  0
VERTEX
  5
37C
100
AcDbEntity
  8
IMPORTED
  6
CONTINUOUS
 62
              30
100
AcDbVertex
100
AcDb2dVertex
 10
-972.44373339335084
 20
804.0499746149037
 30
0.0
  0
VERTEX
  5
37D
100
AcDbEntity
  8
IMPORTED
  6
CONTINUOUS
 62
              30
100
AcDbVertex
100
AcDb2dVertex
 10
-973.93748339335082
 20
804.0499746149037
 30
0.0
  0
VERTEX
  5
37E
100
AcDbEntity
  8
IMPORTED
  6
CONTINUOUS
 62
              30
100
AcDbVertex
100
AcDb2dVertex
 10
-973.93748339335082
 20
805.94997461490379
 30
0.0
  0
VERTEX
  5
37F
100
AcDbEntity
  8
IMPORTED
  6
CONTINUOUS
 62
              30
100
AcDbVertex
100
AcDb2dVertex
 10
-972.44373339335084
 20
805.94997461490379
 30
0.0
 42
0.4142135623730728
 70
               2
 50
3.1191399769264294E+17
  0
VERTEX
  5
380
100
AcDbEntity
  8
IMPORTED
  6
CONTINUOUS
 62
              30
100
AcDbVertex
100
AcDb2dVertex
 10
-970.94998339335086
 20
807.44372461490377
 30
0.0
  0
SEQEND
  5
381
100
AcDbEntity
  8
IMPORTED
  6
CONTINUOUS
 62
              30
  0
CIRCLE
  5
382
100
AcDbEntity
  8
IMPORTED
  6
CONTINUOUS
 62
              30
100
AcDbCircle
 10
-909.99998339335082
 20
889.99997461490375
 30
0.0
 40
6.2999999999999545
  0
POLYLINE
  5
383
100
AcDbEntity
  8
IMPORTED
  6
CONTINUOUS
 62
              30
100
AcDb2dPolyline
 66
               1
 10
0.0
 20
0.0
 30
0.0
 70
             129
  0
VERTEX
  5
384
100
AcDbEntity
  8
IMPORTED
  6
CONTINUOUS
 62
              30
100
AcDbVertex
100
AcDb2dVertex
 10
-910.94998339335086
 20
893.93747461490375
 30
0.0
  0
VERTEX
  5
385
100
AcDbEntity
  8
IMPORTED
  6
CONTINUOUS
 62
              30
100
AcDbVertex
100
AcDb2dVertex
 10
-909.04998339335077
 20
893.93747461490375
 30
0.0
  0
VERTEX
  5
386
100
AcDbEntity
  8
IMPORTED
  6
CONTINUOUS
 62
              30
100
AcDbVertex
100
AcDb2dVertex
 10
-909.04998339335077
 20
892.44372461490377
 30
0.0
 42
0.4142135623731174
 70
               2
  0
VERTEX
  5
387
100
AcDbEntity
  8
IMPORTED
  6
CONTINUOUS
 62
              30
100
AcDbVertex
100
AcDb2dVertex
 10
-907.55623339335079
 20
890.94997461490379
 30
0.0
  0
VERTEX
  5
388
100
AcDbEntity
  8
IMPORTED
  6
CONTINUOUS
 62
              30
100
AcDbVertex
100
AcDb2dVertex
 10
-906.06248339335082
 20
890.94997461490379
 30
0.0
  0
VERTEX
  5
389
100
AcDbEntity
  8
IMPORTED
  6
CONTINUOUS
 62
              30
100
AcDbVertex
100
AcDb2dVertex
 10
-906.06248339335082
 20
889.0499746149037
 30
0.0
  0
VERTEX
  5
38A
100
AcDbEntity
  8
IMPORTED
  6
CONTINUOUS
 62
              30
100
AcDbVertex
100
AcDb2dVertex
 10
-907.55623339335079
 20
889.0499746149037
 30
0.0
 42
0.4142135623730728
 70
               2
 50
9.3574199307792870E+17
  0
VERTEX
  5
38B
100
AcDbEntity
  8
IMPORTED
  6
CONTINUOUS
 62
              30
100
AcDbVertex
100
AcDb2dVertex
 10
-909.04998339335077
 20
887.55622461490373
 30
0.0
  0
VERTEX
  5
38C
100
AcDbEntity
  8
IMPORTED
  6
CONTINUOUS
 62
              30
100
AcDbVertex
100
AcDb2dVertex
 10
-909.04998339335077
 20
886.06247461490375
 30
0.0
  0
VERTEX
  5
38D
100
AcDbEntity
  8
IMPORTED
  6
CONTINUOUS
 62
              30
100
AcDbVertex
100
AcDb2dVertex
 10
-910.94998339335086
 20
886.06247461490375
 30
0.0
  0
VERTEX
  5
38E
100
AcDbEntity
  8
IMPORTED
  6
CONTINUOUS
 62
              30
100
AcDbVertex
100
AcDb2dVertex
 10
-910.94998339335086
 20
887.55622461490373
 30
0.0
 42
0.4142135623731174
 70
               2
  0
VERTEX
  5
38F
100
AcDbEntity
  8
IMPORTED
  6
CONTINUOUS
 62
              30
100
AcDbVertex
100
AcDb2dVertex
 10
-912.44373339335084
 20
889.0499746149037
 30
0.0
  0
VERTEX
  5
390
100
AcDbEntity
  8
IMPORTED
  6
CONTINUOUS
 62
              30
100
AcDbVertex
100
AcDb2dVertex
 10
-913.93748339335082
 20
889.0499746149037
 30
0.0
  0
VERTEX
  5
391
100
AcDbEntity
  8
IMPORTED
  6
CONTINUOUS
 62
              30
100
AcDbVertex
100
AcDb2dVertex
 10
-913.93748339335082
 20
890.94997461490379
 30
0.0
  0
VERTEX
  5
392
100
AcDbEntity
  8
IMPORTED
  6
CONTINUOUS
 62
              30
100
AcDbVertex
100
AcDb2dVertex
 10
-912.44373339335084
 20
890.94997461490379
 30
0.0
 42
0.4142135623730728
 70
               2
 50
3.1191399769264294E+17
  0
VERTEX
  5
393
100
AcDbEntity
  8
IMPORTED
  6
CONTINUOUS
 62
              30
100
AcDbVertex
100
AcDb2dVertex
 10
-910.94998339335086
 20
892.44372461490377
 30
0.0
  0
SEQEND
  5
394
100
AcDbEntity
  8
IMPORTED
  6
CONTINUOUS
 62
              30
  0
POLYLINE
  5
395
100
AcDbEntity
  8
IMPORTED
  6
STYLE_05
 62
              30
100
AcDb2dPolyline
 66
               1
 10
0.0
 20
0.0
 30
0.0
 70
               1
 75
               5
  0
VERTEX
  5
396
100
AcDbEntity
  8
IMPORTED
  6
STYLE_05
 62
              30
100
AcDbVertex
100
AcDb2dVertex
 10
-962.99998339335082
 20
-1265.9666253850958
 30
0.0
  0
VERTEX
  5
397
100
AcDbEntity
  8
IMPORTED
  6
STYLE_05
 62
              30
100
AcDbVertex
100
AcDb2dVertex
 10
-959.99998339335082
 20
-1257.666625385096
 30
0.0
  0
VERTEX
  5
398
100
AcDbEntity
  8
IMPORTED
  6
STYLE_05
 62
              30
100
AcDbVertex
100
AcDb2dVertex
 10
-956.99998339335082
 20
-1265.9666253850958
 30
0.0
  0
VERTEX
  5
399
100
AcDbEntity
  8
IMPORTED
  6
STYLE_05
 62
              30
100
AcDbVertex
100
AcDb2dVertex
 10
-956.99998339335082
 20
-1304.3666253850959
 30
0.0
  0
VERTEX
  5
39A
100
AcDbEntity
  8
IMPORTED
  6
STYLE_05
 62
              30
100
AcDbVertex
100
AcDb2dVertex
 10
-962.99998339335082
 20
-1304.3666253850959
 30
0.0
  0
SEQEND
  5
39B
100
AcDbEntity
  8
IMPORTED
  6
STYLE_05
 62
              30
  0
POLYLINE
  5
39D
100
AcDbEntity
  8
IMPORTED
  6
STYLE_05
 62
              30
100
AcDb2dPolyline
 66
               1
 10
0.0
 20
0.0
 30
0.0
 70
               1
 75
               5
  0
VERTEX
  5
39E
100
AcDbEntity
  8
IMPORTED
  6
STYLE_05
 62
              30
100
AcDbVertex
100
AcDb2dVertex
 10
-956.99998339335082
 20
-1304.3666253850959
 30
0.0
  0
VERTEX
  5
39F
100
AcDbEntity
  8
IMPORTED
  6
STYLE_05
 62
              30
100
AcDbVertex
100
AcDb2dVertex
 10
-953.69998339335064
 20
-1307.666625385096
 30
0.0
  0
VERTEX
  5
3A0
100
AcDbEntity
  8
IMPORTED
  6
STYLE_05
 62
              30
100
AcDbVertex
100
AcDb2dVertex
 10
-966.299983393351
 20
-1307.666625385096
 30
0.0
  0
VERTEX
  5
3A1
100
AcDbEntity
  8
IMPORTED
  6
STYLE_05
 62
              30
100
AcDbVertex
100
AcDb2dVertex
 10
-962.99998339335082
 20
-1304.3666253850959
 30
0.0
  0
SEQEND
  5
3A2
100
AcDbEntity
  8
IMPORTED
  6
STYLE_05
 62
              30
  0
POLYLINE
  5
3A4
100
AcDbEntity
  8
IMPORTED
  6
STYLE_05
 62
              30
100
AcDb2dPolyline
 66
               1
 10
0.0
 20
0.0
 30
0.0
 70
               1
 75
               5
  0
VERTEX
  5
3A5
100
AcDbEntity
  8
IMPORTED
  6
STYLE_05
 62
              30
100
AcDbVertex
100
AcDb2dVertex
 10
-896.99998339335082
 20
-1265.9666253850958
 30
0.0
  0
VERTEX
  5
3A6
100
AcDbEntity
  8
IMPORTED
  6
STYLE_05
 62
              30
100
AcDbVertex
100
AcDb2dVertex
 10
-899.99998339335082
 20
-1257.666625385096
 30
0.0
  0
VERTEX
  5
3A7
100
AcDbEntity
  8
IMPORTED
  6
STYLE_05
 62
              30
100
AcDbVertex
100
AcDb2dVertex
 10
-902.99998339335082
 20
-1265.9666253850958
 30
0.0
  0
VERTEX
  5
3A8
100
AcDbEntity
  8
IMPORTED
  6
STYLE_05
 62
              30
100
AcDbVertex
100
AcDb2dVertex
 10
-902.99998339335082
 20
-1304.3666253850959
 30
0.0
  0
VERTEX
  5
3A9
100
AcDbEntity
  8
IMPORTED
  6
STYLE_05
 62
              30
100
AcDbVertex
100
AcDb2dVertex
 10
-896.99998339335082
 20
-1304.3666253850959
 30
0.0
  0
SEQEND
  5
3AA
100
AcDbEntity
  8
IMPORTED
  6
STYLE_05
 62
              30
  0
POLYLINE
  5
3AC
100
AcDbEntity
  8
IMPORTED
  6
STYLE_05
 62
              30
100
AcDb2dPolyline
 66
               1
 10
0.0
 20
0.0
 30
0.0
 70
               1
 75
               5
  0
VERTEX
  5
3AD
100
AcDbEntity
  8
IMPORTED
  6
STYLE_05
 62
              30
100
AcDbVertex
100
AcDb2dVertex
 10
-902.99998339335082
 20
-1304.3666253850959
 30
0.0
  0
VERTEX
  5
3AE
100
AcDbEntity
  8
IMPORTED
  6
STYLE_05
 62
              30
100
AcDbVertex
100
AcDb2dVertex
 10
-906.299983393351
 20
-1307.666625385096
 30
0.0
  0
VERTEX
  5
3AF
100
AcDbEntity
  8
IMPORTED
  6
STYLE_05
 62
              30
100
AcDbVertex
100
AcDb2dVertex
 10
-893.69998339335064
 20
-1307.666625385096
 30
0.0
  0
VERTEX
  5
3B0
100
AcDbEntity
  8
IMPORTED
  6
STYLE_05
 62
              30
100
AcDbVertex
100
AcDb2dVertex
 10
-896.99998339335082
 20
-1304.3666253850959
 30
0.0
  0
SEQEND
  5
3B1
100
AcDbEntity
  8
IMPORTED
  6
STYLE_05
 62
              30
  0
MTEXT
  5
3B3
100
AcDbEntity
  8
IMPORTED
 62
              30
100
AcDbMText
 10
280.00000000000028
 20
-1285.7447656249999
 30
0.0
 40
48.865234375000007
 41
0.0
 71
               1
 72
               1
  1
※特記事項\P・ESWは、木粉50％以上、ポリプロピレン40％以上の配合で、\P  表面をサンディング加工した再生木材「EINスーパーウッド」の略称。\P・ESW塗装は、ESWの表面をアクリルシリコン系水性塗料で仕上げた製品。\P
  7
_______
  0
ENDSEC
  0
SECTION
  2
OBJECTS
  0
DICTIONARY
  5
19
100
AcDbDictionary
  3
ACAD_GROUP
350
1A
  3
ACAD_MLINESTYLE
350
1B
  0
DICTIONARY
  5
1A
102
{ACAD_REACTORS
330
19
102
}
100
AcDbDictionary
  0
DICTIONARY
  5
1B
102
{ACAD_REACTORS
330
19
102
}
100
AcDbDictionary
  3
STANDARD
350
1C
  0
MLINESTYLE
  5
1C
102
{ACAD_REACTORS
330
1B
102
}
100
AcDbMlineStyle
  2
STANDARD
 70
               0
  3

 62
               0
 51
90.0
 52
90.0
 71
               2
 49
0.5
 62
             256
  6
BYLAYER
 49
-0.5
 62
             256
  6
BYLAYER
  0
ENDSEC
  0
EOF
