  0
SECTION
  2
HEADER
  9
$ACADVER
  1
AC1012
  9
$DWGCODEPAGE
  3
dos932
  9
$INSBASE
 10
0.0
 20
0.0
 30
0.0
  9
$EXTMIN
 10
-3908.4387999999994
 20
-2739.9999999999995
 30
0.0
  9
$EXTMAX
 10
3891.5611999999996
 20
2759.9999999999995
 30
0.0
  9
$LIMMIN
 10
0.0
 20
0.0
  9
$LIMMAX
 10
0.0
 20
0.0
  9
$ORTHOMODE
 70
               0
  9
$REGENMODE
 70
               1
  9
$FILLMODE
 70
               1
  9
$QTEXTMODE
 70
               0
  9
$MIRRTEXT
 70
               1
  9
$DRAGMODE
 70
               2
  9
$LTSCALE
 40
101.59999999999999
  9
$OSMODE
 70
               0
  9
$ATTMODE
 70
               1
  9
$TEXTSIZE
 40
0.2
  9
$TRACEWID
 40
1.0
  9
$TEXTSTYLE
  7
STANDARD
  9
$CLAYER
  8
____
  9
$CELTYPE
  6
CONTINUOUS
  9
$CECOLOR
 62
             256
  9
$CELTSCALE
 40
1.0
  9
$DELOBJ
 70
               1
  9
$DISPSILH
 70
               0
  9
$DIMSCALE
 40
1.0
  9
$DIMASZ
 40
0.18
  9
$DIMEXO
 40
0.0625
  9
$DIMDLI
 40
0.38
  9
$DIMRND
 40
0.0
  9
$DIMDLE
 40
0.0
  9
$DIMEXE
 40
0.18
  9
$DIMTP
 40
0.0
  9
$DIMTM
 40
0.0
  9
$DIMTXT
 40
0.18
  9
$DIMCEN
 40
0.09
  9
$DIMTSZ
 40
0.0
  9
$DIMTOL
 70
               0
  9
$DIMLIM
 70
               0
  9
$DIMTIH
 70
               1
  9
$DIMTOH
 70
               1
  9
$DIMSE1
 70
               0
  9
$DIMSE2
 70
               0
  9
$DIMTAD
 70
               0
  9
$DIMZIN
 70
               0
  9
$DIMBLK
  1

  9
$DIMASO
 70
               1
  9
$DIMSHO
 70
               1
  9
$DIMPOST
  1

  9
$DIMAPOST
  1

  9
$DIMALT
 70
               0
  9
$DIMALTD
 70
               2
  9
$DIMALTF
 40
25.399999999999999
  9
$DIMLFAC
 40
1.0
  9
$DIMTOFL
 70
               0
  9
$DIMTVP
 40
0.0
  9
$DIMTIX
 70
               0
  9
$DIMSOXD
 70
               0
  9
$DIMSAH
 70
               0
  9
$DIMBLK1
  1

  9
$DIMBLK2
  1

  9
$DIMSTYLE
  2
STANDARD
  9
$DIMCLRD
 70
               0
  9
$DIMCLRE
 70
               0
  9
$DIMCLRT
 70
               0
  9
$DIMTFAC
 40
1.0
  9
$DIMGAP
 40
0.09
  9
$DIMJUST
 70
               0
  9
$DIMSD1
 70
               0
  9
$DIMSD2
 70
               0
  9
$DIMTOLJ
 70
               1
  9
$DIMTZIN
 70
               0
  9
$DIMALTZ
 70
               0
  9
$DIMALTTZ
 70
               0
  9
$DIMFIT
 70
               3
  9
$DIMUPT
 70
               0
  9
$DIMUNIT
 70
               2
  9
$DIMDEC
 70
               4
  9
$DIMTDEC
 70
               4
  9
$DIMALTU
 70
               2
  9
$DIMALTTD
 70
               2
  9
$DIMTXSTY
  7
STANDARD
  9
$DIMAUNIT
 70
               0
  9
$LUNITS
 70
               2
  9
$LUPREC
 70
               4
  9
$SKETCHINC
 40
0.1
  9
$FILLETRAD
 40
0.0
  9
$AUNITS
 70
               0
  9
$AUPREC
 70
               0
  9
$MENU
  1
acad
  9
$ELEVATION
 40
0.0
  9
$PELEVATION
 40
0.0
  9
$THICKNESS
 40
0.0
  9
$LIMCHECK
 70
               0
  9
$BLIPMODE
 70
               0
  9
$CHAMFERA
 40
0.0
  9
$CHAMFERB
 40
0.0
  9
$CHAMFERC
 40
0.0
  9
$CHAMFERD
 40
0.0
  9
$SKPOLY
 70
               0
  9
$TDCREATE
 40
2459228.433310185
  9
$TDUPDATE
 40
2459228.433310185
  9
$TDINDWG
 40
0.0000000000
  9
$TDUSRTIMER
 40
0.0000000000
  9
$USRTIMER
 70
               1
  9
$ANGBASE
 50
0.0
  9
$ANGDIR
 70
               0
  9
$PDMODE
 70
               1
  9
$PDSIZE
 40
-2.0
  9
$PLINEWID
 40
0.0
  9
$COORDS
 70
               0
  9
$SPLFRAME
 70
               0
  9
$SPLINETYPE
 70
               6
  9
$SPLINESEGS
 70
               8
  9
$ATTDIA
 70
               0
  9
$ATTREQ
 70
               1
  9
$HANDLING
 70
               1
  9
$HANDSEED
  5
5F6
  9
$SURFTAB1
 70
               6
  9
$SURFTAB2
 70
               6
  9
$SURFTYPE
 70
               6
  9
$SURFU
 70
               6
  9
$SURFV
 70
               6
  9
$UCSNAME
  2

  9
$UCSORG
 10
0.0
 20
0.0
 30
0.0
  9
$UCSXDIR
 10
1.0
 20
0.0
 30
0.0
  9
$UCSYDIR
 10
0.0
 20
1.0
 30
0.0
  9
$PUCSNAME
  2

  9
$PUCSORG
 10
0.0
 20
0.0
 30
0.0
  9
$PUCSXDIR
 10
1.0
 20
0.0
 30
0.0
  9
$PUCSYDIR
 10
0.0
 20
1.0
 30
0.0
  9
$USERI1
 70
               0
  9
$USERI2
 70
               0
  9
$USERI3
 70
               0
  9
$USERI4
 70
               0
  9
$USERI5
 70
               0
  9
$USERR1
 40
0.0
  9
$USERR2
 40
0.0
  9
$USERR3
 40
0.0
  9
$USERR4
 40
0.0
  9
$USERR5
 40
0.0
  9
$WORLDVIEW
 70
               1
  9
$SHADEDGE
 70
               3
  9
$SHADEDIF
 70
              70
  9
$TILEMODE
 70
               1
  9
$MAXACTVP
 70
              64
  9
$PINSBASE
 10
0.0
 20
0.0
 30
0.0
  9
$PLIMCHECK
 70
               0
  9
$PEXTMIN
 10
1.0000000000000000E+20
 20
1.0000000000000000E+20
 30
1.0000000000000000E+20
  9
$PEXTMAX
 10
-1.0000000000000000E+20
 20
-1.0000000000000000E+20
 30
-1.0000000000000000E+20
  9
$PLIMMIN
 10
0.0
 20
0.0
  9
$PLIMMAX
 10
12.0
 20
9.0
  9
$UNITMODE
 70
               0
  9
$VISRETAIN
 70
               0
  9
$PLINEGEN
 70
               1
  9
$PSLTSCALE
 70
               0
  9
$TREEDEPTH
 70
            3020
  9
$PICKSTYLE
 70
               1
  9
$CMLSTYLE
  2
STANDARD
  9
$CMLJUST
 70
               0
  9
$CMLSCALE
 40
1.0
  9
$SAVEIMAGES
 70
               0
  0
ENDSEC
  0
SECTION
  2
CLASSES
  0
CLASS
  1
LWPOLYLINE
  2
AcDbPolyline
  3
"AutoCAD"
 90
    32768
280
               0
281
               1
  0
CLASS
  1
IMAGE
  2
AcDbRasterImage
  3
ISM
 90
    32895
280
               0
281
               1
  0
CLASS
  1
OLE2FRAME
  2
AcDbOle2Frame
  3
""
 90
    32768
280
               0
281
               1
  0
CLASS
  1
HATCH
  2
AcDbHatch
  3
"ACAD_SEDONA"
 90
    32768
280
               0
281
               1
  0
CLASS
  1
DICTIONARYVAR
  2
AcDbDictionaryVar
  3
"AutoCAD"
 90
    32768
280
               0
281
               0
  0
CLASS
  1
RASTERVARIABLES
  2
AcDbRasterVariables
  3
ISM
 90
    32768
280
               0
281
               0
  0
CLASS
  1
IMAGEDEF
  2
AcDbRasterImageDef
  3
ISM
 90
    32768
280
               0
281
               0
  0
CLASS
  1
IMAGEDEF_REACTOR
  2
AcDbRasterImageDefReactor
  3
ISM
 90
    32769
280
               0
281
               0
  0
CLASS
  1
IDBUFFER
  2
AcDbIdBuffer
  3
"Acad"
 90
    32768
280
               0
281
               0
  0
CLASS
  1
SPATIAL_FILTER
  2
AcDbSpatialFilter
  3
"Acad"
 90
    32768
280
               0
281
               0
  0
CLASS
  1
XRECORD
  2
AcDbXrecord
  3
"<Built In>"
 90
    32768
280
               0
281
               0
  0
CLASS
  1
SORTENTSTABLE
  2
AcDbSortentsTable
  3
"AutoCAD"
 90
    32768
280
               0
281
               0
  0
CLASS
  1
LAYER_INDEX
  2
AcDbLayerIndex
  3
"Acad"
 90
    32768
280
               0
281
               0
  0
CLASS
  1
SPATIAL_INDEX
  2
AcDbSpatialIndex
  3
"Acad"
 90
    32768
280
               0
281
               0
  0
CLASS
  1
OBJECT_PTR
  2
CAseDLPNTableRecord
  3
"ASE-LPNTableRecord"
 90
    32769
280
               0
281
               0
  0
CLASS
  1
LAYOUT
  2
AcDbLayout
  3
"AutoCAD 2000"
 90
    32768
280
               0
281
               0
  0
CLASS
  1
PLOTSETTINGS
  2
AcDbPlotSettings
  3
"AutoCAD 2000"
 90
    32768
280
               0
281
               0
  0
CLASS
  1
ACDBDICTIONARYWDFLT
  2
AcDbDictionaryWithDefault
  3
"AutoCAD 2000"
 90
    32768
280
               0
281
               0
  0
CLASS
  1
ACDBPLACEHOLDER
  2
AcDbPlaceHolder
  3
"AutoCAD 2000"
 90
    32768
280
               0
281
               0
  0
ENDSEC
  0
SECTION
  2
TABLES
  0
TABLE
  2
VPORT
  5
7
100
AcDbSymbolTable
 70
               1
  0
VPORT
  5
15
100
AcDbSymbolTableRecord
100
AcDbViewportTableRecord
  2
*ACTIVE
 70
               0
 10
0.0
 20
0.0
 11
1.0
 21
1.0
 12
-8.438799999999901
 22
10.0
 13
0.0
 23
0.0
 14
1.0
 24
1.0
 15
0.0
 25
0.0
 16
0.0
 26
0.0
 36
1.0
 17
0.0
 27
0.0
 37
0.0
 40
5499.9999999999991
 41
0.688564
 42
50.0
 43
0.0
 44
0.0
 50
0.0
 51
0.0
 71
               0
 72
            2000
 73
               1
 74
               1
 75
               0
 76
               0
 77
               0
 78
               0
  0
ENDTAB
  0
TABLE
  2
LTYPE
  5
4
100
AcDbSymbolTable
 70
              14
  0
LTYPE
  5
11
100
AcDbSymbolTableRecord
100
AcDbLinetypeTableRecord
  2
BYBLOCK
 70
              64
  3

 72
              65
 73
               0
 40
0.0
  0
LTYPE
  5
12
100
AcDbSymbolTableRecord
100
AcDbLinetypeTableRecord
  2
BYLAYER
 70
              64
  3

 72
              65
 73
               0
 40
0.0
  0
LTYPE
  5
13
100
AcDbSymbolTableRecord
100
AcDbLinetypeTableRecord
  2
CONTINUOUS
 70
              64
  3
Solid line
 72
              65
 73
               0
 40
0.0
  0
LTYPE
  5
26
100
AcDbSymbolTableRecord
100
AcDbLinetypeTableRecord
  2
STYLE_01
 70
               0
  3

 72
              65
 73
               2
 40
0.4166412353515625
 49
0.208282470703125
 74
               0
 49
-0.2083587646484375
 74
               0
  0
LTYPE
  5
27
100
AcDbSymbolTableRecord
100
AcDbLinetypeTableRecord
  2
STYLE_02
 70
               0
  3

 72
              65
 73
               2
 40
0.694427490234375
 49
0.4860687255859375
 74
               0
 49
-0.2083587646484375
 74
               0
  0
LTYPE
  5
28
100
AcDbSymbolTableRecord
100
AcDbLinetypeTableRecord
  2
STYLE_03
 70
               0
  3

 72
              65
 73
               2
 40
1.25
 49
1.0416412353515625
 74
               0
 49
-0.2083587646484375
 74
               0
  0
LTYPE
  5
29
100
AcDbSymbolTableRecord
100
AcDbLinetypeTableRecord
  2
STYLE_04
 70
               0
  3

 72
              65
 73
               2
 40
1.5277099609375
 49
1.319427490234375
 74
               0
 49
-0.208282470703125
 74
               0
  0
LTYPE
  5
2A
100
AcDbSymbolTableRecord
100
AcDbLinetypeTableRecord
  2
STYLE_05
 70
               0
  3

 72
              65
 73
               2
 40
0.208282470703125
 49
0.069427490234375
 74
               0
 49
-0.13885498046875
 74
               0
  0
LTYPE
  5
2B
100
AcDbSymbolTableRecord
100
AcDbLinetypeTableRecord
  2
STYLE_06
 70
               0
  3

 72
              65
 73
               4
 40
1.0416412353515625
 49
0.625
 74
               0
 49
-0.208282470703125
 74
               0
 49
0.069427490234375
 74
               0
 49
-0.1389312744140625
 74
               0
  0
LTYPE
  5
2C
100
AcDbSymbolTableRecord
100
AcDbLinetypeTableRecord
  2
STYLE_07
 70
               0
  3

 72
              65
 73
               6
 40
1.875
 49
0.625
 74
               0
 49
-0.208282470703125
 74
               0
 49
0.625
 74
               0
 49
-0.2083587646484375
 74
               0
 49
0.069427490234375
 74
               0
 49
-0.1389312744140625
 74
               0
  0
LTYPE
  5
2D
100
AcDbSymbolTableRecord
100
AcDbLinetypeTableRecord
  2
STYLE_08
 70
               0
  3

 72
              65
 73
               6
 40
1.25
 49
0.625
 74
               0
 49
-0.208282470703125
 74
               0
 49
0.069427490234375
 74
               0
 49
-0.1389312744140625
 74
               0
 49
0.069427490234375
 74
               0
 49
-0.1389312744140625
 74
               0
  0
LTYPE
  5
2E
100
AcDbSymbolTableRecord
100
AcDbLinetypeTableRecord
  2
STYLE_09
 70
               0
  3

 72
              65
 73
               4
 40
5.0
 49
3.75
 74
               0
 49
-0.2777862548828125
 74
               0
 49
0.694427490234375
 74
               0
 49
-0.2777862548828125
 74
               0
  0
LTYPE
  5
2F
100
AcDbSymbolTableRecord
100
AcDbLinetypeTableRecord
  2
STYLE_10
 70
               0
  3

 72
              65
 73
               6
 40
5.9375
 49
3.75
 74
               0
 49
-0.2777862548828125
 74
               0
 49
0.694427490234375
 74
               0
 49
-0.2777862548828125
 74
               0
 49
0.625
 74
               0
 49
-0.3125
 74
               0
  0
LTYPE
  5
30
100
AcDbSymbolTableRecord
100
AcDbLinetypeTableRecord
  2
STYLE_11
 70
               0
  3

 72
              65
 73
               2
 40
0.208282470703125
 49
0.069427490234375
 74
               0
 49
-0.13885498046875
 74
               0
  0
ENDTAB
  0
TABLE
  2
LAYER
  5
2
100
AcDbSymbolTable
 70
               2
  0
LAYER
  5
14
100
AcDbSymbolTableRecord
100
AcDbLayerTableRecord
  2
0
 70
               0
 62
               7
  6
CONTINUOUS
  0
LAYER
  5
31
100
AcDbSymbolTableRecord
100
AcDbLayerTableRecord
  2
____
 70
               0
 62
               7
  6
CONTINUOUS
  0
ENDTAB
  0
TABLE
  2
STYLE
  5
3
100
AcDbSymbolTable
 70
               2
  0
STYLE
  5
17
100
AcDbSymbolTableRecord
100
AcDbTextStyleTableRecord
  2
STANDARD
 70
               0
 40
0.0
 41
1.0
 50
0.0
 71
               0
 42
0.0
  3
txt
  4
BIGFONT.SHX
  0
STYLE
  5
25
100
AcDbSymbolTableRecord
100
AcDbTextStyleTableRecord
  2
_______
 70
               0
 40
0.0
 41
1.0
 50
0.0
 71
               0
 42
0.0
  3

  4
ＭＳ ゴシック
1001
ACAD
1000
ＭＳ ゴシック
1071
        0
  0
ENDTAB
  0
TABLE
  2
VIEW
  5
5
100
AcDbSymbolTable
 70
               0
  0
ENDTAB
  0
TABLE
  2
UCS
  5
6
100
AcDbSymbolTable
 70
               0
  0
ENDTAB
  0
TABLE
  2
APPID
  5
8
100
AcDbSymbolTable
 70
               1
  0
APPID
  5
16
100
AcDbSymbolTableRecord
100
AcDbRegAppTableRecord
  2
ACAD
 70
               0
  0
ENDTAB
  0
TABLE
  2
DIMSTYLE
  5
9
100
AcDbSymbolTable
 70
               1
  0
DIMSTYLE
105
18
100
AcDbSymbolTableRecord
100
AcDbDimStyleTableRecord
  2
STANDARD
 70
               0
  3

  4

  5

  6

  7

 40
1.0
 41
0.18
 42
0.0625
 43
0.38
 44
0.18
 45
0.0
 46
0.0
 47
0.0
 48
0.0
 71
               0
 72
               0
 73
               1
 74
               1
 75
               0
 76
               0
 77
               0
 78
               0
140
0.18
141
0.09
142
0.0
143
25.399999999999999
144
1.0
145
0.0
146
1.0
147
0.09
170
               0
171
               2
172
               0
173
               0
174
               0
175
               0
176
               0
177
               0
178
               0
270
               2
271
               4
272
               4
273
               2
274
               2
275
               0
280
               0
281
               0
282
               0
283
               1
284
               0
285
               0
286
               0
287
               3
288
               0
340
17
  0
ENDTAB
  0
TABLE
  2
BLOCK_RECORD
  5
1
100
AcDbSymbolTable
 70
               8
  0
BLOCK_RECORD
  5
A
100
AcDbSymbolTableRecord
100
AcDbBlockTableRecord
  2
*MODEL_SPACE
  0
BLOCK_RECORD
  5
B
100
AcDbSymbolTableRecord
100
AcDbBlockTableRecord
  2
*PAPER_SPACE
  0
BLOCK_RECORD
  5
1D
100
AcDbSymbolTableRecord
100
AcDbBlockTableRecord
  2
*X0
  0
BLOCK_RECORD
  5
1E
100
AcDbSymbolTableRecord
100
AcDbBlockTableRecord
  2
*X1
  0
BLOCK_RECORD
  5
1F
100
AcDbSymbolTableRecord
100
AcDbBlockTableRecord
  2
*X2
  0
BLOCK_RECORD
  5
20
100
AcDbSymbolTableRecord
100
AcDbBlockTableRecord
  2
*X3
  0
BLOCK_RECORD
  5
21
100
AcDbSymbolTableRecord
100
AcDbBlockTableRecord
  2
*X4
  0
BLOCK_RECORD
  5
22
100
AcDbSymbolTableRecord
100
AcDbBlockTableRecord
  2
*X5
  0
BLOCK_RECORD
  5
23
100
AcDbSymbolTableRecord
100
AcDbBlockTableRecord
  2
*X6
  0
BLOCK_RECORD
  5
24
100
AcDbSymbolTableRecord
100
AcDbBlockTableRecord
  2
*X7
  0
ENDTAB
  0
ENDSEC
  0
SECTION
  2
BLOCKS
  0
BLOCK
  5
D
100
AcDbEntity
  8
0
100
AcDbBlockBegin
  2
*MODEL_SPACE
 70
               0
 10
0.0
 20
0.0
 30
0.0
  3
*MODEL_SPACE
  1

  0
ENDBLK
  5
E
100
AcDbEntity
  8
0
100
AcDbBlockEnd
  0
BLOCK
  5
F
100
AcDbEntity
 67
               1
  8
0
100
AcDbBlockBegin
  2
*PAPER_SPACE
 70
               0
 10
0.0
 20
0.0
 30
0.0
  3
*PAPER_SPACE
  1

  0
ENDBLK
  5
10
100
AcDbEntity
 67
               1
  8
0
100
AcDbBlockEnd
  0
BLOCK
  5
32
100
AcDbEntity
  8
____
100
AcDbBlockBegin
  2
*X0
 70
               1
 10
0.0
 20
0.0
 30
0.0
  3
*X0
  1

  0
LINE
  5
33
100
AcDbEntity
  8
0
  6
CONTINUOUS
 62
              30
100
AcDbLine
 10
-2826.9999999999995
 20
585.4974168
 30
0.0
 11
-2762.4974167999999
 21
649.99999999999989
 31
0.0
  0
LINE
  5
34
100
AcDbEntity
  8
0
  6
CONTINUOUS
 62
              30
100
AcDbLine
 10
-2503.2871623999995
 20
549.99999999999989
 30
0.0
 11
-2427.0
 21
626.28716239999937
 31
0.0
  0
LINE
  5
35
100
AcDbEntity
  8
0
  6
CONTINUOUS
 62
              30
100
AcDbLine
 10
-2682.8922895999995
 20
550.0
 30
0.0
 11
-2582.8922895999995
 21
649.99999999999989
 31
0.0
  0
ENDBLK
  5
36
100
AcDbEntity
  8
____
100
AcDbBlockEnd
  0
BLOCK
  5
37
100
AcDbEntity
  8
____
100
AcDbBlockBegin
  2
*X1
 70
               1
 10
0.0
 20
0.0
 30
0.0
  3
*X1
  1

  0
LINE
  5
38
100
AcDbEntity
  8
0
  6
CONTINUOUS
 62
              30
100
AcDbLine
 10
-1027.0
 20
589.44614479999996
 30
0.0
 11
-966.44614479999996
 21
649.99999999999989
 31
0.0
  0
LINE
  5
39
100
AcDbEntity
  8
0
  6
CONTINUOUS
 62
              30
100
AcDbLine
 10
-707.23589040000002
 20
549.99999999999989
 30
0.0
 11
-627.0
 21
630.23589039999979
 31
0.0
  0
LINE
  5
3A
100
AcDbEntity
  8
0
  6
CONTINUOUS
 62
              30
100
AcDbLine
 10
-886.84101759999999
 20
550.0
 30
0.0
 11
-786.84101759999999
 21
649.99999999999989
 31
0.0
  0
ENDBLK
  5
3B
100
AcDbEntity
  8
____
100
AcDbBlockEnd
  0
BLOCK
  5
3C
100
AcDbEntity
  8
____
100
AcDbBlockBegin
  2
*X2
 70
               1
 10
0.0
 20
0.0
 30
0.0
  3
*X2
  1

  0
LINE
  5
3D
100
AcDbEntity
  8
0
  6
CONTINUOUS
 62
              30
100
AcDbLine
 10
638.5
 20
638.5
 30
0.0
 11
649.99999999999989
 21
649.99999999999989
 31
0.0
  0
LINE
  5
3E
100
AcDbEntity
  8
0
  6
CONTINUOUS
 62
              30
100
AcDbLine
 10
1448.0256359999998
 20
550.0
 30
0.0
 11
1548.0256359999996
 21
649.99999999999977
 31
0.0
  0
LINE
  5
3F
100
AcDbEntity
  8
0
  6
CONTINUOUS
 62
              30
100
AcDbLine
 10
1268.4205087999999
 20
550.0
 30
0.0
 11
1368.4205087999999
 21
649.99999999999977
 31
0.0
  0
LINE
  5
40
100
AcDbEntity
  8
0
  6
CONTINUOUS
 62
              30
100
AcDbLine
 10
1088.8153815999999
 20
550.0
 30
0.0
 11
1188.8153815999997
 21
649.99999999999977
 31
0.0
  0
LINE
  5
41
100
AcDbEntity
  8
0
  6
CONTINUOUS
 62
              30
100
AcDbLine
 10
909.21025439999994
 20
550.0
 30
0.0
 11
1009.2102543999998
 21
649.99999999999989
 31
0.0
  0
LINE
  5
42
100
AcDbEntity
  8
0
  6
CONTINUOUS
 62
              30
100
AcDbLine
 10
729.60512719999986
 20
549.99999999999989
 30
0.0
 11
829.60512719999974
 21
649.99999999999977
 31
0.0
  0
ENDBLK
  5
43
100
AcDbEntity
  8
____
100
AcDbBlockEnd
  0
BLOCK
  5
44
100
AcDbEntity
  8
____
100
AcDbBlockBegin
  2
*X3
 70
               1
 10
0.0
 20
0.0
 30
0.0
  3
*X3
  1

  0
LINE
  5
45
100
AcDbEntity
  8
0
  6
CONTINUOUS
 62
              30
100
AcDbLine
 10
-977.49999999999955
 20
-1034.0685424949236
 30
0.0
 11
-677.5
 21
-734.0685424949238
 31
0.0
  0
LINE
  5
46
100
AcDbEntity
  8
0
  6
CONTINUOUS
 62
              30
100
AcDbLine
 10
-764.31457505076162
 20
-1329.9999999999998
 30
0.0
 11
-677.5
 21
-1243.185424949238
 31
0.0
  0
LINE
  5
47
100
AcDbEntity
  8
0
  6
CONTINUOUS
 62
              30
100
AcDbLine
 10
-977.49999999999955
 20
-977.49999999999977
 30
0.0
 11
-677.5
 21
-677.50000000000011
 31
0.0
  0
LINE
  5
48
100
AcDbEntity
  8
0
  6
CONTINUOUS
 62
              30
100
AcDbLine
 10
-736.0303038032996
 20
-1329.9999999999998
 30
0.0
 11
-677.5
 21
-1271.4696961967002
 31
0.0
  0
LINE
  5
49
100
AcDbEntity
  8
0
  6
CONTINUOUS
 62
              30
100
AcDbLine
 10
-977.49999999999955
 20
-1005.7842712474617
 30
0.0
 11
-677.5
 21
-705.78427124746202
 31
0.0
  0
LINE
  5
4A
100
AcDbEntity
  8
0
  6
CONTINUOUS
 62
              30
100
AcDbLine
 10
-707.7460325558377
 20
-1329.9999999999998
 30
0.0
 11
-677.5
 21
-1299.7539674441621
 31
0.0
  0
ENDBLK
  5
4B
100
AcDbEntity
  8
____
100
AcDbBlockEnd
  0
BLOCK
  5
4C
100
AcDbEntity
  8
____
100
AcDbBlockBegin
  2
*X4
 70
               1
 10
0.0
 20
0.0
 30
0.0
  3
*X4
  1

  0
LINE
  5
4D
100
AcDbEntity
  8
0
  6
CONTINUOUS
 62
              30
100
AcDbLine
 10
-2777.4999999999995
 20
-571.32684269797107
 30
0.0
 11
-2721.1731573020284
 21
-515.0
 31
0.0
  0
LINE
  5
4E
100
AcDbEntity
  8
0
  6
CONTINUOUS
 62
              30
100
AcDbLine
 10
-2777.4999999999995
 20
-1080.4437251522857
 30
0.0
 11
-2477.5
 21
-780.44372515228599
 31
0.0
  0
LINE
  5
4F
100
AcDbEntity
  8
0
  6
CONTINUOUS
 62
              30
100
AcDbLine
 10
-2777.4999999999995
 20
-1108.7279963997478
 30
0.0
 11
-2477.5
 21
-808.72799639974824
 31
0.0
  0
LINE
  5
50
100
AcDbEntity
  8
0
  6
CONTINUOUS
 62
              30
100
AcDbLine
 10
-2777.4999999999995
 20
-543.04257145050963
 30
0.0
 11
-2749.45742854949
 21
-515.0
 31
0.0
  0
LINE
  5
51
100
AcDbEntity
  8
0
  6
CONTINUOUS
 62
              30
100
AcDbLine
 10
-2777.4999999999995
 20
-1137.0122676472092
 30
0.0
 11
-2477.5
 21
-837.01226764720968
 31
0.0
  0
ENDBLK
  5
52
100
AcDbEntity
  8
____
100
AcDbBlockEnd
  0
BLOCK
  5
53
100
AcDbEntity
  8
____
100
AcDbBlockBegin
  2
*X5
 70
               1
 10
0.0
 20
0.0
 30
0.0
  3
*X5
  1

  0
LINE
  5
54
100
AcDbEntity
  8
0
  6
CONTINUOUS
 62
              30
100
AcDbLine
 10
688.49999999999989
 20
1197.6168824543142
 30
0.0
 11
1040.8831175456855
 21
1550.0
 31
0.0
  0
LINE
  5
55
100
AcDbEntity
  8
0
  6
CONTINUOUS
 62
              30
100
AcDbLine
 10
1215.6854249492378
 20
650.0
 30
0.0
 11
1503.4999999999998
 21
937.81457505076219
 31
0.0
  0
LINE
  5
56
100
AcDbEntity
  8
0
  6
CONTINUOUS
 62
              30
100
AcDbLine
 10
688.49999999999989
 20
688.5
 30
0.0
 11
1503.4999999999998
 21
1503.5
 31
0.0
  0
LINE
  5
57
100
AcDbEntity
  8
0
  6
CONTINUOUS
 62
              30
100
AcDbLine
 10
688.49999999999989
 20
1254.1854249492383
 30
0.0
 11
984.3145750507615
 21
1549.9999999999998
 31
0.0
  0
LINE
  5
58
100
AcDbEntity
  8
0
  6
CONTINUOUS
 62
              30
100
AcDbLine
 10
1243.9696961966997
 20
649.99999999999977
 30
0.0
 11
1503.4999999999998
 21
909.53030380330006
 31
0.0
  0
LINE
  5
59
100
AcDbEntity
  8
0
  6
CONTINUOUS
 62
              30
100
AcDbLine
 10
688.49999999999989
 20
660.2157287525381
 30
0.0
 11
1503.4999999999998
 21
1475.2157287525383
 31
0.0
  0
LINE
  5
5A
100
AcDbEntity
  8
0
  6
CONTINUOUS
 62
              30
100
AcDbLine
 10
688.49999999999989
 20
1225.9011537017761
 30
0.0
 11
1012.5988462982233
 21
1549.9999999999998
 31
0.0
  0
LINE
  5
5B
100
AcDbEntity
  8
0
  6
CONTINUOUS
 62
              30
100
AcDbLine
 10
1272.2539674441614
 20
650.0
 30
0.0
 11
1503.4999999999998
 21
881.24603255583838
 31
0.0
  0
LINE
  5
5C
100
AcDbEntity
  8
0
  6
CONTINUOUS
 62
              30
100
AcDbLine
 10
706.56854249492358
 20
649.99999999999989
 30
0.0
 11
1503.4999999999998
 21
1446.9314575050762
 31
0.0
  0
ENDBLK
  5
5D
100
AcDbEntity
  8
____
100
AcDbBlockEnd
  0
BLOCK
  5
5E
100
AcDbEntity
  8
____
100
AcDbBlockBegin
  2
*X6
 70
               1
 10
0.0
 20
0.0
 30
0.0
  3
*X6
  1

  0
LINE
  5
5F
100
AcDbEntity
  8
0
  6
CONTINUOUS
 62
              30
100
AcDbLine
 10
-977.49999999999989
 20
1228.6731573020286
 30
0.0
 11
-677.49999999999989
 21
1528.6731573020288
 31
0.0
  0
LINE
  5
60
100
AcDbEntity
  8
0
  6
CONTINUOUS
 62
              30
100
AcDbLine
 10
-977.49999999999989
 20
719.55627484771435
 30
0.0
 11
-677.49999999999989
 21
1019.5562748477143
 31
0.0
  0
LINE
  5
61
100
AcDbEntity
  8
0
  6
CONTINUOUS
 62
              30
100
AcDbLine
 10
-777.49999999999989
 20
1485.2416997969526
 30
0.0
 11
-712.74169979695262
 21
1549.9999999999998
 31
0.0
  0
LINE
  5
62
100
AcDbEntity
  8
0
  6
CONTINUOUS
 62
              30
100
AcDbLine
 10
-977.49999999999989
 20
1285.2416997969526
 30
0.0
 11
-812.74169979695262
 21
1449.9999999999998
 31
0.0
  0
LINE
  5
63
100
AcDbEntity
  8
0
  6
CONTINUOUS
 62
              30
100
AcDbLine
 10
-977.49999999999989
 20
691.27200360025222
 30
0.0
 11
-677.49999999999989
 21
991.27200360025222
 31
0.0
  0
LINE
  5
64
100
AcDbEntity
  8
0
  6
CONTINUOUS
 62
              30
100
AcDbLine
 10
-777.49999999999989
 20
1456.9574285494905
 30
0.0
 11
-684.45742854949049
 21
1549.9999999999998
 31
0.0
  0
LINE
  5
65
100
AcDbEntity
  8
0
  6
CONTINUOUS
 62
              30
100
AcDbLine
 10
-977.49999999999989
 20
1256.9574285494905
 30
0.0
 11
-784.45742854949049
 21
1449.9999999999998
 31
0.0
  0
LINE
  5
66
100
AcDbEntity
  8
0
  6
CONTINUOUS
 62
              30
100
AcDbLine
 10
-977.49999999999989
 20
662.98773235279043
 30
0.0
 11
-677.49999999999989
 21
962.98773235279054
 31
0.0
  0
ENDBLK
  5
67
100
AcDbEntity
  8
____
100
AcDbBlockEnd
  0
BLOCK
  5
68
100
AcDbEntity
  8
____
100
AcDbBlockBegin
  2
*X7
 70
               1
 10
0.0
 20
0.0
 30
0.0
  3
*X7
  1

  0
LINE
  5
69
100
AcDbEntity
  8
0
  6
CONTINUOUS
 62
              30
100
AcDbLine
 10
-2777.4999999999995
 20
1125.7294321497429
 30
0.0
 11
-2477.5
 21
1425.7294321497425
 31
0.0
  0
LINE
  5
6A
100
AcDbEntity
  8
0
  6
CONTINUOUS
 62
              30
100
AcDbLine
 10
-2744.1125496954287
 20
649.99999999999989
 30
0.0
 11
-2477.5
 21
916.61254969542847
 31
0.0
  0
LINE
  5
6B
100
AcDbEntity
  8
0
  6
CONTINUOUS
 62
              30
100
AcDbLine
 10
-2777.4999999999995
 20
1182.2979746446672
 30
0.0
 11
-2509.7979746446672
 21
1449.9999999999998
 31
0.0
  0
LINE
  5
6C
100
AcDbEntity
  8
0
  6
CONTINUOUS
 62
              30
100
AcDbLine
 10
-2715.8282784479666
 20
649.99999999999989
 30
0.0
 11
-2477.5
 21
888.32827844796634
 31
0.0
  0
LINE
  5
6D
100
AcDbEntity
  8
0
  6
CONTINUOUS
 62
              30
100
AcDbLine
 10
-2777.4999999999995
 20
1154.0137033972051
 30
0.0
 11
-2481.5137033972046
 21
1449.9999999999998
 31
0.0
  0
LINE
  5
6E
100
AcDbEntity
  8
0
  6
CONTINUOUS
 62
              30
100
AcDbLine
 10
-2687.5440072005044
 20
649.99999999999977
 30
0.0
 11
-2477.5
 21
860.04400720050421
 31
0.0
  0
ENDBLK
  5
6F
100
AcDbEntity
  8
____
100
AcDbBlockEnd
  0
ENDSEC
  0
SECTION
  2
ENTITIES
  0
LINE
  5
70
100
AcDbEntity
  8
____
  6
CONTINUOUS
 62
               2
100
AcDbLine
 10
888.49999999999989
 20
1609.9999997764824
 30
0.0
 11
888.49999999999989
 21
1889.5544998509881
 31
0.0
  0
LINE
  5
71
100
AcDbEntity
  8
____
  6
CONTINUOUS
 62
               2
100
AcDbLine
 10
688.49999999999989
 20
1609.9999997764824
 30
0.0
 11
688.49999999999989
 21
1889.5544998509881
 31
0.0
  0
LINE
  5
72
100
AcDbEntity
  8
____
  6
CONTINUOUS
 62
               2
100
AcDbLine
 10
928.49999985098827
 20
1849.5544999999997
 30
0.0
 11
888.49999999999989
 21
1849.5544999999997
 31
0.0
  0
LINE
  5
73
100
AcDbEntity
  8
____
  6
CONTINUOUS
 62
               2
100
AcDbLine
 10
688.49999999999989
 20
1849.5544999999997
 30
0.0
 11
648.5000001490115
 21
1849.5544999999997
 31
0.0
  0
LINE
  5
74
100
AcDbEntity
  8
____
  6
CONTINUOUS
 62
               2
100
AcDbLine
 10
888.49999999999989
 20
1849.5544999999997
 30
0.0
 11
688.49999999999989
 21
1849.5544999999997
 31
0.0
  0
SOLID
  5
75
100
AcDbEntity
  8
____
 62
               2
100
AcDbTrace
 10
888.49999999999989
 20
1849.5544999999997
 30
0.0
 11
848.50244140624989
 21
1846.0551670543327
 31
0.0
 12
848.50244140624989
 22
1853.0538329456667
 32
0.0
 13
848.50244140624989
 23
1853.0538329456667
 33
0.0
  0
SOLID
  5
76
100
AcDbEntity
  8
____
 62
               2
100
AcDbTrace
 10
688.49999999999989
 20
1849.5544999999997
 30
0.0
 11
728.49755859374989
 21
1853.0538329456667
 31
0.0
 12
728.49755859374989
 22
1846.0551670543327
 32
0.0
 13
728.49755859374989
 23
1846.0551670543327
 33
0.0
  0
MTEXT
  5
77
100
AcDbEntity
  8
____
 62
               2
100
AcDbMText
 10
756.75002355045729
 20
1903.0579592656247
 30
0.0
 40
32.576797265624997
 41
0.0
 71
               1
 72
               1
  1
200
  7
_______
  0
LINE
  5
78
100
AcDbEntity
  8
____
  6
CONTINUOUS
 62
               2
100
AcDbLine
 10
1093.5
 20
1609.9999997764824
 30
0.0
 11
1093.5
 21
1889.5544998509881
 31
0.0
  0
LINE
  5
79
100
AcDbEntity
  8
____
  6
CONTINUOUS
 62
               2
100
AcDbLine
 10
893.49999999999989
 20
1609.9999997764824
 30
0.0
 11
893.49999999999989
 21
1889.5544998509881
 31
0.0
  0
LINE
  5
7A
100
AcDbEntity
  8
____
  6
CONTINUOUS
 62
               2
100
AcDbLine
 10
1133.4999998509884
 20
1849.5544999999997
 30
0.0
 11
1093.5
 21
1849.5544999999997
 31
0.0
  0
LINE
  5
7B
100
AcDbEntity
  8
____
  6
CONTINUOUS
 62
               2
100
AcDbLine
 10
893.49999999999989
 20
1849.5544999999997
 30
0.0
 11
853.5000001490115
 21
1849.5544999999997
 31
0.0
  0
LINE
  5
7C
100
AcDbEntity
  8
____
  6
CONTINUOUS
 62
               2
100
AcDbLine
 10
1093.5
 20
1849.5544999999997
 30
0.0
 11
893.49999999999989
 21
1849.5544999999997
 31
0.0
  0
SOLID
  5
7D
100
AcDbEntity
  8
____
 62
               2
100
AcDbTrace
 10
1093.5
 20
1849.5544999999997
 30
0.0
 11
1053.50244140625
 21
1846.0551670543327
 31
0.0
 12
1053.50244140625
 22
1853.0538329456667
 32
0.0
 13
1053.50244140625
 23
1853.0538329456667
 33
0.0
  0
SOLID
  5
7E
100
AcDbEntity
  8
____
 62
               2
100
AcDbTrace
 10
893.49999999999989
 20
1849.5544999999997
 30
0.0
 11
933.49755859374989
 21
1853.0538329456667
 31
0.0
 12
933.49755859374989
 22
1846.0551670543327
 32
0.0
 13
933.49755859374989
 23
1846.0551670543327
 33
0.0
  0
MTEXT
  5
7F
100
AcDbEntity
  8
____
 62
               2
100
AcDbMText
 10
961.7500235504574
 20
1903.0579592656247
 30
0.0
 40
32.576797265624997
 41
0.0
 71
               1
 72
               1
  1
200
  7
_______
  0
LINE
  5
80
100
AcDbEntity
  8
____
  6
CONTINUOUS
 62
               2
100
AcDbLine
 10
1298.4999999999998
 20
1609.9999997764824
 30
0.0
 11
1298.4999999999998
 21
1889.5544998509881
 31
0.0
  0
LINE
  5
81
100
AcDbEntity
  8
____
  6
CONTINUOUS
 62
               2
100
AcDbLine
 10
1098.5
 20
1609.9999997764824
 30
0.0
 11
1098.5
 21
1889.5544998509881
 31
0.0
  0
LINE
  5
82
100
AcDbEntity
  8
____
  6
CONTINUOUS
 62
               2
100
AcDbLine
 10
1338.4999998509882
 20
1849.5544999999997
 30
0.0
 11
1298.4999999999998
 21
1849.5544999999997
 31
0.0
  0
LINE
  5
83
100
AcDbEntity
  8
____
  6
CONTINUOUS
 62
               2
100
AcDbLine
 10
1098.5
 20
1849.5544999999997
 30
0.0
 11
1058.5000001490116
 21
1849.5544999999997
 31
0.0
  0
LINE
  5
84
100
AcDbEntity
  8
____
  6
CONTINUOUS
 62
               2
100
AcDbLine
 10
1298.4999999999998
 20
1849.5544999999997
 30
0.0
 11
1098.5
 21
1849.5544999999997
 31
0.0
  0
SOLID
  5
85
100
AcDbEntity
  8
____
 62
               2
100
AcDbTrace
 10
1298.4999999999998
 20
1849.5544999999997
 30
0.0
 11
1258.5024414062498
 21
1846.0551670543327
 31
0.0
 12
1258.5024414062498
 22
1853.0538329456667
 32
0.0
 13
1258.5024414062498
 23
1853.0538329456667
 33
0.0
  0
SOLID
  5
86
100
AcDbEntity
  8
____
 62
               2
100
AcDbTrace
 10
1098.5
 20
1849.5544999999997
 30
0.0
 11
1138.49755859375
 21
1853.0538329456667
 31
0.0
 12
1138.49755859375
 22
1846.0551670543327
 32
0.0
 13
1138.49755859375
 23
1846.0551670543327
 33
0.0
  0
MTEXT
  5
87
100
AcDbEntity
  8
____
 62
               2
100
AcDbMText
 10
1166.7500235504574
 20
1903.0579592656247
 30
0.0
 40
32.576797265624997
 41
0.0
 71
               1
 72
               1
  1
200
  7
_______
  0
LINE
  5
88
100
AcDbEntity
  8
____
  6
CONTINUOUS
 62
               2
100
AcDbLine
 10
1503.4999999999998
 20
1609.9999997764824
 30
0.0
 11
1503.4999999999998
 21
1889.5544998509881
 31
0.0
  0
LINE
  5
89
100
AcDbEntity
  8
____
  6
CONTINUOUS
 62
               2
100
AcDbLine
 10
1303.4999999999998
 20
1609.9999997764824
 30
0.0
 11
1303.4999999999998
 21
1889.5544998509881
 31
0.0
  0
LINE
  5
8A
100
AcDbEntity
  8
____
  6
CONTINUOUS
 62
               2
100
AcDbLine
 10
1543.4999998509882
 20
1849.5544999999997
 30
0.0
 11
1503.4999999999998
 21
1849.5544999999997
 31
0.0
  0
LINE
  5
8B
100
AcDbEntity
  8
____
  6
CONTINUOUS
 62
               2
100
AcDbLine
 10
1303.4999999999998
 20
1849.5544999999997
 30
0.0
 11
1263.5000001490114
 21
1849.5544999999997
 31
0.0
  0
LINE
  5
8C
100
AcDbEntity
  8
____
  6
CONTINUOUS
 62
               2
100
AcDbLine
 10
1503.4999999999998
 20
1849.5544999999997
 30
0.0
 11
1303.4999999999998
 21
1849.5544999999997
 31
0.0
  0
SOLID
  5
8D
100
AcDbEntity
  8
____
 62
               2
100
AcDbTrace
 10
1503.4999999999998
 20
1849.5544999999997
 30
0.0
 11
1463.5024414062498
 21
1846.0551670543327
 31
0.0
 12
1463.5024414062498
 22
1853.0538329456667
 32
0.0
 13
1463.5024414062498
 23
1853.0538329456667
 33
0.0
  0
SOLID
  5
8E
100
AcDbEntity
  8
____
 62
               2
100
AcDbTrace
 10
1303.4999999999998
 20
1849.5544999999997
 30
0.0
 11
1343.4975585937498
 21
1853.0538329456667
 31
0.0
 12
1343.4975585937498
 22
1846.0551670543327
 32
0.0
 13
1343.4975585937498
 23
1846.0551670543327
 33
0.0
  0
MTEXT
  5
8F
100
AcDbEntity
  8
____
 62
               2
100
AcDbMText
 10
1371.7500235504572
 20
1903.0579592656247
 30
0.0
 40
32.576797265624997
 41
0.0
 71
               1
 72
               1
  1
200
  7
_______
  0
LINE
  5
90
100
AcDbEntity
  8
____
  6
CONTINUOUS
 62
               2
100
AcDbLine
 10
-2677.4999999999995
 20
1609.9999997764824
 30
0.0
 11
-2677.4999999999995
 21
1884.9999998509882
 31
0.0
  0
LINE
  5
91
100
AcDbEntity
  8
____
  6
CONTINUOUS
 62
               2
100
AcDbLine
 10
-2477.5
 20
1609.9999997764824
 30
0.0
 11
-2477.5
 21
1884.9999998509882
 31
0.0
  0
LINE
  5
92
100
AcDbEntity
  8
____
  6
CONTINUOUS
 62
               2
100
AcDbLine
 10
-2717.4999998509879
 20
1844.9999999999998
 30
0.0
 11
-2677.4999999999995
 21
1844.9999999999998
 31
0.0
  0
LINE
  5
93
100
AcDbEntity
  8
____
  6
CONTINUOUS
 62
               2
100
AcDbLine
 10
-2477.5
 20
1844.9999999999998
 30
0.0
 11
-2437.5000001490116
 21
1844.9999999999998
 31
0.0
  0
LINE
  5
94
100
AcDbEntity
  8
____
  6
CONTINUOUS
 62
               2
100
AcDbLine
 10
-2677.4999999999995
 20
1844.9999999999998
 30
0.0
 11
-2477.5
 21
1844.9999999999998
 31
0.0
  0
SOLID
  5
95
100
AcDbEntity
  8
____
 62
               2
100
AcDbTrace
 10
-2677.4999999999995
 20
1844.9999999999998
 30
0.0
 11
-2637.5024414062495
 21
1848.4993329456668
 31
0.0
 12
-2637.5024414062495
 22
1841.5006670543328
 32
0.0
 13
-2637.5024414062495
 23
1841.5006670543328
 33
0.0
  0
SOLID
  5
96
100
AcDbEntity
  8
____
 62
               2
100
AcDbTrace
 10
-2477.5
 20
1844.9999999999998
 30
0.0
 11
-2517.49755859375
 21
1841.5006670543328
 31
0.0
 12
-2517.49755859375
 22
1848.4993329456668
 32
0.0
 13
-2517.49755859375
 23
1848.4993329456668
 33
0.0
  0
MTEXT
  5
97
100
AcDbEntity
  8
____
 62
               2
100
AcDbMText
 10
-2605.2491219573549
 20
1886.5034592656248
 30
0.0
 40
32.576797265624997
 41
0.0
 71
               1
 72
               1
  1
200
  7
_______
  0
LINE
  5
98
100
AcDbEntity
  8
____
  6
CONTINUOUS
 62
               2
100
AcDbLine
 10
-2677.4999999999995
 20
1609.9999997764824
 30
0.0
 11
-2677.4999999999995
 21
2019.5880998509881
 31
0.0
  0
LINE
  5
99
100
AcDbEntity
  8
____
  6
CONTINUOUS
 62
               2
100
AcDbLine
 10
-777.49999999999989
 20
1609.9999997764824
 30
0.0
 11
-777.49999999999989
 21
2019.5880998509881
 31
0.0
  0
LINE
  5
9A
100
AcDbEntity
  8
____
  6
CONTINUOUS
 62
               2
100
AcDbLine
 10
-2717.4999998509879
 20
1979.5880999999997
 30
0.0
 11
-2677.4999999999995
 21
1979.5880999999997
 31
0.0
  0
LINE
  5
9B
100
AcDbEntity
  8
____
  6
CONTINUOUS
 62
               2
100
AcDbLine
 10
-777.49999999999989
 20
1979.5880999999997
 30
0.0
 11
-737.5000001490115
 21
1979.5880999999997
 31
0.0
  0
LINE
  5
9C
100
AcDbEntity
  8
____
  6
CONTINUOUS
 62
               2
100
AcDbLine
 10
-2677.4999999999995
 20
1979.5880999999997
 30
0.0
 11
-777.49999999999989
 21
1979.5880999999997
 31
0.0
  0
SOLID
  5
9D
100
AcDbEntity
  8
____
 62
               2
100
AcDbTrace
 10
-2677.4999999999995
 20
1979.5880999999997
 30
0.0
 11
-2637.5024414062495
 21
1983.0874329456667
 31
0.0
 12
-2637.5024414062495
 22
1976.0887670543327
 32
0.0
 13
-2637.5024414062495
 23
1976.0887670543327
 33
0.0
  0
SOLID
  5
9E
100
AcDbEntity
  8
____
 62
               2
100
AcDbTrace
 10
-777.49999999999989
 20
1979.5880999999997
 30
0.0
 11
-817.49755859374989
 21
1976.0887670543327
 31
0.0
 12
-817.49755859374989
 22
1983.0874329456667
 32
0.0
 13
-817.49755859374989
 23
1983.0874329456667
 33
0.0
  0
MTEXT
  5
9F
100
AcDbEntity
  8
____
 62
               2
100
AcDbMText
 10
-1769.8332996898225
 20
2021.0915592656247
 30
0.0
 40
32.576797265624997
 41
0.0
 71
               1
 72
               1
  1
1900
  7
_______
  0
LINE
  5
A0
100
AcDbEntity
  8
____
  6
CONTINUOUS
 62
               2
100
AcDbLine
 10
-777.49999999999989
 20
1676.0788997764823
 30
0.0
 11
-777.49999999999989
 21
1884.9999998509882
 31
0.0
  0
LINE
  5
A1
100
AcDbEntity
  8
____
  6
CONTINUOUS
 62
               2
100
AcDbLine
 10
-977.49999999999989
 20
1676.0788997764823
 30
0.0
 11
-977.49999999999989
 21
1884.9999998509882
 31
0.0
  0
LINE
  5
A2
100
AcDbEntity
  8
____
  6
CONTINUOUS
 62
               2
100
AcDbLine
 10
-737.5000001490115
 20
1844.9999999999998
 30
0.0
 11
-777.49999999999989
 21
1844.9999999999998
 31
0.0
  0
LINE
  5
A3
100
AcDbEntity
  8
____
  6
CONTINUOUS
 62
               2
100
AcDbLine
 10
-977.49999999999989
 20
1844.9999999999998
 30
0.0
 11
-1017.4999998509883
 21
1844.9999999999998
 31
0.0
  0
LINE
  5
A4
100
AcDbEntity
  8
____
  6
CONTINUOUS
 62
               2
100
AcDbLine
 10
-777.49999999999989
 20
1844.9999999999998
 30
0.0
 11
-977.49999999999989
 21
1844.9999999999998
 31
0.0
  0
SOLID
  5
A5
100
AcDbEntity
  8
____
 62
               2
100
AcDbTrace
 10
-777.49999999999989
 20
1844.9999999999998
 30
0.0
 11
-817.49755859374989
 21
1841.5006670543328
 31
0.0
 12
-817.49755859374989
 22
1848.4993329456668
 32
0.0
 13
-817.49755859374989
 23
1848.4993329456668
 33
0.0
  0
SOLID
  5
A6
100
AcDbEntity
  8
____
 62
               2
100
AcDbTrace
 10
-977.49999999999989
 20
1844.9999999999998
 30
0.0
 11
-937.50244140624989
 21
1848.4993329456668
 31
0.0
 12
-937.50244140624989
 22
1841.5006670543328
 32
0.0
 13
-937.50244140624989
 23
1841.5006670543328
 33
0.0
  0
MTEXT
  5
A7
100
AcDbEntity
  8
____
 62
               2
100
AcDbMText
 10
-909.24997644954249
 20
1886.5034592656248
 30
0.0
 40
32.576797265624997
 41
0.0
 71
               1
 72
               1
  1
200
  7
_______
  0
LINE
  5
A8
100
AcDbEntity
  8
____
  6
CONTINUOUS
 62
               2
100
AcDbLine
 10
-2477.5
 20
1609.9999997764824
 30
0.0
 11
-2477.5
 21
1884.9999998509882
 31
0.0
  0
LINE
  5
A9
100
AcDbEntity
  8
____
  6
CONTINUOUS
 62
               2
100
AcDbLine
 10
-977.49999999999989
 20
1609.9999997764824
 30
0.0
 11
-977.49999999999989
 21
1884.9999998509882
 31
0.0
  0
LINE
  5
AA
100
AcDbEntity
  8
____
  6
CONTINUOUS
 62
               2
100
AcDbLine
 10
-2517.4999998509884
 20
1844.9999999999998
 30
0.0
 11
-2477.5
 21
1844.9999999999998
 31
0.0
  0
LINE
  5
AB
100
AcDbEntity
  8
____
  6
CONTINUOUS
 62
               2
100
AcDbLine
 10
-977.49999999999989
 20
1844.9999999999998
 30
0.0
 11
-937.5000001490115
 21
1844.9999999999998
 31
0.0
  0
LINE
  5
AC
100
AcDbEntity
  8
____
  6
CONTINUOUS
 62
               2
100
AcDbLine
 10
-2477.5
 20
1844.9999999999998
 30
0.0
 11
-977.49999999999989
 21
1844.9999999999998
 31
0.0
  0
SOLID
  5
AD
100
AcDbEntity
  8
____
 62
               2
100
AcDbTrace
 10
-2477.5
 20
1844.9999999999998
 30
0.0
 11
-2437.50244140625
 21
1848.4993329456668
 31
0.0
 12
-2437.50244140625
 22
1841.5006670543328
 32
0.0
 13
-2437.50244140625
 23
1841.5006670543328
 33
0.0
  0
SOLID
  5
AE
100
AcDbEntity
  8
____
 62
               2
100
AcDbTrace
 10
-977.49999999999989
 20
1844.9999999999998
 30
0.0
 11
-1017.4975585937499
 21
1841.5006670543328
 31
0.0
 12
-1017.4975585937499
 22
1848.4993329456668
 32
0.0
 13
-1017.4975585937499
 23
1848.4993329456668
 33
0.0
  0
MTEXT
  5
AF
100
AcDbEntity
  8
____
 62
               2
100
AcDbMText
 10
-1769.8332996898228
 20
1886.5034592656248
 30
0.0
 40
32.576797265624997
 41
0.0
 71
               1
 72
               1
  1
1500
  7
_______
  0
LINE
  5
B0
100
AcDbEntity
  8
____
  6
CONTINUOUS
 62
               2
100
AcDbLine
 10
688.49999999999989
 20
1669.9999997764824
 30
0.0
 11
688.49999999999989
 21
2014.9999998509882
 31
0.0
  0
LINE
  5
B1
100
AcDbEntity
  8
____
  6
CONTINUOUS
 62
               2
100
AcDbLine
 10
1503.4999999999998
 20
1609.9999997764824
 30
0.0
 11
1503.4999999999998
 21
2014.9999998509882
 31
0.0
  0
LINE
  5
B2
100
AcDbEntity
  8
____
  6
CONTINUOUS
 62
               2
100
AcDbLine
 10
648.5000001490115
 20
1974.9999999999998
 30
0.0
 11
688.49999999999989
 21
1974.9999999999998
 31
0.0
  0
LINE
  5
B3
100
AcDbEntity
  8
____
  6
CONTINUOUS
 62
               2
100
AcDbLine
 10
1503.4999999999998
 20
1974.9999999999998
 30
0.0
 11
1543.4999998509882
 21
1974.9999999999998
 31
0.0
  0
LINE
  5
B4
100
AcDbEntity
  8
____
  6
CONTINUOUS
 62
               2
100
AcDbLine
 10
688.49999999999989
 20
1974.9999999999998
 30
0.0
 11
1503.4999999999998
 21
1974.9999999999998
 31
0.0
  0
SOLID
  5
B5
100
AcDbEntity
  8
____
 62
               2
100
AcDbTrace
 10
688.49999999999989
 20
1974.9999999999998
 30
0.0
 11
728.49755859374989
 21
1978.4993329456668
 31
0.0
 12
728.49755859374989
 22
1971.5006670543328
 32
0.0
 13
728.49755859374989
 23
1971.5006670543328
 33
0.0
  0
SOLID
  5
B6
100
AcDbEntity
  8
____
 62
               2
100
AcDbTrace
 10
1503.4999999999998
 20
1974.9999999999998
 30
0.0
 11
1463.5024414062498
 21
1971.5006670543328
 31
0.0
 12
1463.5024414062498
 22
1978.4993329456668
 32
0.0
 13
1463.5024414062498
 23
1978.4993329456668
 33
0.0
  0
MTEXT
  5
B7
100
AcDbEntity
  8
____
 62
               2
100
AcDbMText
 10
1064.2500235504572
 20
2016.5034592656248
 30
0.0
 40
32.576797265624997
 41
0.0
 71
               1
 72
               1
  1
815
  7
_______
  0
LINE
  5
B8
100
AcDbEntity
  8
____
  6
CONTINUOUS
 62
               2
100
AcDbLine
 10
-2677.4999999999995
 20
-1390.4181997764824
 30
0.0
 11
-2677.4999999999995
 21
-1704.9999998509882
 31
0.0
  0
LINE
  5
B9
100
AcDbEntity
  8
____
  6
CONTINUOUS
 62
               2
100
AcDbLine
 10
-777.49999999999989
 20
-1390.4181997764824
 30
0.0
 11
-777.49999999999989
 21
-1704.9999998509882
 31
0.0
  0
LINE
  5
BA
100
AcDbEntity
  8
____
  6
CONTINUOUS
 62
               2
100
AcDbLine
 10
-2717.4999998509879
 20
-1664.9999999999998
 30
0.0
 11
-2677.4999999999995
 21
-1664.9999999999998
 31
0.0
  0
LINE
  5
BB
100
AcDbEntity
  8
____
  6
CONTINUOUS
 62
               2
100
AcDbLine
 10
-777.49999999999989
 20
-1664.9999999999998
 30
0.0
 11
-737.5000001490115
 21
-1664.9999999999998
 31
0.0
  0
LINE
  5
BC
100
AcDbEntity
  8
____
  6
CONTINUOUS
 62
               2
100
AcDbLine
 10
-2677.4999999999995
 20
-1664.9999999999998
 30
0.0
 11
-777.49999999999989
 21
-1664.9999999999998
 31
0.0
  0
SOLID
  5
BD
100
AcDbEntity
  8
____
 62
               2
100
AcDbTrace
 10
-2677.4999999999995
 20
-1664.9999999999998
 30
0.0
 11
-2637.5024414062495
 21
-1661.5006670543328
 31
0.0
 12
-2637.5024414062495
 22
-1668.4993329456668
 32
0.0
 13
-2637.5024414062495
 23
-1668.4993329456668
 33
0.0
  0
SOLID
  5
BE
100
AcDbEntity
  8
____
 62
               2
100
AcDbTrace
 10
-777.49999999999989
 20
-1664.9999999999998
 30
0.0
 11
-817.49755859374989
 21
-1668.4993329456668
 31
0.0
 12
-817.49755859374989
 22
-1661.5006670543328
 32
0.0
 13
-817.49755859374989
 23
-1661.5006670543328
 33
0.0
  0
MTEXT
  5
BF
100
AcDbEntity
  8
____
 62
               2
100
AcDbMText
 10
-1769.8332996898225
 20
-1623.4965407343748
 30
0.0
 40
32.576797265624997
 41
0.0
 71
               1
 72
               1
  1
1900
  7
_______
  0
LINE
  5
C0
100
AcDbEntity
  8
____
  6
CONTINUOUS
 62
               2
100
AcDbLine
 10
-977.49999999999989
 20
390.00000022351736
 30
0.0
 11
-977.49999999999989
 21
245.00000014901158
 31
0.0
  0
LINE
  5
C1
100
AcDbEntity
  8
____
  6
CONTINUOUS
 62
               2
100
AcDbLine
 10
-677.49999999999989
 20
390.00000022351736
 30
0.0
 11
-677.49999999999989
 21
245.00000014901161
 31
0.0
  0
LINE
  5
C2
100
AcDbEntity
  8
____
  6
CONTINUOUS
 62
               2
100
AcDbLine
 10
-1017.4999998509883
 20
285.0
 30
0.0
 11
-977.49999999999989
 21
285.0
 31
0.0
  0
LINE
  5
C3
100
AcDbEntity
  8
____
  6
CONTINUOUS
 62
               2
100
AcDbLine
 10
-677.49999999999989
 20
285.0
 30
0.0
 11
-637.5000001490115
 21
285.0
 31
0.0
  0
LINE
  5
C4
100
AcDbEntity
  8
____
  6
CONTINUOUS
 62
               2
100
AcDbLine
 10
-977.49999999999989
 20
285.0
 30
0.0
 11
-677.49999999999989
 21
285.0
 31
0.0
  0
SOLID
  5
C5
100
AcDbEntity
  8
____
 62
               2
100
AcDbTrace
 10
-977.49999999999989
 20
285.0
 30
0.0
 11
-937.50244140624989
 21
288.49933294566705
 31
0.0
 12
-937.50244140624989
 22
281.50066705433295
 32
0.0
 13
-937.50244140624989
 23
281.50066705433295
 33
0.0
  0
SOLID
  5
C6
100
AcDbEntity
  8
____
 62
               2
100
AcDbTrace
 10
-677.49999999999989
 20
285.0
 30
0.0
 11
-717.49755859374989
 21
281.50066705433295
 31
0.0
 12
-717.49755859374989
 22
288.49933294566699
 32
0.0
 13
-717.49755859374989
 23
288.49933294566699
 33
0.0
  0
MTEXT
  5
C7
100
AcDbEntity
  8
____
 62
               2
100
AcDbMText
 10
-851.75180750422999
 20
326.503459265625
 30
0.0
 40
32.576797265624997
 41
0.0
 71
               1
 72
               1
  1
300
  7
_______
  0
LINE
  5
C8
100
AcDbEntity
  8
____
  6
CONTINUOUS
 62
               2
100
AcDbLine
 10
-617.5000002235173
 20
799.99999999999989
 30
0.0
 11
-100.0000001490115
 21
799.99999999999989
 31
0.0
  0
LINE
  5
C9
100
AcDbEntity
  8
____
  6
CONTINUOUS
 62
               2
100
AcDbLine
 10
-575.00000022351742
 20
1549.9999999999998
 30
0.0
 11
-100.0000001490115
 21
1549.9999999999998
 31
0.0
  0
LINE
  5
CA
100
AcDbEntity
  8
____
  6
CONTINUOUS
 62
               2
100
AcDbLine
 10
-139.99999999999989
 20
760.0000001490115
 30
0.0
 11
-139.99999999999989
 21
799.99999999999989
 31
0.0
  0
LINE
  5
CB
100
AcDbEntity
  8
____
  6
CONTINUOUS
 62
               2
100
AcDbLine
 10
-139.99999999999989
 20
1549.9999999999998
 30
0.0
 11
-139.99999999999989
 21
1589.9999998509882
 31
0.0
  0
LINE
  5
CC
100
AcDbEntity
  8
____
  6
CONTINUOUS
 62
               2
100
AcDbLine
 10
-139.99999999999989
 20
799.99999999999989
 30
0.0
 11
-139.99999999999989
 21
1549.9999999999998
 31
0.0
  0
SOLID
  5
CD
100
AcDbEntity
  8
____
 62
               2
100
AcDbTrace
 10
-139.99999999999989
 20
799.99999999999989
 30
0.0
 11
-143.49933294566691
 21
839.99755859374989
 31
0.0
 12
-136.50066705433287
 22
839.99755859374989
 32
0.0
 13
-136.50066705433287
 23
839.99755859374989
 33
0.0
  0
SOLID
  5
CE
100
AcDbEntity
  8
____
 62
               2
100
AcDbTrace
 10
-139.99999999999989
 20
1549.9999999999998
 30
0.0
 11
-136.50066705433287
 21
1510.0024414062498
 31
0.0
 12
-143.49933294566691
 22
1510.0024414062498
 32
0.0
 13
-143.49933294566691
 23
1510.0024414062498
 33
0.0
  0
MTEXT
  5
CF
100
AcDbEntity
  8
____
 62
               2
100
AcDbMText
 10
-181.50345926562488
 20
1143.2500235504574
 30
0.0
 40
32.576797265624997
 41
0.0
 71
               1
 72
               1
  1
750
  7
_______
 11
0.0
 21
1.0
 31
0.0
  0
LINE
  5
D0
100
AcDbEntity
  8
____
  6
CONTINUOUS
 62
               2
100
AcDbLine
 10
-2777.4999999999995
 20
-1390.4181997764824
 30
0.0
 11
-2777.4999999999995
 21
-1834.9999998509882
 31
0.0
  0
LINE
  5
D1
100
AcDbEntity
  8
____
  6
CONTINUOUS
 62
               2
100
AcDbLine
 10
-677.49999999999989
 20
-1390.4181997764824
 30
0.0
 11
-677.49999999999989
 21
-1834.9999998509882
 31
0.0
  0
LINE
  5
D2
100
AcDbEntity
  8
____
  6
CONTINUOUS
 62
               2
100
AcDbLine
 10
-2817.4999998509879
 20
-1794.9999999999998
 30
0.0
 11
-2777.4999999999995
 21
-1794.9999999999998
 31
0.0
  0
LINE
  5
D3
100
AcDbEntity
  8
____
  6
CONTINUOUS
 62
               2
100
AcDbLine
 10
-677.49999999999989
 20
-1794.9999999999998
 30
0.0
 11
-637.5000001490115
 21
-1794.9999999999998
 31
0.0
  0
LINE
  5
D4
100
AcDbEntity
  8
____
  6
CONTINUOUS
 62
               2
100
AcDbLine
 10
-2777.4999999999995
 20
-1794.9999999999998
 30
0.0
 11
-677.49999999999989
 21
-1794.9999999999998
 31
0.0
  0
SOLID
  5
D5
100
AcDbEntity
  8
____
 62
               2
100
AcDbTrace
 10
-2777.4999999999995
 20
-1794.9999999999998
 30
0.0
 11
-2737.5024414062495
 21
-1791.5006670543328
 31
0.0
 12
-2737.5024414062495
 22
-1798.4993329456668
 32
0.0
 13
-2737.5024414062495
 23
-1798.4993329456668
 33
0.0
  0
SOLID
  5
D6
100
AcDbEntity
  8
____
 62
               2
100
AcDbTrace
 10
-677.49999999999989
 20
-1794.9999999999998
 30
0.0
 11
-717.49755859374989
 21
-1798.4993329456668
 31
0.0
 12
-717.49755859374989
 22
-1791.5006670543328
 32
0.0
 13
-717.49755859374989
 23
-1791.5006670543328
 33
0.0
  0
MTEXT
  5
D7
100
AcDbEntity
  8
____
 62
               2
100
AcDbMText
 10
-1769.8332996898225
 20
-1753.4965407343748
 30
0.0
 40
32.576797265624997
 41
0.0
 71
               1
 72
               1
  1
2100
  7
_______
  0
LINE
  5
D8
100
AcDbEntity
  8
____
  6
CONTINUOUS
 62
               2
100
AcDbLine
 10
-2777.4999999999995
 20
1609.9999997764824
 30
0.0
 11
-2777.4999999999995
 21
2153.1132998509884
 31
0.0
  0
LINE
  5
D9
100
AcDbEntity
  8
____
  6
CONTINUOUS
 62
               2
100
AcDbLine
 10
-677.49999999999989
 20
1609.9999997764824
 30
0.0
 11
-677.49999999999989
 21
2153.1132998509884
 31
0.0
  0
LINE
  5
DA
100
AcDbEntity
  8
____
  6
CONTINUOUS
 62
               2
100
AcDbLine
 10
-2817.4999998509879
 20
2113.1133
 30
0.0
 11
-2777.4999999999995
 21
2113.1133
 31
0.0
  0
LINE
  5
DB
100
AcDbEntity
  8
____
  6
CONTINUOUS
 62
               2
100
AcDbLine
 10
-677.49999999999989
 20
2113.1133
 30
0.0
 11
-637.5000001490115
 21
2113.1133
 31
0.0
  0
LINE
  5
DC
100
AcDbEntity
  8
____
  6
CONTINUOUS
 62
               2
100
AcDbLine
 10
-2777.4999999999995
 20
2113.1133
 30
0.0
 11
-677.49999999999989
 21
2113.1133
 31
0.0
  0
SOLID
  5
DD
100
AcDbEntity
  8
____
 62
               2
100
AcDbTrace
 10
-2777.4999999999995
 20
2113.1133
 30
0.0
 11
-2737.5024414062495
 21
2116.612632945667
 31
0.0
 12
-2737.5024414062495
 22
2109.613967054333
 32
0.0
 13
-2737.5024414062495
 23
2109.613967054333
 33
0.0
  0
SOLID
  5
DE
100
AcDbEntity
  8
____
 62
               2
100
AcDbTrace
 10
-677.49999999999989
 20
2113.1133
 30
0.0
 11
-717.49755859374989
 21
2109.613967054333
 31
0.0
 12
-717.49755859374989
 22
2116.612632945667
 32
0.0
 13
-717.49755859374989
 23
2116.612632945667
 33
0.0
  0
MTEXT
  5
DF
100
AcDbEntity
  8
____
 62
               2
100
AcDbMText
 10
-1769.8332996898225
 20
2154.6167592656248
 30
0.0
 40
32.576797265624997
 41
0.0
 71
               1
 72
               1
  1
2100
  7
_______
  0
MTEXT
  5
E0
100
AcDbEntity
  8
____
 62
               2
100
AcDbMText
 10
-379.41389999999996
 20
1836.9594592656249
 30
0.0
 40
32.576797265624997
 41
0.0
 71
               1
 72
               1
  1
コンクリート
  7
_______
  0
LINE
  5
E1
100
AcDbEntity
  8
____
  6
CONTINUOUS
 62
               2
100
AcDbLine
 10
-712.49999999999989
 20
1487.0347999999999
 30
0.0
 11
-401.75789999999995
 21
1770.7892999999999
 31
0.0
  0
LINE
  5
E2
100
AcDbEntity
  8
____
  6
CONTINUOUS
 62
               2
100
AcDbLine
 10
-401.75789999999995
 20
1770.7892999999999
 30
0.0
 11
-104.99999999999999
 21
1770.7892999999999
 31
0.0
  0
MTEXT
  5
E3
100
AcDbEntity
  8
____
 62
               2
100
AcDbMText
 10
-2207.1697999999997
 20
1760.8616045433027
 30
0.0
 40
32.576822916666664
 41
0.0
 71
               1
 72
               1
  1
天板 ESW200×100C塗装
  7
_______
  0
LINE
  5
E4
100
AcDbEntity
  8
____
  6
CONTINUOUS
 62
               2
100
AcDbLine
 10
-2335.2965999999997
 20
1519.9999999999998
 30
0.0
 11
-2239.1697999999997
 21
1707.4641999999999
 31
0.0
  0
LINE
  5
E5
100
AcDbEntity
  8
____
  6
CONTINUOUS
 62
               2
100
AcDbLine
 10
-2239.1697999999997
 20
1707.4641999999999
 30
0.0
 11
-1755.0
 21
1707.4641999999999
 31
0.0
  0
LINE
  5
E6
100
AcDbEntity
  8
____
  6
CONTINUOUS
 62
               2
100
AcDbLine
 10
1572.4999997764824
 20
1449.9999999999998
 30
0.0
 11
1874.9999998509882
 21
1449.9999999999998
 31
0.0
  0
LINE
  5
E7
100
AcDbEntity
  8
____
  6
CONTINUOUS
 62
               2
100
AcDbLine
 10
1563.4999997764824
 20
799.99999999999989
 30
0.0
 11
1874.9999998509882
 21
799.99999999999989
 31
0.0
  0
LINE
  5
E8
100
AcDbEntity
  8
____
  6
CONTINUOUS
 62
               2
100
AcDbLine
 10
1834.9999999999998
 20
1489.9999998509882
 30
0.0
 11
1834.9999999999998
 21
1449.9999999999998
 31
0.0
  0
LINE
  5
E9
100
AcDbEntity
  8
____
  6
CONTINUOUS
 62
               2
100
AcDbLine
 10
1834.9999999999998
 20
799.99999999999989
 30
0.0
 11
1834.9999999999998
 21
760.0000001490115
 31
0.0
  0
LINE
  5
EA
100
AcDbEntity
  8
____
  6
CONTINUOUS
 62
               2
100
AcDbLine
 10
1834.9999999999998
 20
1449.9999999999998
 30
0.0
 11
1834.9999999999998
 21
799.99999999999989
 31
0.0
  0
SOLID
  5
EB
100
AcDbEntity
  8
____
 62
               2
100
AcDbTrace
 10
1834.9999999999998
 20
1449.9999999999998
 30
0.0
 11
1838.4993329456668
 21
1410.0024414062498
 31
0.0
 12
1831.5006670543328
 22
1410.0024414062498
 32
0.0
 13
1831.5006670543328
 23
1410.0024414062498
 33
0.0
  0
SOLID
  5
EC
100
AcDbEntity
  8
____
 62
               2
100
AcDbTrace
 10
1834.9999999999998
 20
799.99999999999989
 30
0.0
 11
1831.5006670543328
 21
839.99755859374989
 31
0.0
 12
1838.4993329456668
 22
839.99755859374989
 32
0.0
 13
1838.4993329456668
 23
839.99755859374989
 33
0.0
  0
MTEXT
  5
ED
100
AcDbEntity
  8
____
 62
               2
100
AcDbMText
 10
1793.4965407343748
 20
1093.2500235504574
 30
0.0
 40
32.576797265624997
 41
0.0
 71
               1
 72
               1
  1
650
  7
_______
 11
0.0
 21
1.0
 31
0.0
  0
MTEXT
  5
EE
100
AcDbEntity
  8
____
 62
               2
100
AcDbMText
 10
-520.25
 20
-1501.7055407343748
 30
0.0
 40
32.576797265624997
 41
0.0
 71
               1
 72
               1
  1
コンクリート
  7
_______
  0
LINE
  5
EF
100
AcDbEntity
  8
____
  6
CONTINUOUS
 62
               2
100
AcDbLine
 10
-527.59399999999994
 20
-1562.8756999999998
 30
0.0
 11
-254.99999999999997
 21
-1562.8756999999998
 31
0.0
  0
MTEXT
  5
F0
100
AcDbEntity
  8
____
 62
               2
100
AcDbMText
 10
270.99179999999996
 20
1257.2972592656249
 30
0.0
 40
32.576797265624997
 41
0.0
 71
               1
 72
               1
  1
コンクリート
  7
_______
  0
LINE
  5
F1
100
AcDbEntity
  8
____
  6
CONTINUOUS
 62
               2
100
AcDbLine
 10
-2082.8006
 20
-329.99999999999994
 30
0.0
 11
-1610.0
 21
-329.99999999999994
 31
0.0
  0
MTEXT
  5
F2
100
AcDbEntity
  8
____
 62
               2
100
AcDbMText
 10
-2075.8006
 20
-278.11694488779779
 30
0.0
 40
32.576822916666664
 41
0.0
 71
               1
 72
               1
  1
天板 ESW200×100C塗装
  7
_______
  0
LINE
  5
F3
100
AcDbEntity
  8
____
  6
CONTINUOUS
 62
               2
100
AcDbLine
 10
-2082.8006
 20
-329.99999999999994
 30
0.0
 11
-2230.0
 21
-515.0
 31
0.0
  0
LINE
  5
F4
100
AcDbEntity
  8
____
  6
CONTINUOUS
 62
               2
100
AcDbLine
 10
-2777.4999999999995
 20
-478.19550022351734
 30
0.0
 11
-2777.4999999999995
 21
-298.19550014901154
 31
0.0
  0
LINE
  5
F5
100
AcDbEntity
  8
____
  6
CONTINUOUS
 62
               2
100
AcDbLine
 10
-2477.5
 20
-478.19550022351734
 30
0.0
 11
-2477.5
 21
-298.19550014901154
 31
0.0
  0
LINE
  5
F6
100
AcDbEntity
  8
____
  6
CONTINUOUS
 62
               2
100
AcDbLine
 10
-2817.4999998509879
 20
-338.19549999999992
 30
0.0
 11
-2777.4999999999995
 21
-338.19549999999992
 31
0.0
  0
LINE
  5
F7
100
AcDbEntity
  8
____
  6
CONTINUOUS
 62
               2
100
AcDbLine
 10
-2477.5
 20
-338.19549999999992
 30
0.0
 11
-2437.5000001490116
 21
-338.19549999999992
 31
0.0
  0
LINE
  5
F8
100
AcDbEntity
  8
____
  6
CONTINUOUS
 62
               2
100
AcDbLine
 10
-2777.4999999999995
 20
-338.19549999999992
 30
0.0
 11
-2477.5
 21
-338.19549999999992
 31
0.0
  0
SOLID
  5
F9
100
AcDbEntity
  8
____
 62
               2
100
AcDbTrace
 10
-2777.4999999999995
 20
-338.19549999999992
 30
0.0
 11
-2737.5024414062495
 21
-334.69616705433288
 31
0.0
 12
-2737.5024414062495
 22
-341.69483294566697
 32
0.0
 13
-2737.5024414062495
 23
-341.69483294566697
 33
0.0
  0
SOLID
  5
FA
100
AcDbEntity
  8
____
 62
               2
100
AcDbTrace
 10
-2477.5
 20
-338.19549999999992
 30
0.0
 11
-2517.49755859375
 21
-341.69483294566697
 31
0.0
 12
-2517.49755859375
 22
-334.69616705433293
 32
0.0
 13
-2517.49755859375
 23
-334.69616705433293
 33
0.0
  0
MTEXT
  5
FB
100
AcDbEntity
  8
____
 62
               2
100
AcDbMText
 10
-2659.2499764495424
 20
-296.69204073437493
 30
0.0
 40
32.576797265624997
 41
0.0
 71
               1
 72
               1
  1
300
  7
_______
  0
LINE
  5
FC
100
AcDbEntity
  8
____
  6
CONTINUOUS
 62
               2
100
AcDbLine
 10
-617.5000002235173
 20
799.99999999999989
 30
0.0
 11
-280.00000014901156
 21
799.99999999999989
 31
0.0
  0
LINE
  5
FD
100
AcDbEntity
  8
____
  6
CONTINUOUS
 62
               2
100
AcDbLine
 10
-585.00000022351742
 20
1449.9999999999998
 30
0.0
 11
-280.00000014901156
 21
1449.9999999999998
 31
0.0
  0
LINE
  5
FE
100
AcDbEntity
  8
____
  6
CONTINUOUS
 62
               2
100
AcDbLine
 10
-319.99999999999994
 20
760.0000001490115
 30
0.0
 11
-319.99999999999994
 21
799.99999999999989
 31
0.0
  0
LINE
  5
FF
100
AcDbEntity
  8
____
  6
CONTINUOUS
 62
               2
100
AcDbLine
 10
-319.99999999999994
 20
1449.9999999999998
 30
0.0
 11
-319.99999999999994
 21
1489.9999998509882
 31
0.0
  0
LINE
  5
100
100
AcDbEntity
  8
____
  6
CONTINUOUS
 62
               2
100
AcDbLine
 10
-319.99999999999994
 20
799.99999999999989
 30
0.0
 11
-319.99999999999994
 21
1449.9999999999998
 31
0.0
  0
SOLID
  5
101
100
AcDbEntity
  8
____
 62
               2
100
AcDbTrace
 10
-319.99999999999994
 20
799.99999999999989
 30
0.0
 11
-323.49933294566699
 21
839.99755859374989
 31
0.0
 12
-316.50066705433289
 22
839.99755859374989
 32
0.0
 13
-316.50066705433289
 23
839.99755859374989
 33
0.0
  0
SOLID
  5
102
100
AcDbEntity
  8
____
 62
               2
100
AcDbTrace
 10
-319.99999999999994
 20
1449.9999999999998
 30
0.0
 11
-316.50066705433289
 21
1410.0024414062498
 31
0.0
 12
-323.49933294566699
 22
1410.0024414062498
 32
0.0
 13
-323.49933294566699
 23
1410.0024414062498
 33
0.0
  0
MTEXT
  5
103
100
AcDbEntity
  8
____
 62
               2
100
AcDbMText
 10
-373.50345926562494
 20
1093.2500235504574
 30
0.0
 40
32.576797265624997
 41
0.0
 71
               1
 72
               1
  1
650
  7
_______
 11
0.0
 21
1.0
 31
0.0
  0
LINE
  5
104
100
AcDbEntity
  8
____
  6
CONTINUOUS
 62
               2
100
AcDbLine
 10
-1501.7648999999999
 20
-1610.0283999999999
 30
0.0
 11
-984.99999999999989
 21
-1610.0283999999999
 31
0.0
  0
LINE
  5
105
100
AcDbEntity
  8
____
  6
CONTINUOUS
 62
               2
100
AcDbLine
 10
-1500.7823999999998
 20
-1610.0283999999999
 30
0.0
 11
-1610.4891999999998
 21
-1485.3498999999999
 31
0.0
  0
LINE
  5
106
100
AcDbEntity
  8
____
  6
CONTINUOUS
 62
               2
100
AcDbLine
 10
1654.9999999999998
 20
1709.9999999999998
 30
0.0
 11
2160.0
 21
1709.9999999999998
 31
0.0
  0
LINE
  5
107
100
AcDbEntity
  8
____
  6
CONTINUOUS
 62
               2
100
AcDbLine
 10
1654.9999999999998
 20
1709.9999999999998
 30
0.0
 11
1545.3034999999998
 21
1520.0001
 31
0.0
  0
LINE
  5
108
100
AcDbEntity
  8
____
  6
CONTINUOUS
 62
               2
100
AcDbLine
 10
1563.4999997764824
 20
799.99999999999989
 30
0.0
 11
2049.9999998509884
 21
799.99999999999989
 31
0.0
  0
LINE
  5
109
100
AcDbEntity
  8
____
  6
CONTINUOUS
 62
               2
100
AcDbLine
 10
1568.4999997764824
 20
1549.9999999999998
 30
0.0
 11
2049.9999998509884
 21
1549.9999999999998
 31
0.0
  0
LINE
  5
10A
100
AcDbEntity
  8
____
  6
CONTINUOUS
 62
               2
100
AcDbLine
 10
2009.9999999999998
 20
760.0000001490115
 30
0.0
 11
2009.9999999999998
 21
799.99999999999989
 31
0.0
  0
LINE
  5
10B
100
AcDbEntity
  8
____
  6
CONTINUOUS
 62
               2
100
AcDbLine
 10
2009.9999999999998
 20
1549.9999999999998
 30
0.0
 11
2009.9999999999998
 21
1589.9999998509882
 31
0.0
  0
LINE
  5
10C
100
AcDbEntity
  8
____
  6
CONTINUOUS
 62
               2
100
AcDbLine
 10
2009.9999999999998
 20
799.99999999999989
 30
0.0
 11
2009.9999999999998
 21
1549.9999999999998
 31
0.0
  0
SOLID
  5
10D
100
AcDbEntity
  8
____
 62
               2
100
AcDbTrace
 10
2009.9999999999998
 20
799.99999999999989
 30
0.0
 11
2006.5006670543328
 21
839.99755859374989
 31
0.0
 12
2013.4993329456668
 22
839.99755859374989
 32
0.0
 13
2013.4993329456668
 23
839.99755859374989
 33
0.0
  0
SOLID
  5
10E
100
AcDbEntity
  8
____
 62
               2
100
AcDbTrace
 10
2009.9999999999998
 20
1549.9999999999998
 30
0.0
 11
2013.4993329456668
 21
1510.0024414062498
 31
0.0
 12
2006.5006670543328
 22
1510.0024414062498
 32
0.0
 13
2006.5006670543328
 23
1510.0024414062498
 33
0.0
  0
MTEXT
  5
10F
100
AcDbEntity
  8
____
 62
               2
100
AcDbMText
 10
1956.4965407343748
 20
1143.2500235504574
 30
0.0
 40
32.576797265624997
 41
0.0
 71
               1
 72
               1
  1
750
  7
_______
 11
0.0
 21
1.0
 31
0.0
  0
LINE
  5
110
100
AcDbEntity
  8
____
  6
CONTINUOUS
 62
               2
100
AcDbLine
 10
-527.59399999999994
 20
-1562.8756999999998
 30
0.0
 11
-697.49999999999989
 21
-1329.9999999999998
 31
0.0
  0
LINE
  5
111
100
AcDbEntity
  8
____
  6
CONTINUOUS
 62
               2
100
AcDbLine
 10
-637.5000002235173
 20
-1329.9999999999998
 30
0.0
 11
-375.0000001490115
 21
-1329.9999999999998
 31
0.0
  0
LINE
  5
112
100
AcDbEntity
  8
____
  6
CONTINUOUS
 62
               2
100
AcDbLine
 10
-637.5000002235173
 20
-515.0
 30
0.0
 11
-375.0000001490115
 21
-515.0
 31
0.0
  0
LINE
  5
113
100
AcDbEntity
  8
____
  6
CONTINUOUS
 62
               2
100
AcDbLine
 10
-414.99999999999989
 20
-1369.9999998509882
 30
0.0
 11
-414.99999999999989
 21
-1329.9999999999998
 31
0.0
  0
LINE
  5
114
100
AcDbEntity
  8
____
  6
CONTINUOUS
 62
               2
100
AcDbLine
 10
-414.99999999999989
 20
-515.0
 30
0.0
 11
-414.99999999999989
 21
-475.00000014901161
 31
0.0
  0
LINE
  5
115
100
AcDbEntity
  8
____
  6
CONTINUOUS
 62
               2
100
AcDbLine
 10
-414.99999999999989
 20
-1329.9999999999998
 30
0.0
 11
-414.99999999999989
 21
-515.0
 31
0.0
  0
SOLID
  5
116
100
AcDbEntity
  8
____
 62
               2
100
AcDbTrace
 10
-414.99999999999989
 20
-1329.9999999999998
 30
0.0
 11
-418.49933294566694
 21
-1290.0024414062498
 31
0.0
 12
-411.50066705433284
 22
-1290.0024414062498
 32
0.0
 13
-411.50066705433284
 23
-1290.0024414062498
 33
0.0
  0
SOLID
  5
117
100
AcDbEntity
  8
____
 62
               2
100
AcDbTrace
 10
-414.99999999999989
 20
-515.0
 30
0.0
 11
-411.50066705433284
 21
-554.99755859375
 31
0.0
 12
-418.49933294566694
 22
-554.99755859375
 32
0.0
 13
-418.49933294566694
 23
-554.99755859375
 33
0.0
  0
MTEXT
  5
118
100
AcDbEntity
  8
____
 62
               2
100
AcDbMText
 10
-468.50345926562488
 20
-954.24997644954249
 30
0.0
 40
32.576797265624997
 41
0.0
 71
               1
 72
               1
  1
815
  7
_______
 11
0.0
 21
1.0
 31
0.0
  0
LINE
  5
119
100
AcDbEntity
  8
____
  6
CONTINUOUS
 62
               2
100
AcDbLine
 10
-1027.5
 20
390.00000022351736
 30
0.0
 11
-1027.5
 21
145.00000014901156
 31
0.0
  0
LINE
  5
11A
100
AcDbEntity
  8
____
  6
CONTINUOUS
 62
               2
100
AcDbLine
 10
-627.5
 20
390.00000022351736
 30
0.0
 11
-627.5
 21
145.00000014901156
 31
0.0
  0
LINE
  5
11B
100
AcDbEntity
  8
____
  6
CONTINUOUS
 62
               2
100
AcDbLine
 10
-1067.4999998509884
 20
184.99999999999994
 30
0.0
 11
-1027.5
 21
184.99999999999994
 31
0.0
  0
LINE
  5
11C
100
AcDbEntity
  8
____
  6
CONTINUOUS
 62
               2
100
AcDbLine
 10
-627.5
 20
184.99999999999994
 30
0.0
 11
-587.50000014901161
 21
184.99999999999994
 31
0.0
  0
LINE
  5
11D
100
AcDbEntity
  8
____
  6
CONTINUOUS
 62
               2
100
AcDbLine
 10
-1027.5
 20
184.99999999999994
 30
0.0
 11
-627.5
 21
184.99999999999994
 31
0.0
  0
SOLID
  5
11E
100
AcDbEntity
  8
____
 62
               2
100
AcDbTrace
 10
-1027.5
 20
184.99999999999994
 30
0.0
 11
-987.50244140625
 21
188.49933294566696
 31
0.0
 12
-987.50244140625
 22
181.50066705433292
 32
0.0
 13
-987.50244140625
 23
181.50066705433292
 33
0.0
  0
SOLID
  5
11F
100
AcDbEntity
  8
____
 62
               2
100
AcDbTrace
 10
-627.5
 20
184.99999999999994
 30
0.0
 11
-667.49755859375
 21
181.50066705433292
 31
0.0
 12
-667.49755859375
 22
188.49933294566696
 32
0.0
 13
-667.49755859375
 23
188.49933294566696
 33
0.0
  0
MTEXT
  5
120
100
AcDbEntity
  8
____
 62
               2
100
AcDbMText
 10
-859.2499764495426
 20
243.50345926562494
 30
0.0
 40
32.576797265624997
 41
0.0
 71
               1
 72
               1
  1
400
  7
_______
  0
LINE
  5
121
100
AcDbEntity
  8
____
  6
CONTINUOUS
 62
               2
100
AcDbLine
 10
688.49999999999989
 20
390.00000022351736
 30
0.0
 11
688.49999999999989
 21
245.00000014901158
 31
0.0
  0
LINE
  5
122
100
AcDbEntity
  8
____
  6
CONTINUOUS
 62
               2
100
AcDbLine
 10
1503.4999999999998
 20
390.00000022351736
 30
0.0
 11
1503.4999999999998
 21
245.00000014901161
 31
0.0
  0
LINE
  5
123
100
AcDbEntity
  8
____
  6
CONTINUOUS
 62
               2
100
AcDbLine
 10
648.5000001490115
 20
285.0
 30
0.0
 11
688.49999999999989
 21
285.0
 31
0.0
  0
LINE
  5
124
100
AcDbEntity
  8
____
  6
CONTINUOUS
 62
               2
100
AcDbLine
 10
1503.4999999999998
 20
285.0
 30
0.0
 11
1543.4999998509882
 21
285.0
 31
0.0
  0
LINE
  5
125
100
AcDbEntity
  8
____
  6
CONTINUOUS
 62
               2
100
AcDbLine
 10
688.49999999999989
 20
285.0
 30
0.0
 11
1503.4999999999998
 21
285.0
 31
0.0
  0
SOLID
  5
126
100
AcDbEntity
  8
____
 62
               2
100
AcDbTrace
 10
688.49999999999989
 20
285.0
 30
0.0
 11
728.49755859374989
 21
288.49933294566705
 31
0.0
 12
728.49755859374989
 22
281.50066705433295
 32
0.0
 13
728.49755859374989
 23
281.50066705433295
 33
0.0
  0
SOLID
  5
127
100
AcDbEntity
  8
____
 62
               2
100
AcDbTrace
 10
1503.4999999999998
 20
285.0
 30
0.0
 11
1463.5024414062498
 21
281.50066705433295
 31
0.0
 12
1463.5024414062498
 22
288.49933294566699
 32
0.0
 13
1463.5024414062498
 23
288.49933294566699
 33
0.0
  0
MTEXT
  5
128
100
AcDbEntity
  8
____
 62
               2
100
AcDbMText
 10
1064.2500235504572
 20
343.503459265625
 30
0.0
 40
32.576797265624997
 41
0.0
 71
               1
 72
               1
  1
815
  7
_______
  0
LINE
  5
129
100
AcDbEntity
  8
____
  6
CONTINUOUS
 62
               2
100
AcDbLine
 10
638.5
 20
390.00000022351736
 30
0.0
 11
638.5
 21
145.00000014901156
 31
0.0
  0
LINE
  5
12A
100
AcDbEntity
  8
____
  6
CONTINUOUS
 62
               2
100
AcDbLine
 10
1553.4999999999998
 20
390.00000022351736
 30
0.0
 11
1553.4999999999998
 21
145.00000014901156
 31
0.0
  0
LINE
  5
12B
100
AcDbEntity
  8
____
  6
CONTINUOUS
 62
               2
100
AcDbLine
 10
598.50000014901161
 20
184.99999999999994
 30
0.0
 11
638.5
 21
184.99999999999994
 31
0.0
  0
LINE
  5
12C
100
AcDbEntity
  8
____
  6
CONTINUOUS
 62
               2
100
AcDbLine
 10
1553.4999999999998
 20
184.99999999999994
 30
0.0
 11
1593.4999998509882
 21
184.99999999999994
 31
0.0
  0
LINE
  5
12D
100
AcDbEntity
  8
____
  6
CONTINUOUS
 62
               2
100
AcDbLine
 10
638.5
 20
184.99999999999994
 30
0.0
 11
1553.4999999999998
 21
184.99999999999994
 31
0.0
  0
SOLID
  5
12E
100
AcDbEntity
  8
____
 62
               2
100
AcDbTrace
 10
638.5
 20
184.99999999999994
 30
0.0
 11
678.49755859375
 21
188.49933294566696
 31
0.0
 12
678.49755859375
 22
181.50066705433292
 32
0.0
 13
678.49755859375
 23
181.50066705433292
 33
0.0
  0
SOLID
  5
12F
100
AcDbEntity
  8
____
 62
               2
100
AcDbTrace
 10
1553.4999999999998
 20
184.99999999999994
 30
0.0
 11
1513.5024414062498
 21
181.50066705433292
 31
0.0
 12
1513.5024414062498
 22
188.49933294566696
 32
0.0
 13
1513.5024414062498
 23
188.49933294566696
 33
0.0
  0
MTEXT
  5
130
100
AcDbEntity
  8
____
 62
               2
100
AcDbMText
 10
1064.2500235504574
 20
243.50345926562494
 30
0.0
 40
32.576797265624997
 41
0.0
 71
               1
 72
               1
  1
915
  7
_______
  0
MTEXT
  5
131
100
AcDbEntity
  8
____
 62
               2
100
AcDbMText
 10
-3329.6665999999996
 20
376.22685926562497
 30
0.0
 40
32.576797265624997
 41
0.0
 71
               1
 72
               1
  1
再生クラッシャラン
  7
_______
  0
LINE
  5
132
100
AcDbEntity
  8
____
  6
CONTINUOUS
 62
               2
100
AcDbLine
 10
-3349.9999999999995
 20
315.0
 30
0.0
 11
-2949.9999999999995
 21
315.0
 31
0.0
  0
LINE
  5
133
100
AcDbEntity
  8
____
  6
CONTINUOUS
 62
               2
100
AcDbLine
 10
-2949.9999999999995
 20
315.0
 30
0.0
 11
-2777.4999999999995
 21
499.99999999999994
 31
0.0
  0
MTEXT
  5
134
100
AcDbEntity
  8
____
 62
               2
100
AcDbMText
 10
105.33349999999999
 20
376.22685926562497
 30
0.0
 40
32.576797265624997
 41
0.0
 71
               1
 72
               1
  1
再生クラッシャラン
  7
_______
  0
LINE
  5
135
100
AcDbEntity
  8
____
  6
CONTINUOUS
 62
               2
100
AcDbLine
 10
89.999999999999986
 20
315.0
 30
0.0
 11
480.00009999999997
 21
315.0
 31
0.0
  0
LINE
  5
136
100
AcDbEntity
  8
____
  6
CONTINUOUS
 62
               2
100
AcDbLine
 10
480.00009999999997
 20
315.0
 30
0.0
 11
688.49999999999989
 21
499.99999999999994
 31
0.0
  0
LINE
  5
137
100
AcDbEntity
  8
____
  6
CONTINUOUS
 62
               2
100
AcDbLine
 10
893.49999999999989
 20
1609.9999997764824
 30
0.0
 11
893.49999999999989
 21
1889.5544998509881
 31
0.0
  0
LINE
  5
138
100
AcDbEntity
  8
____
  6
CONTINUOUS
 62
               2
100
AcDbLine
 10
888.49999999999989
 20
1609.9999997764824
 30
0.0
 11
888.49999999999989
 21
1889.5544998509881
 31
0.0
  0
LINE
  5
139
100
AcDbEntity
  8
____
  6
CONTINUOUS
 62
               2
100
AcDbLine
 10
933.49999985098827
 20
1849.5544999999997
 30
0.0
 11
893.49999999999989
 21
1849.5544999999997
 31
0.0
  0
LINE
  5
13A
100
AcDbEntity
  8
____
  6
CONTINUOUS
 62
               2
100
AcDbLine
 10
888.49999999999989
 20
1849.5544999999997
 30
0.0
 11
848.5000001490115
 21
1849.5544999999997
 31
0.0
  0
LINE
  5
13B
100
AcDbEntity
  8
____
  6
CONTINUOUS
 62
               2
100
AcDbLine
 10
893.49999999999989
 20
1849.5544999999997
 30
0.0
 11
888.49999999999989
 21
1849.5544999999997
 31
0.0
  0
SOLID
  5
13C
100
AcDbEntity
  8
____
 62
               2
100
AcDbTrace
 10
893.49999999999989
 20
1849.5544999999997
 30
0.0
 11
853.50244140624989
 21
1846.0551670543327
 31
0.0
 12
853.50244140624989
 22
1853.0538329456667
 32
0.0
 13
853.50244140624989
 23
1853.0538329456667
 33
0.0
  0
SOLID
  5
13D
100
AcDbEntity
  8
____
 62
               2
100
AcDbTrace
 10
888.49999999999989
 20
1849.5544999999997
 30
0.0
 11
928.49755859374989
 21
1853.0538329456667
 31
0.0
 12
928.49755859374989
 22
1846.0551670543327
 32
0.0
 13
928.49755859374989
 23
1846.0551670543327
 33
0.0
  0
MTEXT
  5
13E
100
AcDbEntity
  8
____
 62
               2
100
AcDbMText
 10
880.41667507754426
 20
1903.0579592656247
 30
0.0
 40
32.576797265624997
 41
0.0
 71
               1
 72
               1
  1
5
  7
_______
  0
LINE
  5
13F
100
AcDbEntity
  8
____
  6
CONTINUOUS
 62
               2
100
AcDbLine
 10
1098.5
 20
1609.9999997764824
 30
0.0
 11
1098.5
 21
1889.5544998509881
 31
0.0
  0
LINE
  5
140
100
AcDbEntity
  8
____
  6
CONTINUOUS
 62
               2
100
AcDbLine
 10
1093.5
 20
1609.9999997764824
 30
0.0
 11
1093.5
 21
1889.5544998509881
 31
0.0
  0
LINE
  5
141
100
AcDbEntity
  8
____
  6
CONTINUOUS
 62
               2
100
AcDbLine
 10
1138.4999998509884
 20
1849.5544999999997
 30
0.0
 11
1098.5
 21
1849.5544999999997
 31
0.0
  0
LINE
  5
142
100
AcDbEntity
  8
____
  6
CONTINUOUS
 62
               2
100
AcDbLine
 10
1093.5
 20
1849.5544999999997
 30
0.0
 11
1053.5000001490116
 21
1849.5544999999997
 31
0.0
  0
LINE
  5
143
100
AcDbEntity
  8
____
  6
CONTINUOUS
 62
               2
100
AcDbLine
 10
1098.5
 20
1849.5544999999997
 30
0.0
 11
1093.5
 21
1849.5544999999997
 31
0.0
  0
SOLID
  5
144
100
AcDbEntity
  8
____
 62
               2
100
AcDbTrace
 10
1098.5
 20
1849.5544999999997
 30
0.0
 11
1058.50244140625
 21
1846.0551670543327
 31
0.0
 12
1058.50244140625
 22
1853.0538329456667
 32
0.0
 13
1058.50244140625
 23
1853.0538329456667
 33
0.0
  0
SOLID
  5
145
100
AcDbEntity
  8
____
 62
               2
100
AcDbTrace
 10
1093.5
 20
1849.5544999999997
 30
0.0
 11
1133.49755859375
 21
1853.0538329456667
 31
0.0
 12
1133.49755859375
 22
1846.0551670543327
 32
0.0
 13
1133.49755859375
 23
1846.0551670543327
 33
0.0
  0
MTEXT
  5
146
100
AcDbEntity
  8
____
 62
               2
100
AcDbMText
 10
1085.4166750775444
 20
1903.0579592656247
 30
0.0
 40
32.576797265624997
 41
0.0
 71
               1
 72
               1
  1
5
  7
_______
  0
LINE
  5
147
100
AcDbEntity
  8
____
  6
CONTINUOUS
 62
               2
100
AcDbLine
 10
1303.4999999999998
 20
1609.9999997764824
 30
0.0
 11
1303.4999999999998
 21
1889.5544998509881
 31
0.0
  0
LINE
  5
148
100
AcDbEntity
  8
____
  6
CONTINUOUS
 62
               2
100
AcDbLine
 10
1298.4999999999998
 20
1609.9999997764824
 30
0.0
 11
1298.4999999999998
 21
1889.5544998509881
 31
0.0
  0
LINE
  5
149
100
AcDbEntity
  8
____
  6
CONTINUOUS
 62
               2
100
AcDbLine
 10
1343.4999998509882
 20
1849.5544999999997
 30
0.0
 11
1303.4999999999998
 21
1849.5544999999997
 31
0.0
  0
LINE
  5
14A
100
AcDbEntity
  8
____
  6
CONTINUOUS
 62
               2
100
AcDbLine
 10
1298.4999999999998
 20
1849.5544999999997
 30
0.0
 11
1258.5000001490114
 21
1849.5544999999997
 31
0.0
  0
LINE
  5
14B
100
AcDbEntity
  8
____
  6
CONTINUOUS
 62
               2
100
AcDbLine
 10
1303.4999999999998
 20
1849.5544999999997
 30
0.0
 11
1298.4999999999998
 21
1849.5544999999997
 31
0.0
  0
SOLID
  5
14C
100
AcDbEntity
  8
____
 62
               2
100
AcDbTrace
 10
1303.4999999999998
 20
1849.5544999999997
 30
0.0
 11
1263.5024414062498
 21
1846.0551670543327
 31
0.0
 12
1263.5024414062498
 22
1853.0538329456667
 32
0.0
 13
1263.5024414062498
 23
1853.0538329456667
 33
0.0
  0
SOLID
  5
14D
100
AcDbEntity
  8
____
 62
               2
100
AcDbTrace
 10
1298.4999999999998
 20
1849.5544999999997
 30
0.0
 11
1338.4975585937498
 21
1853.0538329456667
 31
0.0
 12
1338.4975585937498
 22
1846.0551670543327
 32
0.0
 13
1338.4975585937498
 23
1846.0551670543327
 33
0.0
  0
MTEXT
  5
14E
100
AcDbEntity
  8
____
 62
               2
100
AcDbMText
 10
1290.4166750775441
 20
1903.0579592656247
 30
0.0
 40
32.576797265624997
 41
0.0
 71
               1
 72
               1
  1
5
  7
_______
  0
LINE
  5
14F
100
AcDbEntity
  8
____
  6
CONTINUOUS
 62
               2
100
AcDbLine
 10
-567.50000022351742
 20
449.99999999999994
 30
0.0
 11
-280.00000014901161
 21
449.99999999999994
 31
0.0
  0
LINE
  5
150
100
AcDbEntity
  8
____
  6
CONTINUOUS
 62
               2
100
AcDbLine
 10
-567.50000022351742
 20
550.0
 30
0.0
 11
-280.00000014901161
 21
550.0
 31
0.0
  0
LINE
  5
151
100
AcDbEntity
  8
____
  6
CONTINUOUS
 62
               2
100
AcDbLine
 10
-320.0
 20
410.00000014901156
 30
0.0
 11
-320.0
 21
449.99999999999994
 31
0.0
  0
LINE
  5
152
100
AcDbEntity
  8
____
  6
CONTINUOUS
 62
               2
100
AcDbLine
 10
-320.0
 20
550.0
 30
0.0
 11
-320.0
 21
589.99999985098839
 31
0.0
  0
LINE
  5
153
100
AcDbEntity
  8
____
  6
CONTINUOUS
 62
               2
100
AcDbLine
 10
-320.0
 20
449.99999999999994
 30
0.0
 11
-320.0
 21
550.0
 31
0.0
  0
SOLID
  5
154
100
AcDbEntity
  8
____
 62
               2
100
AcDbTrace
 10
-320.0
 20
449.99999999999994
 30
0.0
 11
-323.49933294566705
 21
489.99755859374994
 31
0.0
 12
-316.50066705433295
 22
489.99755859374994
 32
0.0
 13
-316.50066705433295
 23
489.99755859374994
 33
0.0
  0
SOLID
  5
155
100
AcDbEntity
  8
____
 62
               2
100
AcDbTrace
 10
-320.0
 20
550.0
 30
0.0
 11
-316.50066705433295
 21
510.00244140625
 31
0.0
 12
-323.49933294566705
 22
510.00244140625
 32
0.0
 13
-323.49933294566705
 23
510.00244140625
 33
0.0
  0
MTEXT
  5
156
100
AcDbEntity
  8
____
 62
               2
100
AcDbMText
 10
-378.503459265625
 20
468.2500235504574
 30
0.0
 40
32.576797265624997
 41
0.0
 71
               1
 72
               1
  1
100
  7
_______
 11
0.0
 21
1.0
 31
0.0
  0
LINE
  5
157
100
AcDbEntity
  8
____
  6
CONTINUOUS
 62
               2
100
AcDbLine
 10
-567.50000022351742
 20
649.99999999999989
 30
0.0
 11
-280.00000014901161
 21
649.99999999999989
 31
0.0
  0
LINE
  5
158
100
AcDbEntity
  8
____
  6
CONTINUOUS
 62
               2
100
AcDbLine
 10
-617.5000002235173
 20
799.99999999999989
 30
0.0
 11
-280.00000014901161
 21
799.99999999999989
 31
0.0
  0
LINE
  5
159
100
AcDbEntity
  8
____
  6
CONTINUOUS
 62
               2
100
AcDbLine
 10
-320.0
 20
610.0000001490115
 30
0.0
 11
-320.0
 21
649.99999999999989
 31
0.0
  0
LINE
  5
15A
100
AcDbEntity
  8
____
  6
CONTINUOUS
 62
               2
100
AcDbLine
 10
-320.0
 20
799.99999999999989
 30
0.0
 11
-320.0
 21
839.99999985098827
 31
0.0
  0
LINE
  5
15B
100
AcDbEntity
  8
____
  6
CONTINUOUS
 62
               2
100
AcDbLine
 10
-320.0
 20
649.99999999999989
 30
0.0
 11
-320.0
 21
799.99999999999989
 31
0.0
  0
SOLID
  5
15C
100
AcDbEntity
  8
____
 62
               2
100
AcDbTrace
 10
-320.0
 20
649.99999999999989
 30
0.0
 11
-323.49933294566705
 21
689.99755859374989
 31
0.0
 12
-316.50066705433295
 22
689.99755859374989
 32
0.0
 13
-316.50066705433295
 23
689.99755859374989
 33
0.0
  0
SOLID
  5
15D
100
AcDbEntity
  8
____
 62
               2
100
AcDbTrace
 10
-320.0
 20
799.99999999999989
 30
0.0
 11
-316.50066705433295
 21
760.00244140624989
 31
0.0
 12
-323.49933294566705
 22
760.00244140624989
 32
0.0
 13
-323.49933294566705
 23
760.00244140624989
 33
0.0
  0
MTEXT
  5
15E
100
AcDbEntity
  8
____
 62
               2
100
AcDbMText
 10
-378.503459265625
 20
693.25002355045729
 30
0.0
 40
32.576797265624997
 41
0.0
 71
               1
 72
               1
  1
150
  7
_______
 11
0.0
 21
1.0
 31
0.0
  0
LINE
  5
15F
100
AcDbEntity
  8
____
  6
CONTINUOUS
 62
               2
100
AcDbLine
 10
1613.4999997764824
 20
449.99999999999994
 30
0.0
 11
1874.9999998509882
 21
449.99999999999994
 31
0.0
  0
LINE
  5
160
100
AcDbEntity
  8
____
  6
CONTINUOUS
 62
               2
100
AcDbLine
 10
1613.4999997764824
 20
550.0
 30
0.0
 11
1874.9999998509882
 21
550.0
 31
0.0
  0
LINE
  5
161
100
AcDbEntity
  8
____
  6
CONTINUOUS
 62
               2
100
AcDbLine
 10
1834.9999999999998
 20
410.00000014901156
 30
0.0
 11
1834.9999999999998
 21
449.99999999999994
 31
0.0
  0
LINE
  5
162
100
AcDbEntity
  8
____
  6
CONTINUOUS
 62
               2
100
AcDbLine
 10
1834.9999999999998
 20
550.0
 30
0.0
 11
1834.9999999999998
 21
589.99999985098839
 31
0.0
  0
LINE
  5
163
100
AcDbEntity
  8
____
  6
CONTINUOUS
 62
               2
100
AcDbLine
 10
1834.9999999999998
 20
449.99999999999994
 30
0.0
 11
1834.9999999999998
 21
550.0
 31
0.0
  0
SOLID
  5
164
100
AcDbEntity
  8
____
 62
               2
100
AcDbTrace
 10
1834.9999999999998
 20
449.99999999999994
 30
0.0
 11
1831.5006670543328
 21
489.99755859374994
 31
0.0
 12
1838.4993329456668
 22
489.99755859374994
 32
0.0
 13
1838.4993329456668
 23
489.99755859374994
 33
0.0
  0
SOLID
  5
165
100
AcDbEntity
  8
____
 62
               2
100
AcDbTrace
 10
1834.9999999999998
 20
550.0
 30
0.0
 11
1838.4993329456668
 21
510.00244140625
 31
0.0
 12
1831.5006670543328
 22
510.00244140625
 32
0.0
 13
1831.5006670543328
 23
510.00244140625
 33
0.0
  0
MTEXT
  5
166
100
AcDbEntity
  8
____
 62
               2
100
AcDbMText
 10
1776.4965407343748
 20
468.2500235504574
 30
0.0
 40
32.576797265624997
 41
0.0
 71
               1
 72
               1
  1
100
  7
_______
 11
0.0
 21
1.0
 31
0.0
  0
LINE
  5
167
100
AcDbEntity
  8
____
  6
CONTINUOUS
 62
               2
100
AcDbLine
 10
1613.4999997764824
 20
649.99999999999989
 30
0.0
 11
1874.9999998509882
 21
649.99999999999989
 31
0.0
  0
LINE
  5
168
100
AcDbEntity
  8
____
  6
CONTINUOUS
 62
               2
100
AcDbLine
 10
1563.4999997764824
 20
799.99999999999989
 30
0.0
 11
1874.9999998509882
 21
799.99999999999989
 31
0.0
  0
LINE
  5
169
100
AcDbEntity
  8
____
  6
CONTINUOUS
 62
               2
100
AcDbLine
 10
1834.9999999999998
 20
610.0000001490115
 30
0.0
 11
1834.9999999999998
 21
649.99999999999989
 31
0.0
  0
LINE
  5
16A
100
AcDbEntity
  8
____
  6
CONTINUOUS
 62
               2
100
AcDbLine
 10
1834.9999999999998
 20
799.99999999999989
 30
0.0
 11
1834.9999999999998
 21
839.99999985098827
 31
0.0
  0
LINE
  5
16B
100
AcDbEntity
  8
____
  6
CONTINUOUS
 62
               2
100
AcDbLine
 10
1834.9999999999998
 20
649.99999999999989
 30
0.0
 11
1834.9999999999998
 21
799.99999999999989
 31
0.0
  0
SOLID
  5
16C
100
AcDbEntity
  8
____
 62
               2
100
AcDbTrace
 10
1834.9999999999998
 20
649.99999999999989
 30
0.0
 11
1831.5006670543328
 21
689.99755859374989
 31
0.0
 12
1838.4993329456668
 22
689.99755859374989
 32
0.0
 13
1838.4993329456668
 23
689.99755859374989
 33
0.0
  0
SOLID
  5
16D
100
AcDbEntity
  8
____
 62
               2
100
AcDbTrace
 10
1834.9999999999998
 20
799.99999999999989
 30
0.0
 11
1838.4993329456668
 21
760.00244140624989
 31
0.0
 12
1831.5006670543328
 22
760.00244140624989
 32
0.0
 13
1831.5006670543328
 23
760.00244140624989
 33
0.0
  0
MTEXT
  5
16E
100
AcDbEntity
  8
____
 62
               2
100
AcDbMText
 10
1776.4965407343748
 20
693.25002355045729
 30
0.0
 40
32.576797265624997
 41
0.0
 71
               1
 72
               1
  1
150
  7
_______
 11
0.0
 21
1.0
 31
0.0
  0
LINE
  5
16F
100
AcDbEntity
  8
____
  6
CONTINUOUS
 62
               2
100
AcDbLine
 10
270.99179999999996
 20
1201.0137999999999
 30
0.0
 11
535.0
 21
1201.0137999999999
 31
0.0
  0
LINE
  5
170
100
AcDbEntity
  8
____
  6
CONTINUOUS
 62
               2
100
AcDbLine
 10
535.0
 20
1201.0137999999999
 30
0.0
 11
739.99999999999989
 21
1359.9999999999998
 31
0.0
  0
LINE
  5
171
100
AcDbEntity
  8
____
  6
CONTINUOUS
 62
               2
100
AcDbLine
 10
-450.00000022351736
 20
449.99999999999994
 30
0.0
 11
-100.00000014901161
 21
449.99999999999994
 31
0.0
  0
LINE
  5
172
100
AcDbEntity
  8
____
  6
CONTINUOUS
 62
               2
100
AcDbLine
 10
-417.50000022351736
 20
799.99999999999989
 30
0.0
 11
-100.00000014901161
 21
799.99999999999989
 31
0.0
  0
LINE
  5
173
100
AcDbEntity
  8
____
  6
CONTINUOUS
 62
               2
100
AcDbLine
 10
-140.0
 20
410.00000014901156
 30
0.0
 11
-140.0
 21
449.99999999999994
 31
0.0
  0
LINE
  5
174
100
AcDbEntity
  8
____
  6
CONTINUOUS
 62
               2
100
AcDbLine
 10
-140.0
 20
799.99999999999989
 30
0.0
 11
-140.0
 21
839.99999985098827
 31
0.0
  0
LINE
  5
175
100
AcDbEntity
  8
____
  6
CONTINUOUS
 62
               2
100
AcDbLine
 10
-140.0
 20
449.99999999999994
 30
0.0
 11
-140.0
 21
799.99999999999989
 31
0.0
  0
SOLID
  5
176
100
AcDbEntity
  8
____
 62
               2
100
AcDbTrace
 10
-140.0
 20
449.99999999999994
 30
0.0
 11
-143.49933294566702
 21
489.99755859374994
 31
0.0
 12
-136.50066705433298
 22
489.99755859374994
 32
0.0
 13
-136.50066705433298
 23
489.99755859374994
 33
0.0
  0
SOLID
  5
177
100
AcDbEntity
  8
____
 62
               2
100
AcDbTrace
 10
-140.0
 20
799.99999999999989
 30
0.0
 11
-136.50066705433298
 21
760.00244140624989
 31
0.0
 12
-143.49933294566702
 22
760.00244140624989
 32
0.0
 13
-143.49933294566702
 23
760.00244140624989
 33
0.0
  0
MTEXT
  5
178
100
AcDbEntity
  8
____
 62
               2
100
AcDbMText
 10
-198.503459265625
 20
593.25002355045729
 30
0.0
 40
32.576797265624997
 41
0.0
 71
               1
 72
               1
  1
350
  7
_______
 11
0.0
 21
1.0
 31
0.0
  0
LINE
  5
179
100
AcDbEntity
  8
____
  6
CONTINUOUS
 62
               2
100
AcDbLine
 10
1763.4999997764824
 20
799.99999999999989
 30
0.0
 11
2049.9999998509884
 21
799.99999999999989
 31
0.0
  0
LINE
  5
17A
100
AcDbEntity
  8
____
  6
CONTINUOUS
 62
               2
100
AcDbLine
 10
1763.4999997764824
 20
449.99999999999994
 30
0.0
 11
2049.9999998509884
 21
449.99999999999994
 31
0.0
  0
LINE
  5
17B
100
AcDbEntity
  8
____
  6
CONTINUOUS
 62
               2
100
AcDbLine
 10
2009.9999999999998
 20
839.99999985098827
 30
0.0
 11
2009.9999999999998
 21
799.99999999999989
 31
0.0
  0
LINE
  5
17C
100
AcDbEntity
  8
____
  6
CONTINUOUS
 62
               2
100
AcDbLine
 10
2009.9999999999998
 20
449.99999999999994
 30
0.0
 11
2009.9999999999998
 21
410.00000014901156
 31
0.0
  0
LINE
  5
17D
100
AcDbEntity
  8
____
  6
CONTINUOUS
 62
               2
100
AcDbLine
 10
2009.9999999999998
 20
799.99999999999989
 30
0.0
 11
2009.9999999999998
 21
449.99999999999994
 31
0.0
  0
SOLID
  5
17E
100
AcDbEntity
  8
____
 62
               2
100
AcDbTrace
 10
2009.9999999999998
 20
799.99999999999989
 30
0.0
 11
2013.4993329456668
 21
760.00244140624989
 31
0.0
 12
2006.5006670543328
 22
760.00244140624989
 32
0.0
 13
2006.5006670543328
 23
760.00244140624989
 33
0.0
  0
SOLID
  5
17F
100
AcDbEntity
  8
____
 62
               2
100
AcDbTrace
 10
2009.9999999999998
 20
449.99999999999994
 30
0.0
 11
2006.5006670543328
 21
489.99755859374994
 31
0.0
 12
2013.4993329456668
 22
489.99755859374994
 32
0.0
 13
2013.4993329456668
 23
489.99755859374994
 33
0.0
  0
MTEXT
  5
180
100
AcDbEntity
  8
____
 62
               2
100
AcDbMText
 10
1951.4965407343748
 20
593.25002355045729
 30
0.0
 40
32.576797265624997
 41
0.0
 71
               1
 72
               1
  1
350
  7
_______
 11
0.0
 21
1.0
 31
0.0
  0
MTEXT
  5
181
100
AcDbEntity
  8
____
 62
               2
100
AcDbMText
 10
-1495.7416999999998
 20
1765.7982075589277
 30
0.0
 40
32.576797265624997
 41
0.0
 71
               1
 72
               1
  1
手すり SUS 304　φ42.7
  7
_______
  0
LINE
  5
182
100
AcDbEntity
  8
____
  6
CONTINUOUS
 62
               2
100
AcDbLine
 10
-1509.9999999999998
 20
1714.9999999999998
 30
0.0
 11
-1020.0
 21
1714.9999999999998
 31
0.0
  0
LINE
  5
183
100
AcDbEntity
  8
____
  6
CONTINUOUS
 62
               2
100
AcDbLine
 10
-1509.9999999999998
 20
1714.9999999999998
 30
0.0
 11
-1579.9999999999998
 21
1521.3499999999999
 31
0.0
  0
MTEXT
  5
184
100
AcDbEntity
  8
____
 62
               2
100
AcDbMText
 10
-1494.9999999999998
 20
-1553.8298407343748
 30
0.0
 40
32.576797265624997
 41
0.0
 71
               1
 72
               1
  1
手すり SUS 304　φ42.7
  7
_______
  0
POLYLINE
  5
185
100
AcDbEntity
  8
____
  6
CONTINUOUS
 62
               3
100
AcDb2dPolyline
 66
               1
 10
0.0
 20
0.0
 30
0.0
 70
               1
 75
               5
  0
VERTEX
  5
186
100
AcDbEntity
  8
____
  6
CONTINUOUS
 62
               3
100
AcDbVertex
100
AcDb2dVertex
 10
-2826.9999999999995
 20
649.99999999999989
 30
0.0
  0
VERTEX
  5
187
100
AcDbEntity
  8
____
  6
CONTINUOUS
 62
               3
100
AcDbVertex
100
AcDb2dVertex
 10
-2427.0
 20
649.99999999999989
 30
0.0
  0
VERTEX
  5
188
100
AcDbEntity
  8
____
  6
CONTINUOUS
 62
               3
100
AcDbVertex
100
AcDb2dVertex
 10
-2427.0
 20
550.0
 30
0.0
  0
VERTEX
  5
189
100
AcDbEntity
  8
____
  6
CONTINUOUS
 62
               3
100
AcDbVertex
100
AcDb2dVertex
 10
-2826.9999999999995
 20
550.0
 30
0.0
  0
SEQEND
  5
18A
100
AcDbEntity
  8
____
  6
CONTINUOUS
 62
               3
  0
INSERT
  5
18C
100
AcDbEntity
  8
____
 62
               3
100
AcDbBlockReference
  2
*X0
 10
0.0
 20
0.0
 30
0.0
  0
POLYLINE
  5
18D
100
AcDbEntity
  8
____
  6
CONTINUOUS
 62
               3
100
AcDb2dPolyline
 66
               1
 10
0.0
 20
0.0
 30
0.0
 70
               1
 75
               5
  0
VERTEX
  5
18E
100
AcDbEntity
  8
____
  6
CONTINUOUS
 62
               3
100
AcDbVertex
100
AcDb2dVertex
 10
-1027.0
 20
649.99999999999989
 30
0.0
  0
VERTEX
  5
18F
100
AcDbEntity
  8
____
  6
CONTINUOUS
 62
               3
100
AcDbVertex
100
AcDb2dVertex
 10
-627.0
 20
649.99999999999989
 30
0.0
  0
VERTEX
  5
190
100
AcDbEntity
  8
____
  6
CONTINUOUS
 62
               3
100
AcDbVertex
100
AcDb2dVertex
 10
-627.0
 20
550.0
 30
0.0
  0
VERTEX
  5
191
100
AcDbEntity
  8
____
  6
CONTINUOUS
 62
               3
100
AcDbVertex
100
AcDb2dVertex
 10
-1027.0
 20
550.0
 30
0.0
  0
SEQEND
  5
192
100
AcDbEntity
  8
____
  6
CONTINUOUS
 62
               3
  0
INSERT
  5
194
100
AcDbEntity
  8
____
 62
               3
100
AcDbBlockReference
  2
*X1
 10
0.0
 20
0.0
 30
0.0
  0
LINE
  5
195
100
AcDbEntity
  8
____
  6
CONTINUOUS
 62
               2
100
AcDbLine
 10
-567.50000022351742
 20
550.0
 30
0.0
 11
-280.00000014901161
 21
550.0
 31
0.0
  0
LINE
  5
196
100
AcDbEntity
  8
____
  6
CONTINUOUS
 62
               2
100
AcDbLine
 10
-567.50000022351742
 20
649.99999999999989
 30
0.0
 11
-280.00000014901161
 21
649.99999999999989
 31
0.0
  0
LINE
  5
197
100
AcDbEntity
  8
____
  6
CONTINUOUS
 62
               2
100
AcDbLine
 10
-320.0
 20
510.00000014901161
 30
0.0
 11
-320.0
 21
550.0
 31
0.0
  0
LINE
  5
198
100
AcDbEntity
  8
____
  6
CONTINUOUS
 62
               2
100
AcDbLine
 10
-320.0
 20
649.99999999999989
 30
0.0
 11
-320.0
 21
689.99999985098827
 31
0.0
  0
LINE
  5
199
100
AcDbEntity
  8
____
  6
CONTINUOUS
 62
               2
100
AcDbLine
 10
-320.0
 20
550.0
 30
0.0
 11
-320.0
 21
649.99999999999989
 31
0.0
  0
SOLID
  5
19A
100
AcDbEntity
  8
____
 62
               2
100
AcDbTrace
 10
-320.0
 20
550.0
 30
0.0
 11
-323.49933294566705
 21
589.99755859375
 31
0.0
 12
-316.50066705433295
 22
589.99755859375
 32
0.0
 13
-316.50066705433295
 23
589.99755859375
 33
0.0
  0
SOLID
  5
19B
100
AcDbEntity
  8
____
 62
               2
100
AcDbTrace
 10
-320.0
 20
649.99999999999989
 30
0.0
 11
-316.50066705433295
 21
610.00244140624989
 31
0.0
 12
-323.49933294566705
 22
610.00244140624989
 32
0.0
 13
-323.49933294566705
 23
610.00244140624989
 33
0.0
  0
MTEXT
  5
19C
100
AcDbEntity
  8
____
 62
               2
100
AcDbMText
 10
-378.503459265625
 20
568.2500235504574
 30
0.0
 40
32.576797265624997
 41
0.0
 71
               1
 72
               1
  1
100
  7
_______
 11
0.0
 21
1.0
 31
0.0
  0
POLYLINE
  5
19D
100
AcDbEntity
  8
____
  6
CONTINUOUS
 62
               3
100
AcDb2dPolyline
 66
               1
 10
0.0
 20
0.0
 30
0.0
 70
               1
 75
               5
  0
VERTEX
  5
19E
100
AcDbEntity
  8
____
  6
CONTINUOUS
 62
               3
100
AcDbVertex
100
AcDb2dVertex
 10
638.5
 20
649.99999999999989
 30
0.0
  0
VERTEX
  5
19F
100
AcDbEntity
  8
____
  6
CONTINUOUS
 62
               3
100
AcDbVertex
100
AcDb2dVertex
 10
1553.4999999999998
 20
649.99999999999989
 30
0.0
  0
VERTEX
  5
1A0
100
AcDbEntity
  8
____
  6
CONTINUOUS
 62
               3
100
AcDbVertex
100
AcDb2dVertex
 10
1553.4999999999998
 20
550.0
 30
0.0
  0
VERTEX
  5
1A1
100
AcDbEntity
  8
____
  6
CONTINUOUS
 62
               3
100
AcDbVertex
100
AcDb2dVertex
 10
638.5
 20
550.0
 30
0.0
  0
SEQEND
  5
1A2
100
AcDbEntity
  8
____
  6
CONTINUOUS
 62
               3
  0
INSERT
  5
1A4
100
AcDbEntity
  8
____
 62
               3
100
AcDbBlockReference
  2
*X2
 10
0.0
 20
0.0
 30
0.0
  0
LINE
  5
1A5
100
AcDbEntity
  8
____
  6
CONTINUOUS
 62
               2
100
AcDbLine
 10
1613.4999997764824
 20
550.0
 30
0.0
 11
1874.9432998509881
 21
550.0
 31
0.0
  0
LINE
  5
1A6
100
AcDbEntity
  8
____
  6
CONTINUOUS
 62
               2
100
AcDbLine
 10
1613.4999997764824
 20
649.99999999999989
 30
0.0
 11
1874.9432998509881
 21
649.99999999999989
 31
0.0
  0
LINE
  5
1A7
100
AcDbEntity
  8
____
  6
CONTINUOUS
 62
               2
100
AcDbLine
 10
1834.9432999999997
 20
510.00000014901161
 30
0.0
 11
1834.9432999999997
 21
550.0
 31
0.0
  0
LINE
  5
1A8
100
AcDbEntity
  8
____
  6
CONTINUOUS
 62
               2
100
AcDbLine
 10
1834.9432999999997
 20
649.99999999999989
 30
0.0
 11
1834.9432999999997
 21
689.99999985098827
 31
0.0
  0
LINE
  5
1A9
100
AcDbEntity
  8
____
  6
CONTINUOUS
 62
               2
100
AcDbLine
 10
1834.9432999999997
 20
550.0
 30
0.0
 11
1834.9432999999997
 21
649.99999999999989
 31
0.0
  0
SOLID
  5
1AA
100
AcDbEntity
  8
____
 62
               2
100
AcDbTrace
 10
1834.9432999999997
 20
550.0
 30
0.0
 11
1831.4439670543327
 21
589.99755859375
 31
0.0
 12
1838.4426329456667
 22
589.99755859375
 32
0.0
 13
1838.4426329456667
 23
589.99755859375
 33
0.0
  0
SOLID
  5
1AB
100
AcDbEntity
  8
____
 62
               2
100
AcDbTrace
 10
1834.9432999999997
 20
649.99999999999989
 30
0.0
 11
1838.4426329456667
 21
610.00244140624989
 31
0.0
 12
1831.4439670543327
 22
610.00244140624989
 32
0.0
 13
1831.4439670543327
 23
610.00244140624989
 33
0.0
  0
MTEXT
  5
1AC
100
AcDbEntity
  8
____
 62
               2
100
AcDbMText
 10
1776.4398407343747
 20
568.2500235504574
 30
0.0
 40
32.576797265624997
 41
0.0
 71
               1
 72
               1
  1
100
  7
_______
 11
0.0
 21
1.0
 31
0.0
  0
MTEXT
  5
1AD
100
AcDbEntity
  8
____
 62
               2
100
AcDbMText
 10
105.33349999999999
 20
506.22685926562497
 30
0.0
 40
32.576797265624997
 41
0.0
 71
               1
 72
               1
  1
均しコンクリート
  7
_______
  0
LINE
  5
1AE
100
AcDbEntity
  8
____
  6
CONTINUOUS
 62
               2
100
AcDbLine
 10
89.999999999999986
 20
444.99999999999994
 30
0.0
 11
480.00009999999997
 21
444.99999999999994
 31
0.0
  0
LINE
  5
1AF
100
AcDbEntity
  8
____
  6
CONTINUOUS
 62
               2
100
AcDbLine
 10
480.00009999999997
 20
444.99999999999994
 30
0.0
 11
665.99999999999989
 21
610.03589999999997
 31
0.0
  0
MTEXT
  5
1B0
100
AcDbEntity
  8
____
 62
               2
100
AcDbMText
 10
-3324.6664999999998
 20
536.22685926562497
 30
0.0
 40
32.576797265624997
 41
0.0
 71
               1
 72
               1
  1
均しコンクリート
  7
_______
  0
LINE
  5
1B1
100
AcDbEntity
  8
____
  6
CONTINUOUS
 62
               2
100
AcDbLine
 10
-3339.9999999999995
 20
474.99999999999994
 30
0.0
 11
-2949.9998999999998
 21
474.99999999999994
 31
0.0
  0
LINE
  5
1B2
100
AcDbEntity
  8
____
  6
CONTINUOUS
 62
               2
100
AcDbLine
 10
-2949.9998999999998
 20
474.99999999999994
 30
0.0
 11
-2811.9999999999995
 21
606.0
 31
0.0
  0
MTEXT
  5
1B3
100
AcDbEntity
  8
____
 62
               2
100
AcDbMText
 10
1671.9999999999998
 20
1765.6974942185955
 30
0.0
 40
32.576797265624997
 41
0.0
 71
               1
 72
               1
  1
手すり SUS 304　φ42.7
  7
_______
  0
POLYLINE
  5
1B4
100
AcDbEntity
  8
____
  6
STYLE_05
 62
              30
100
AcDb2dPolyline
 66
               1
 10
0.0
 20
0.0
 30
0.0
 70
             129
  0
VERTEX
  5
1B5
100
AcDbEntity
  8
____
  6
STYLE_05
 62
              30
100
AcDbVertex
100
AcDb2dVertex
 10
-697.5
 20
-1329.9999999999998
 30
0.0
  0
VERTEX
  5
1B6
100
AcDbEntity
  8
____
  6
STYLE_05
 62
              30
100
AcDbVertex
100
AcDb2dVertex
 10
-684.5
 20
-1329.9999999999998
 30
0.0
  0
VERTEX
  5
1B7
100
AcDbEntity
  8
____
  6
STYLE_05
 62
              30
100
AcDbVertex
100
AcDb2dVertex
 10
-677.5
 20
-1322.9999999999998
 30
0.0
  0
VERTEX
  5
1B8
100
AcDbEntity
  8
____
  6
STYLE_05
 62
              30
100
AcDbVertex
100
AcDb2dVertex
 10
-677.5
 20
-1309.9999999999998
 30
0.0
  0
VERTEX
  5
1B9
100
AcDbEntity
  8
____
  6
STYLE_05
 62
              30
100
AcDbVertex
100
AcDb2dVertex
 10
-677.5
 20
-1288.9999999999998
 30
0.0
  0
VERTEX
  5
1BA
100
AcDbEntity
  8
____
  6
STYLE_05
 62
              30
100
AcDbVertex
100
AcDb2dVertex
 10
-677.5
 20
-1176.9454999999998
 30
0.0
  0
VERTEX
  5
1BB
100
AcDbEntity
  8
____
  6
STYLE_05
 62
              30
100
AcDbVertex
100
AcDb2dVertex
 10
-677.5
 20
-1127.5
 30
0.0
  0
VERTEX
  5
1BC
100
AcDbEntity
  8
____
  6
STYLE_05
 62
              30
100
AcDbVertex
100
AcDb2dVertex
 10
-677.5
 20
-944.99999999999989
 30
0.0
  0
VERTEX
  5
1BD
100
AcDbEntity
  8
____
  6
STYLE_05
 62
              30
100
AcDbVertex
100
AcDb2dVertex
 10
-677.5
 20
-899.99999999999989
 30
0.0
  0
VERTEX
  5
1BE
100
AcDbEntity
  8
____
  6
STYLE_05
 62
              30
100
AcDbVertex
100
AcDb2dVertex
 10
-677.5
 20
-717.49999999999989
 30
0.0
  0
VERTEX
  5
1BF
100
AcDbEntity
  8
____
  6
STYLE_05
 62
              30
100
AcDbVertex
100
AcDb2dVertex
 10
-677.5
 20
-550.99999999999989
 30
0.0
  0
VERTEX
  5
1C0
100
AcDbEntity
  8
____
  6
STYLE_05
 62
              30
100
AcDbVertex
100
AcDb2dVertex
 10
-677.5
 20
-535.0
 30
0.0
  0
VERTEX
  5
1C1
100
AcDbEntity
  8
____
  6
STYLE_05
 62
              30
100
AcDbVertex
100
AcDb2dVertex
 10
-677.5
 20
-522.0
 30
0.0
  0
VERTEX
  5
1C2
100
AcDbEntity
  8
____
  6
STYLE_05
 62
              30
100
AcDbVertex
100
AcDb2dVertex
 10
-684.5
 20
-515.0
 30
0.0
  0
VERTEX
  5
1C3
100
AcDbEntity
  8
____
  6
STYLE_05
 62
              30
100
AcDbVertex
100
AcDb2dVertex
 10
-697.5
 20
-515.0
 30
0.0
  0
VERTEX
  5
1C4
100
AcDbEntity
  8
____
  6
STYLE_05
 62
              30
100
AcDbVertex
100
AcDb2dVertex
 10
-702.75
 20
-515.0
 30
0.0
  0
VERTEX
  5
1C5
100
AcDbEntity
  8
____
  6
STYLE_05
 62
              30
100
AcDbVertex
100
AcDb2dVertex
 10
-827.49999999999955
 20
-515.0
 30
0.0
  0
VERTEX
  5
1C6
100
AcDbEntity
  8
____
  6
STYLE_05
 62
              30
100
AcDbVertex
100
AcDb2dVertex
 10
-957.49999999999955
 20
-515.0
 30
0.0
  0
VERTEX
  5
1C7
100
AcDbEntity
  8
____
  6
STYLE_05
 62
              30
100
AcDbVertex
100
AcDb2dVertex
 10
-957.49999999999955
 20
-515.0
 30
0.0
 42
0.414213562373095
 70
               2
 50
9.3574199307792870E+17
  0
VERTEX
  5
1C8
100
AcDbEntity
  8
____
  6
STYLE_05
 62
              30
100
AcDbVertex
100
AcDb2dVertex
 10
-977.49999999999955
 20
-535.0
 30
0.0
  0
VERTEX
  5
1C9
100
AcDbEntity
  8
____
  6
STYLE_05
 62
              30
100
AcDbVertex
100
AcDb2dVertex
 10
-977.49999999999955
 20
-717.49999999999989
 30
0.0
  0
VERTEX
  5
1CA
100
AcDbEntity
  8
____
  6
STYLE_05
 62
              30
100
AcDbVertex
100
AcDb2dVertex
 10
-977.49999999999955
 20
-899.99999999999989
 30
0.0
  0
VERTEX
  5
1CB
100
AcDbEntity
  8
____
  6
STYLE_05
 62
              30
100
AcDbVertex
100
AcDb2dVertex
 10
-977.49999999999955
 20
-944.99999999999989
 30
0.0
  0
VERTEX
  5
1CC
100
AcDbEntity
  8
____
  6
STYLE_05
 62
              30
100
AcDbVertex
100
AcDb2dVertex
 10
-977.49999999999955
 20
-1127.5
 30
0.0
  0
VERTEX
  5
1CD
100
AcDbEntity
  8
____
  6
STYLE_05
 62
              30
100
AcDbVertex
100
AcDb2dVertex
 10
-977.49999999999955
 20
-1176.9454999999998
 30
0.0
  0
VERTEX
  5
1CE
100
AcDbEntity
  8
____
  6
STYLE_05
 62
              30
100
AcDbVertex
100
AcDb2dVertex
 10
-977.49999999999955
 20
-1309.9999999999998
 30
0.0
  0
VERTEX
  5
1CF
100
AcDbEntity
  8
____
  6
STYLE_05
 62
              30
100
AcDbVertex
100
AcDb2dVertex
 10
-977.49999999999955
 20
-1309.9999999999998
 30
0.0
 42
0.414213562373095
 70
               2
  0
VERTEX
  5
1D0
100
AcDbEntity
  8
____
  6
STYLE_05
 62
              30
100
AcDbVertex
100
AcDb2dVertex
 10
-957.49999999999955
 20
-1329.9999999999998
 30
0.0
  0
VERTEX
  5
1D1
100
AcDbEntity
  8
____
  6
STYLE_05
 62
              30
100
AcDbVertex
100
AcDb2dVertex
 10
-827.49999999999955
 20
-1329.9999999999998
 30
0.0
  0
VERTEX
  5
1D2
100
AcDbEntity
  8
____
  6
STYLE_05
 62
              30
100
AcDbVertex
100
AcDb2dVertex
 10
-708.0
 20
-1329.9999999999998
 30
0.0
  0
SEQEND
  5
1D3
100
AcDbEntity
  8
____
  6
STYLE_05
 62
              30
  0
POLYLINE
  5
1D4
100
AcDbEntity
  8
____
  6
CONTINUOUS
 62
              30
100
AcDb2dPolyline
 66
               1
 10
0.0
 20
0.0
 30
0.0
 70
             129
  0
VERTEX
  5
1D5
100
AcDbEntity
  8
____
  6
CONTINUOUS
 62
              30
100
AcDbVertex
100
AcDb2dVertex
 10
-957.49999999999955
 20
-515.0
 30
0.0
 42
0.414213562373095
 70
               2
 50
9.3574199307792870E+17
  0
VERTEX
  5
1D6
100
AcDbEntity
  8
____
  6
CONTINUOUS
 62
              30
100
AcDbVertex
100
AcDb2dVertex
 10
-977.49999999999955
 20
-535.0
 30
0.0
  0
VERTEX
  5
1D7
100
AcDbEntity
  8
____
  6
CONTINUOUS
 62
              30
100
AcDbVertex
100
AcDb2dVertex
 10
-977.49999999999955
 20
-922.49999999999989
 30
0.0
  0
VERTEX
  5
1D8
100
AcDbEntity
  8
____
  6
CONTINUOUS
 62
              30
100
AcDbVertex
100
AcDb2dVertex
 10
-977.49999999999955
 20
-1309.9999999999998
 30
0.0
  0
VERTEX
  5
1D9
100
AcDbEntity
  8
____
  6
CONTINUOUS
 62
              30
100
AcDbVertex
100
AcDb2dVertex
 10
-977.49999999999955
 20
-1309.9999999999998
 30
0.0
 42
0.414213562373095
 70
               2
  0
VERTEX
  5
1DA
100
AcDbEntity
  8
____
  6
CONTINUOUS
 62
              30
100
AcDbVertex
100
AcDb2dVertex
 10
-957.49999999999955
 20
-1329.9999999999998
 30
0.0
  0
VERTEX
  5
1DB
100
AcDbEntity
  8
____
  6
CONTINUOUS
 62
              30
100
AcDbVertex
100
AcDb2dVertex
 10
-827.49999999999955
 20
-1329.9999999999998
 30
0.0
  0
VERTEX
  5
1DC
100
AcDbEntity
  8
____
  6
CONTINUOUS
 62
              30
100
AcDbVertex
100
AcDb2dVertex
 10
-714.45041722813221
 20
-1329.9999999999998
 30
0.0
  0
VERTEX
  5
1DD
100
AcDbEntity
  8
____
  6
CONTINUOUS
 62
              30
100
AcDbVertex
100
AcDb2dVertex
 10
-697.5
 20
-1329.9999999999998
 30
0.0
  0
VERTEX
  5
1DE
100
AcDbEntity
  8
____
  6
CONTINUOUS
 62
              30
100
AcDbVertex
100
AcDb2dVertex
 10
-684.5
 20
-1329.9999999999998
 30
0.0
  0
VERTEX
  5
1DF
100
AcDbEntity
  8
____
  6
CONTINUOUS
 62
              30
100
AcDbVertex
100
AcDb2dVertex
 10
-677.5
 20
-1322.9999999999998
 30
0.0
  0
VERTEX
  5
1E0
100
AcDbEntity
  8
____
  6
CONTINUOUS
 62
              30
100
AcDbVertex
100
AcDb2dVertex
 10
-677.5
 20
-1309.9999999999998
 30
0.0
  0
VERTEX
  5
1E1
100
AcDbEntity
  8
____
  6
CONTINUOUS
 62
              30
100
AcDbVertex
100
AcDb2dVertex
 10
-677.5
 20
-1265.9999999999998
 30
0.0
  0
VERTEX
  5
1E2
100
AcDbEntity
  8
____
  6
CONTINUOUS
 62
              30
100
AcDbVertex
100
AcDb2dVertex
 10
-677.5
 20
-922.49999999999989
 30
0.0
  0
VERTEX
  5
1E3
100
AcDbEntity
  8
____
  6
CONTINUOUS
 62
              30
100
AcDbVertex
100
AcDb2dVertex
 10
-677.5
 20
-550.99999999999989
 30
0.0
  0
VERTEX
  5
1E4
100
AcDbEntity
  8
____
  6
CONTINUOUS
 62
              30
100
AcDbVertex
100
AcDb2dVertex
 10
-677.5
 20
-535.0
 30
0.0
  0
VERTEX
  5
1E5
100
AcDbEntity
  8
____
  6
CONTINUOUS
 62
              30
100
AcDbVertex
100
AcDb2dVertex
 10
-677.5
 20
-522.0
 30
0.0
  0
VERTEX
  5
1E6
100
AcDbEntity
  8
____
  6
CONTINUOUS
 62
              30
100
AcDbVertex
100
AcDb2dVertex
 10
-684.5
 20
-515.0
 30
0.0
  0
VERTEX
  5
1E7
100
AcDbEntity
  8
____
  6
CONTINUOUS
 62
              30
100
AcDbVertex
100
AcDb2dVertex
 10
-697.5
 20
-515.0
 30
0.0
  0
VERTEX
  5
1E8
100
AcDbEntity
  8
____
  6
CONTINUOUS
 62
              30
100
AcDbVertex
100
AcDb2dVertex
 10
-708.0
 20
-515.0
 30
0.0
  0
VERTEX
  5
1E9
100
AcDbEntity
  8
____
  6
CONTINUOUS
 62
              30
100
AcDbVertex
100
AcDb2dVertex
 10
-827.49999999999955
 20
-515.0
 30
0.0
  0
VERTEX
  5
1EA
100
AcDbEntity
  8
____
  6
CONTINUOUS
 62
              30
100
AcDbVertex
100
AcDb2dVertex
 10
-957.49999999999955
 20
-515.0
 30
0.0
  0
SEQEND
  5
1EB
100
AcDbEntity
  8
____
  6
CONTINUOUS
 62
              30
  0
INSERT
  5
1EC
100
AcDbEntity
  8
____
 62
              30
100
AcDbBlockReference
  2
*X3
 10
0.0
 20
0.0
 30
0.0
  0
POLYLINE
  5
1ED
100
AcDbEntity
  8
____
  6
STYLE_05
 62
              30
100
AcDb2dPolyline
 66
               1
 10
0.0
 20
0.0
 30
0.0
 70
             129
  0
VERTEX
  5
1EE
100
AcDbEntity
  8
____
  6
STYLE_05
 62
              30
100
AcDbVertex
100
AcDb2dVertex
 10
-2757.4999999999995
 20
-1329.9999999999998
 30
0.0
  0
VERTEX
  5
1EF
100
AcDbEntity
  8
____
  6
STYLE_05
 62
              30
100
AcDbVertex
100
AcDb2dVertex
 10
-2770.4999999999995
 20
-1329.9999999999998
 30
0.0
  0
VERTEX
  5
1F0
100
AcDbEntity
  8
____
  6
STYLE_05
 62
              30
100
AcDbVertex
100
AcDb2dVertex
 10
-2777.4999999999995
 20
-1322.9999999999998
 30
0.0
  0
VERTEX
  5
1F1
100
AcDbEntity
  8
____
  6
STYLE_05
 62
              30
100
AcDbVertex
100
AcDb2dVertex
 10
-2777.4999999999995
 20
-1309.9999999999998
 30
0.0
  0
VERTEX
  5
1F2
100
AcDbEntity
  8
____
  6
STYLE_05
 62
              30
100
AcDbVertex
100
AcDb2dVertex
 10
-2777.4999999999995
 20
-1288.9999999999998
 30
0.0
  0
VERTEX
  5
1F3
100
AcDbEntity
  8
____
  6
STYLE_05
 62
              30
100
AcDbVertex
100
AcDb2dVertex
 10
-2777.4999999999995
 20
-1176.9454999999998
 30
0.0
  0
VERTEX
  5
1F4
100
AcDbEntity
  8
____
  6
STYLE_05
 62
              30
100
AcDbVertex
100
AcDb2dVertex
 10
-2777.4999999999995
 20
-1127.5
 30
0.0
  0
VERTEX
  5
1F5
100
AcDbEntity
  8
____
  6
STYLE_05
 62
              30
100
AcDbVertex
100
AcDb2dVertex
 10
-2777.4999999999995
 20
-944.99999999999989
 30
0.0
  0
VERTEX
  5
1F6
100
AcDbEntity
  8
____
  6
STYLE_05
 62
              30
100
AcDbVertex
100
AcDb2dVertex
 10
-2777.4999999999995
 20
-899.99999999999989
 30
0.0
  0
VERTEX
  5
1F7
100
AcDbEntity
  8
____
  6
STYLE_05
 62
              30
100
AcDbVertex
100
AcDb2dVertex
 10
-2777.4999999999995
 20
-717.49999999999989
 30
0.0
  0
VERTEX
  5
1F8
100
AcDbEntity
  8
____
  6
STYLE_05
 62
              30
100
AcDbVertex
100
AcDb2dVertex
 10
-2777.4999999999995
 20
-550.99999999999989
 30
0.0
  0
VERTEX
  5
1F9
100
AcDbEntity
  8
____
  6
STYLE_05
 62
              30
100
AcDbVertex
100
AcDb2dVertex
 10
-2777.4999999999995
 20
-535.0
 30
0.0
  0
VERTEX
  5
1FA
100
AcDbEntity
  8
____
  6
STYLE_05
 62
              30
100
AcDbVertex
100
AcDb2dVertex
 10
-2777.4999999999995
 20
-522.0
 30
0.0
  0
VERTEX
  5
1FB
100
AcDbEntity
  8
____
  6
STYLE_05
 62
              30
100
AcDbVertex
100
AcDb2dVertex
 10
-2770.4999999999995
 20
-515.0
 30
0.0
  0
VERTEX
  5
1FC
100
AcDbEntity
  8
____
  6
STYLE_05
 62
              30
100
AcDbVertex
100
AcDb2dVertex
 10
-2757.4999999999995
 20
-515.0
 30
0.0
  0
VERTEX
  5
1FD
100
AcDbEntity
  8
____
  6
STYLE_05
 62
              30
100
AcDbVertex
100
AcDb2dVertex
 10
-2752.2499999999995
 20
-515.0
 30
0.0
  0
VERTEX
  5
1FE
100
AcDbEntity
  8
____
  6
STYLE_05
 62
              30
100
AcDbVertex
100
AcDb2dVertex
 10
-2627.5
 20
-515.0
 30
0.0
  0
VERTEX
  5
1FF
100
AcDbEntity
  8
____
  6
STYLE_05
 62
              30
100
AcDbVertex
100
AcDb2dVertex
 10
-2497.5
 20
-515.0
 30
0.0
  0
VERTEX
  5
200
100
AcDbEntity
  8
____
  6
STYLE_05
 62
              30
100
AcDbVertex
100
AcDb2dVertex
 10
-2497.5
 20
-515.0
 30
0.0
 42
-0.414213562373095
 70
               2
 50
1.8714839861558573E+17
  0
VERTEX
  5
201
100
AcDbEntity
  8
____
  6
STYLE_05
 62
              30
100
AcDbVertex
100
AcDb2dVertex
 10
-2477.5
 20
-535.0
 30
0.0
  0
VERTEX
  5
202
100
AcDbEntity
  8
____
  6
STYLE_05
 62
              30
100
AcDbVertex
100
AcDb2dVertex
 10
-2477.5
 20
-717.49999999999989
 30
0.0
  0
VERTEX
  5
203
100
AcDbEntity
  8
____
  6
STYLE_05
 62
              30
100
AcDbVertex
100
AcDb2dVertex
 10
-2477.5
 20
-899.99999999999989
 30
0.0
  0
VERTEX
  5
204
100
AcDbEntity
  8
____
  6
STYLE_05
 62
              30
100
AcDbVertex
100
AcDb2dVertex
 10
-2477.5
 20
-944.99999999999989
 30
0.0
  0
VERTEX
  5
205
100
AcDbEntity
  8
____
  6
STYLE_05
 62
              30
100
AcDbVertex
100
AcDb2dVertex
 10
-2477.5
 20
-1127.5
 30
0.0
  0
VERTEX
  5
206
100
AcDbEntity
  8
____
  6
STYLE_05
 62
              30
100
AcDbVertex
100
AcDb2dVertex
 10
-2477.5
 20
-1176.9454999999998
 30
0.0
  0
VERTEX
  5
207
100
AcDbEntity
  8
____
  6
STYLE_05
 62
              30
100
AcDbVertex
100
AcDb2dVertex
 10
-2477.5
 20
-1309.9999999999998
 30
0.0
  0
VERTEX
  5
208
100
AcDbEntity
  8
____
  6
STYLE_05
 62
              30
100
AcDbVertex
100
AcDb2dVertex
 10
-2477.5
 20
-1309.9999999999998
 30
0.0
 42
-0.414213562373095
 70
               2
  0
VERTEX
  5
209
100
AcDbEntity
  8
____
  6
STYLE_05
 62
              30
100
AcDbVertex
100
AcDb2dVertex
 10
-2497.5
 20
-1329.9999999999998
 30
0.0
  0
VERTEX
  5
20A
100
AcDbEntity
  8
____
  6
STYLE_05
 62
              30
100
AcDbVertex
100
AcDb2dVertex
 10
-2627.5
 20
-1329.9999999999998
 30
0.0
  0
VERTEX
  5
20B
100
AcDbEntity
  8
____
  6
STYLE_05
 62
              30
100
AcDbVertex
100
AcDb2dVertex
 10
-2746.9999999999995
 20
-1329.9999999999998
 30
0.0
  0
SEQEND
  5
20C
100
AcDbEntity
  8
____
  6
STYLE_05
 62
              30
  0
POLYLINE
  5
20D
100
AcDbEntity
  8
____
  6
CONTINUOUS
 62
              30
100
AcDb2dPolyline
 66
               1
 10
0.0
 20
0.0
 30
0.0
 70
             129
  0
VERTEX
  5
20E
100
AcDbEntity
  8
____
  6
CONTINUOUS
 62
              30
100
AcDbVertex
100
AcDb2dVertex
 10
-2497.5
 20
-515.0
 30
0.0
 42
-0.414213562373095
 70
               2
 50
1.8714839861558573E+17
  0
VERTEX
  5
20F
100
AcDbEntity
  8
____
  6
CONTINUOUS
 62
              30
100
AcDbVertex
100
AcDb2dVertex
 10
-2477.5
 20
-535.0
 30
0.0
  0
VERTEX
  5
210
100
AcDbEntity
  8
____
  6
CONTINUOUS
 62
              30
100
AcDbVertex
100
AcDb2dVertex
 10
-2477.5
 20
-922.49999999999989
 30
0.0
  0
VERTEX
  5
211
100
AcDbEntity
  8
____
  6
CONTINUOUS
 62
              30
100
AcDbVertex
100
AcDb2dVertex
 10
-2477.5
 20
-1309.9999999999998
 30
0.0
  0
VERTEX
  5
212
100
AcDbEntity
  8
____
  6
CONTINUOUS
 62
              30
100
AcDbVertex
100
AcDb2dVertex
 10
-2477.5
 20
-1309.9999999999998
 30
0.0
 42
-0.414213562373095
 70
               2
  0
VERTEX
  5
213
100
AcDbEntity
  8
____
  6
CONTINUOUS
 62
              30
100
AcDbVertex
100
AcDb2dVertex
 10
-2497.5
 20
-1329.9999999999998
 30
0.0
  0
VERTEX
  5
214
100
AcDbEntity
  8
____
  6
CONTINUOUS
 62
              30
100
AcDbVertex
100
AcDb2dVertex
 10
-2627.5
 20
-1329.9999999999998
 30
0.0
  0
VERTEX
  5
215
100
AcDbEntity
  8
____
  6
CONTINUOUS
 62
              30
100
AcDbVertex
100
AcDb2dVertex
 10
-2740.5495827718673
 20
-1329.9999999999998
 30
0.0
  0
VERTEX
  5
216
100
AcDbEntity
  8
____
  6
CONTINUOUS
 62
              30
100
AcDbVertex
100
AcDb2dVertex
 10
-2757.4999999999995
 20
-1329.9999999999998
 30
0.0
  0
VERTEX
  5
217
100
AcDbEntity
  8
____
  6
CONTINUOUS
 62
              30
100
AcDbVertex
100
AcDb2dVertex
 10
-2770.4999999999995
 20
-1329.9999999999998
 30
0.0
  0
VERTEX
  5
218
100
AcDbEntity
  8
____
  6
CONTINUOUS
 62
              30
100
AcDbVertex
100
AcDb2dVertex
 10
-2777.4999999999995
 20
-1322.9999999999998
 30
0.0
  0
VERTEX
  5
219
100
AcDbEntity
  8
____
  6
CONTINUOUS
 62
              30
100
AcDbVertex
100
AcDb2dVertex
 10
-2777.4999999999995
 20
-1309.9999999999998
 30
0.0
  0
VERTEX
  5
21A
100
AcDbEntity
  8
____
  6
CONTINUOUS
 62
              30
100
AcDbVertex
100
AcDb2dVertex
 10
-2777.4999999999995
 20
-1265.9999999999998
 30
0.0
  0
VERTEX
  5
21B
100
AcDbEntity
  8
____
  6
CONTINUOUS
 62
              30
100
AcDbVertex
100
AcDb2dVertex
 10
-2777.4999999999995
 20
-922.49999999999989
 30
0.0
  0
VERTEX
  5
21C
100
AcDbEntity
  8
____
  6
CONTINUOUS
 62
              30
100
AcDbVertex
100
AcDb2dVertex
 10
-2777.4999999999995
 20
-550.99999999999989
 30
0.0
  0
VERTEX
  5
21D
100
AcDbEntity
  8
____
  6
CONTINUOUS
 62
              30
100
AcDbVertex
100
AcDb2dVertex
 10
-2777.4999999999995
 20
-535.0
 30
0.0
  0
VERTEX
  5
21E
100
AcDbEntity
  8
____
  6
CONTINUOUS
 62
              30
100
AcDbVertex
100
AcDb2dVertex
 10
-2777.4999999999995
 20
-522.0
 30
0.0
  0
VERTEX
  5
21F
100
AcDbEntity
  8
____
  6
CONTINUOUS
 62
              30
100
AcDbVertex
100
AcDb2dVertex
 10
-2770.4999999999995
 20
-515.0
 30
0.0
  0
VERTEX
  5
220
100
AcDbEntity
  8
____
  6
CONTINUOUS
 62
              30
100
AcDbVertex
100
AcDb2dVertex
 10
-2757.4999999999995
 20
-515.0
 30
0.0
  0
VERTEX
  5
221
100
AcDbEntity
  8
____
  6
CONTINUOUS
 62
              30
100
AcDbVertex
100
AcDb2dVertex
 10
-2746.9999999999995
 20
-515.0
 30
0.0
  0
VERTEX
  5
222
100
AcDbEntity
  8
____
  6
CONTINUOUS
 62
              30
100
AcDbVertex
100
AcDb2dVertex
 10
-2627.5
 20
-515.0
 30
0.0
  0
VERTEX
  5
223
100
AcDbEntity
  8
____
  6
CONTINUOUS
 62
              30
100
AcDbVertex
100
AcDb2dVertex
 10
-2497.5
 20
-515.0
 30
0.0
  0
SEQEND
  5
224
100
AcDbEntity
  8
____
  6
CONTINUOUS
 62
              30
  0
INSERT
  5
225
100
AcDbEntity
  8
____
 62
              30
100
AcDbBlockReference
  2
*X4
 10
0.0
 20
0.0
 30
0.0
  0
LINE
  5
226
100
AcDbEntity
  8
____
  6
STYLE_05
 62
              30
100
AcDbLine
 10
-1724.9330127018923
 20
1446.9999999999998
 30
0.0
 11
-1724.9330127018923
 21
1448.9999999999998
 31
0.0
  0
LINE
  5
227
100
AcDbEntity
  8
____
  6
STYLE_05
 62
              30
100
AcDbLine
 10
-1730.0669872981077
 20
1448.9999999999998
 30
0.0
 11
-1730.0669872981077
 21
1446.9999999999998
 31
0.0
  0
POLYLINE
  5
228
100
AcDbEntity
  8
____
  6
STYLE_05
 62
              30
100
AcDb2dPolyline
 66
               1
 10
0.0
 20
0.0
 30
0.0
 70
               1
 75
               5
  0
VERTEX
  5
229
100
AcDbEntity
  8
____
  6
STYLE_05
 62
              30
100
AcDbVertex
100
AcDb2dVertex
 10
-1730.4999999999998
 20
1464.9999999999998
 30
0.0
  0
VERTEX
  5
22A
100
AcDbEntity
  8
____
  6
STYLE_05
 62
              30
100
AcDbVertex
100
AcDb2dVertex
 10
-1727.4999999999998
 20
1471.9999999999998
 30
0.0
  0
VERTEX
  5
22B
100
AcDbEntity
  8
____
  6
STYLE_05
 62
              30
100
AcDbVertex
100
AcDb2dVertex
 10
-1724.4999999999998
 20
1464.9999999999998
 30
0.0
  0
VERTEX
  5
22C
100
AcDbEntity
  8
____
  6
STYLE_05
 62
              30
100
AcDbVertex
100
AcDb2dVertex
 10
-1724.4999999999998
 20
1446.9999999999998
 30
0.0
  0
VERTEX
  5
22D
100
AcDbEntity
  8
____
  6
STYLE_05
 62
              30
100
AcDbVertex
100
AcDb2dVertex
 10
-1730.4999999999998
 20
1446.9999999999998
 30
0.0
  0
SEQEND
  5
22E
100
AcDbEntity
  8
____
  6
STYLE_05
 62
              30
  0
SPLINE
  5
230
100
AcDbEntity
  8
____
  6
STYLE_05
 62
              30
100
AcDbSpline
210
0.0
220
0.0
230
1.0
 70
              13
 71
               2
 72
              20
 73
              17
 74
               0
 42
0.000001
 43
0.000001
 40
0.0
 40
0.0
 40
0.0
 40
1.0
 40
1.0
 40
2.0
 40
2.0
 40
3.0
 40
3.0
 40
4.0
 40
4.0
 40
5.0
 40
5.0
 40
6.0
 40
6.0
 40
7.0
 40
7.0
 40
8.0
 40
8.0
 40
8.0
 10
-1720.9999999999998
 20
1446.9999999999998
 30
0.0
 41
1.0
 10
-1720.9999999999998
 20
1446.905585717695
 30
0.0
 41
1.0
 10
-1720.9999999999998
 20
1446.81117143539
 30
0.0
 41
1.0
 10
-1721.0
 20
1444.5999999999999
 30
0.0
 41
0.7490511335494073
 10
-1723.1946119966419
 20
1444.3298939081058
 30
0.0
 41
1.0
 10
-1723.7223059983207
 20
1444.2649469540529
 30
0.0
 41
1.0
 10
-1724.2499999999998
 20
1444.2000000000003
 30
0.0
 41
1.0
 10
-1727.4999999999998
 20
1443.8000000000002
 30
0.0
 41
1.0
 10
-1730.7499999999998
 20
1444.2000000000003
 30
0.0
 41
1.0
 10
-1731.2776940016788
 20
1444.2649469540529
 30
0.0
 41
1.0
 10
-1731.8053880033576
 20
1444.3298939081058
 30
0.0
 41
1.0
 10
-1733.9999999999998
 20
1444.5999999999997
 30
0.0
 41
0.749051133549321
 10
-1733.9999999999998
 20
1446.81117143539
 30
0.0
 41
1.0
 10
-1733.9999999999998
 20
1446.905585717695
 30
0.0
 41
1.0
 10
-1733.9999999999998
 20
1446.9999999999998
 30
0.0
 41
1.0
 10
-1727.4999999999998
 20
1446.9999999999998
 30
0.0
 41
1.0
 10
-1720.9999999999998
 20
1446.9999999999998
 30
0.0
 41
1.0
  0
MTEXT
  5
231
100
AcDbEntity
  8
____
 62
              30
100
AcDbMText
 10
-3530.6528999999996
 20
893.17142306249991
 30
0.0
 40
54.2947390625
 41
0.0
 71
               1
 72
               1
  1
▽ＧＬ
  7
_______
  0
MTEXT
  5
232
100
AcDbEntity
  8
____
 62
              30
100
AcDbMText
 10
-1855.6535022755959
 20
64.234121924702151
 30
0.0
 40
54.2947390625
 41
0.0
 71
               1
 72
               1
  1
正面図
  7
_______
  0
POLYLINE
  5
233
100
AcDbEntity
  8
____
  6
CONTINUOUS
 62
              30
100
AcDb2dPolyline
 66
               1
 10
0.0
 20
0.0
 30
0.0
 70
               1
 75
               5
  0
VERTEX
  5
234
100
AcDbEntity
  8
____
  6
CONTINUOUS
 62
              30
100
AcDbVertex
100
AcDb2dVertex
 10
-1922.0121999999999
 20
82.767199999999988
 30
0.0
  0
VERTEX
  5
235
100
AcDbEntity
  8
____
  6
CONTINUOUS
 62
              30
100
AcDbVertex
100
AcDb2dVertex
 10
-1572.0121999999999
 20
82.767199999999988
 30
0.0
  0
VERTEX
  5
236
100
AcDbEntity
  8
____
  6
CONTINUOUS
 62
              30
100
AcDbVertex
100
AcDb2dVertex
 10
-1572.0121999999999
 20
-17.232799999999997
 30
0.0
  0
VERTEX
  5
237
100
AcDbEntity
  8
____
  6
CONTINUOUS
 62
              30
100
AcDbVertex
100
AcDb2dVertex
 10
-1922.0121999999999
 20
-17.232799999999997
 30
0.0
  0
SEQEND
  5
238
100
AcDbEntity
  8
____
  6
CONTINUOUS
 62
              30
  0
MTEXT
  5
23A
100
AcDbEntity
  8
____
 62
              30
100
AcDbMText
 10
-1874.4426022755958
 20
-1991.0054780752978
 30
0.0
 40
54.2947390625
 41
0.0
 71
               1
 72
               1
  1
平面図
  7
_______
  0
POLYLINE
  5
23B
100
AcDbEntity
  8
____
  6
CONTINUOUS
 62
              30
100
AcDb2dPolyline
 66
               1
 10
0.0
 20
0.0
 30
0.0
 70
               1
 75
               5
  0
VERTEX
  5
23C
100
AcDbEntity
  8
____
  6
CONTINUOUS
 62
              30
100
AcDbVertex
100
AcDb2dVertex
 10
-1940.8012999999999
 20
-1972.4723999999999
 30
0.0
  0
VERTEX
  5
23D
100
AcDbEntity
  8
____
  6
CONTINUOUS
 62
              30
100
AcDbVertex
100
AcDb2dVertex
 10
-1590.8012999999999
 20
-1972.4723999999999
 30
0.0
  0
VERTEX
  5
23E
100
AcDbEntity
  8
____
  6
CONTINUOUS
 62
              30
100
AcDbVertex
100
AcDb2dVertex
 10
-1590.8012999999999
 20
-2072.4723999999997
 30
0.0
  0
VERTEX
  5
23F
100
AcDbEntity
  8
____
  6
CONTINUOUS
 62
              30
100
AcDbVertex
100
AcDb2dVertex
 10
-1940.8012999999999
 20
-2072.4723999999997
 30
0.0
  0
SEQEND
  5
240
100
AcDbEntity
  8
____
  6
CONTINUOUS
 62
              30
  0
MTEXT
  5
242
100
AcDbEntity
  8
____
 62
              30
100
AcDbMText
 10
972.46585059565371
 20
57.050373658153717
 30
0.0
 40
54.2947390625
 41
0.0
 71
               1
 72
               1
  1
側面図
  7
_______
  0
POLYLINE
  5
243
100
AcDbEntity
  8
____
  6
CONTINUOUS
 62
              30
100
AcDb2dPolyline
 66
               1
 10
0.0
 20
0.0
 30
0.0
 70
               1
 75
               5
  0
VERTEX
  5
244
100
AcDbEntity
  8
____
  6
CONTINUOUS
 62
              30
100
AcDbVertex
100
AcDb2dVertex
 10
903.55229999999995
 20
80.0
 30
0.0
  0
VERTEX
  5
245
100
AcDbEntity
  8
____
  6
CONTINUOUS
 62
              30
100
AcDbVertex
100
AcDb2dVertex
 10
1253.5522999999998
 20
80.0
 30
0.0
  0
VERTEX
  5
246
100
AcDbEntity
  8
____
  6
CONTINUOUS
 62
              30
100
AcDbVertex
100
AcDb2dVertex
 10
1253.5522999999998
 20
-20.0
 30
0.0
  0
VERTEX
  5
247
100
AcDbEntity
  8
____
  6
CONTINUOUS
 62
              30
100
AcDbVertex
100
AcDb2dVertex
 10
903.55229999999995
 20
-20.0
 30
0.0
  0
SEQEND
  5
248
100
AcDbEntity
  8
____
  6
CONTINUOUS
 62
              30
  0
POLYLINE
  5
24A
100
AcDbEntity
  8
____
  6
CONTINUOUS
 62
              30
100
AcDb2dPolyline
 66
               1
 10
0.0
 20
0.0
 30
0.0
 70
               1
 75
               5
  0
VERTEX
  5
24B
100
AcDbEntity
  8
____
  6
CONTINUOUS
 62
              30
100
AcDbVertex
100
AcDb2dVertex
 10
-2672.4999999999995
 20
-929.99999999999989
 30
0.0
  0
VERTEX
  5
24C
100
AcDbEntity
  8
____
  6
CONTINUOUS
 62
              30
100
AcDbVertex
100
AcDb2dVertex
 10
-2667.4999999999995
 20
-924.99999999999989
 30
0.0
  0
VERTEX
  5
24D
100
AcDbEntity
  8
____
  6
CONTINUOUS
 62
              30
100
AcDbVertex
100
AcDb2dVertex
 10
-787.5
 20
-924.99999999999989
 30
0.0
  0
VERTEX
  5
24E
100
AcDbEntity
  8
____
  6
CONTINUOUS
 62
              30
100
AcDbVertex
100
AcDb2dVertex
 10
-782.5
 20
-929.99999999999989
 30
0.0
  0
VERTEX
  5
24F
100
AcDbEntity
  8
____
  6
CONTINUOUS
 62
              30
100
AcDbVertex
100
AcDb2dVertex
 10
-782.5
 20
-1120.0
 30
0.0
  0
VERTEX
  5
250
100
AcDbEntity
  8
____
  6
CONTINUOUS
 62
              30
100
AcDbVertex
100
AcDb2dVertex
 10
-787.5
 20
-1125.0
 30
0.0
  0
VERTEX
  5
251
100
AcDbEntity
  8
____
  6
CONTINUOUS
 62
              30
100
AcDbVertex
100
AcDb2dVertex
 10
-2667.4999999999995
 20
-1125.0
 30
0.0
  0
VERTEX
  5
252
100
AcDbEntity
  8
____
  6
CONTINUOUS
 62
              30
100
AcDbVertex
100
AcDb2dVertex
 10
-2672.4999999999995
 20
-1120.0
 30
0.0
  0
SEQEND
  5
253
100
AcDbEntity
  8
____
  6
CONTINUOUS
 62
              30
  0
POLYLINE
  5
255
100
AcDbEntity
  8
____
  6
CONTINUOUS
 62
              30
100
AcDb2dPolyline
 66
               1
 10
0.0
 20
0.0
 30
0.0
 70
               1
 75
               5
  0
VERTEX
  5
256
100
AcDbEntity
  8
____
  6
CONTINUOUS
 62
              30
100
AcDbVertex
100
AcDb2dVertex
 10
-2672.4999999999995
 20
-1135.0
 30
0.0
  0
VERTEX
  5
257
100
AcDbEntity
  8
____
  6
CONTINUOUS
 62
              30
100
AcDbVertex
100
AcDb2dVertex
 10
-2667.4999999999995
 20
-1130.0
 30
0.0
  0
VERTEX
  5
258
100
AcDbEntity
  8
____
  6
CONTINUOUS
 62
              30
100
AcDbVertex
100
AcDb2dVertex
 10
-787.49999999999989
 20
-1130.0
 30
0.0
  0
VERTEX
  5
259
100
AcDbEntity
  8
____
  6
CONTINUOUS
 62
              30
100
AcDbVertex
100
AcDb2dVertex
 10
-782.49999999999989
 20
-1135.0
 30
0.0
  0
VERTEX
  5
25A
100
AcDbEntity
  8
____
  6
CONTINUOUS
 62
              30
100
AcDbVertex
100
AcDb2dVertex
 10
-782.49999999999989
 20
-1324.9999999999998
 30
0.0
  0
VERTEX
  5
25B
100
AcDbEntity
  8
____
  6
CONTINUOUS
 62
              30
100
AcDbVertex
100
AcDb2dVertex
 10
-787.49999999999989
 20
-1329.9999999999998
 30
0.0
  0
VERTEX
  5
25C
100
AcDbEntity
  8
____
  6
CONTINUOUS
 62
              30
100
AcDbVertex
100
AcDb2dVertex
 10
-2667.4999999999995
 20
-1329.9999999999998
 30
0.0
  0
VERTEX
  5
25D
100
AcDbEntity
  8
____
  6
CONTINUOUS
 62
              30
100
AcDbVertex
100
AcDb2dVertex
 10
-2672.4999999999995
 20
-1324.9999999999998
 30
0.0
  0
SEQEND
  5
25E
100
AcDbEntity
  8
____
  6
CONTINUOUS
 62
              30
  0
LINE
  5
260
100
AcDbEntity
  8
____
  6
CONTINUOUS
 62
              30
100
AcDbLine
 10
-2677.4999999999995
 20
-515.0
 30
0.0
 11
-2677.4999999999995
 21
-1329.9999999999998
 31
0.0
  0
POLYLINE
  5
261
100
AcDbEntity
  8
____
  6
CONTINUOUS
 62
              30
100
AcDb2dPolyline
 66
               1
 10
0.0
 20
0.0
 30
0.0
 70
               1
 75
               5
  0
VERTEX
  5
262
100
AcDbEntity
  8
____
  6
CONTINUOUS
 62
              30
100
AcDbVertex
100
AcDb2dVertex
 10
-2672.4999999999995
 20
-520.0
 30
0.0
  0
VERTEX
  5
263
100
AcDbEntity
  8
____
  6
CONTINUOUS
 62
              30
100
AcDbVertex
100
AcDb2dVertex
 10
-2667.4999999999995
 20
-515.0
 30
0.0
  0
VERTEX
  5
264
100
AcDbEntity
  8
____
  6
CONTINUOUS
 62
              30
100
AcDbVertex
100
AcDb2dVertex
 10
-787.5
 20
-515.0
 30
0.0
  0
VERTEX
  5
265
100
AcDbEntity
  8
____
  6
CONTINUOUS
 62
              30
100
AcDbVertex
100
AcDb2dVertex
 10
-782.5
 20
-520.0
 30
0.0
  0
VERTEX
  5
266
100
AcDbEntity
  8
____
  6
CONTINUOUS
 62
              30
100
AcDbVertex
100
AcDb2dVertex
 10
-782.5
 20
-709.99999999999989
 30
0.0
  0
VERTEX
  5
267
100
AcDbEntity
  8
____
  6
CONTINUOUS
 62
              30
100
AcDbVertex
100
AcDb2dVertex
 10
-787.5
 20
-714.99999999999989
 30
0.0
  0
VERTEX
  5
268
100
AcDbEntity
  8
____
  6
CONTINUOUS
 62
              30
100
AcDbVertex
100
AcDb2dVertex
 10
-2667.4999999999995
 20
-714.99999999999989
 30
0.0
  0
VERTEX
  5
269
100
AcDbEntity
  8
____
  6
CONTINUOUS
 62
              30
100
AcDbVertex
100
AcDb2dVertex
 10
-2672.4999999999995
 20
-709.99999999999989
 30
0.0
  0
SEQEND
  5
26A
100
AcDbEntity
  8
____
  6
CONTINUOUS
 62
              30
  0
POLYLINE
  5
26C
100
AcDbEntity
  8
____
  6
CONTINUOUS
 62
              30
100
AcDb2dPolyline
 66
               1
 10
0.0
 20
0.0
 30
0.0
 70
               1
 75
               5
  0
VERTEX
  5
26D
100
AcDbEntity
  8
____
  6
CONTINUOUS
 62
              30
100
AcDbVertex
100
AcDb2dVertex
 10
-2672.4999999999995
 20
-724.99999999999989
 30
0.0
  0
VERTEX
  5
26E
100
AcDbEntity
  8
____
  6
CONTINUOUS
 62
              30
100
AcDbVertex
100
AcDb2dVertex
 10
-2667.4999999999995
 20
-719.99999999999989
 30
0.0
  0
VERTEX
  5
26F
100
AcDbEntity
  8
____
  6
CONTINUOUS
 62
              30
100
AcDbVertex
100
AcDb2dVertex
 10
-787.5
 20
-719.99999999999989
 30
0.0
  0
VERTEX
  5
270
100
AcDbEntity
  8
____
  6
CONTINUOUS
 62
              30
100
AcDbVertex
100
AcDb2dVertex
 10
-782.5
 20
-724.99999999999989
 30
0.0
  0
VERTEX
  5
271
100
AcDbEntity
  8
____
  6
CONTINUOUS
 62
              30
100
AcDbVertex
100
AcDb2dVertex
 10
-782.5
 20
-914.99999999999989
 30
0.0
  0
VERTEX
  5
272
100
AcDbEntity
  8
____
  6
CONTINUOUS
 62
              30
100
AcDbVertex
100
AcDb2dVertex
 10
-787.5
 20
-919.99999999999989
 30
0.0
  0
VERTEX
  5
273
100
AcDbEntity
  8
____
  6
CONTINUOUS
 62
              30
100
AcDbVertex
100
AcDb2dVertex
 10
-2667.4999999999995
 20
-919.99999999999989
 30
0.0
  0
VERTEX
  5
274
100
AcDbEntity
  8
____
  6
CONTINUOUS
 62
              30
100
AcDbVertex
100
AcDb2dVertex
 10
-2672.4999999999995
 20
-914.99999999999989
 30
0.0
  0
SEQEND
  5
275
100
AcDbEntity
  8
____
  6
CONTINUOUS
 62
              30
  0
POLYLINE
  5
277
100
AcDbEntity
  8
____
  6
CONTINUOUS
 62
              30
100
AcDb2dPolyline
 66
               1
 10
0.0
 20
0.0
 30
0.0
 70
               1
 75
               5
  0
VERTEX
  5
278
100
AcDbEntity
  8
____
  6
CONTINUOUS
 62
              30
100
AcDbVertex
100
AcDb2dVertex
 10
688.49999999999989
 20
649.99999999999989
 30
0.0
  0
VERTEX
  5
279
100
AcDbEntity
  8
____
  6
CONTINUOUS
 62
              30
100
AcDbVertex
100
AcDb2dVertex
 10
688.49999999999989
 20
1549.9999999999998
 30
0.0
  0
VERTEX
  5
27A
100
AcDbEntity
  8
____
  6
CONTINUOUS
 62
              30
100
AcDbVertex
100
AcDb2dVertex
 10
1503.4999999999998
 20
1549.9999999999998
 30
0.0
  0
VERTEX
  5
27B
100
AcDbEntity
  8
____
  6
CONTINUOUS
 62
              30
100
AcDbVertex
100
AcDb2dVertex
 10
1503.4999999999998
 20
649.99999999999989
 30
0.0
  0
SEQEND
  5
27C
100
AcDbEntity
  8
____
  6
CONTINUOUS
 62
              30
  0
INSERT
  5
27E
100
AcDbEntity
  8
____
 62
              30
100
AcDbBlockReference
  2
*X5
 10
0.0
 20
0.0
 30
0.0
  0
LINE
  5
27F
100
AcDbEntity
  8
____
  6
CONTINUOUS
 62
               4
100
AcDbLine
 10
2260.0
 20
799.99999999999989
 30
0.0
 11
270.0
 21
799.99999999999989
 31
0.0
  0
POLYLINE
  5
280
100
AcDbEntity
  8
____
  6
CONTINUOUS
 62
              30
100
AcDb2dPolyline
 66
               1
 10
0.0
 20
0.0
 30
0.0
 70
               1
 75
               5
  0
VERTEX
  5
281
100
AcDbEntity
  8
____
  6
CONTINUOUS
 62
              30
100
AcDbVertex
100
AcDb2dVertex
 10
638.5
 20
550.0
 30
0.0
  0
VERTEX
  5
282
100
AcDbEntity
  8
____
  6
CONTINUOUS
 62
              30
100
AcDbVertex
100
AcDb2dVertex
 10
1553.4999999999998
 20
550.0
 30
0.0
  0
VERTEX
  5
283
100
AcDbEntity
  8
____
  6
CONTINUOUS
 62
              30
100
AcDbVertex
100
AcDb2dVertex
 10
1553.4999999999998
 20
449.99999999999994
 30
0.0
  0
VERTEX
  5
284
100
AcDbEntity
  8
____
  6
CONTINUOUS
 62
              30
100
AcDbVertex
100
AcDb2dVertex
 10
638.5
 20
449.99999999999994
 30
0.0
  0
SEQEND
  5
285
100
AcDbEntity
  8
____
  6
CONTINUOUS
 62
              30
  0
LINE
  5
287
100
AcDbEntity
  8
____
  6
CONTINUOUS
 62
              30
100
AcDbLine
 10
665.99999999999989
 20
550.0
 30
0.0
 11
657.91709999999989
 21
536.0
 31
0.0
  0
LINE
  5
288
100
AcDbEntity
  8
____
  6
CONTINUOUS
 62
              30
100
AcDbLine
 10
648.5
 20
550.0
 30
0.0
 11
706.23509999999999
 21
449.99999999999994
 31
0.0
  0
LINE
  5
289
100
AcDbEntity
  8
____
  6
CONTINUOUS
 62
              30
100
AcDbLine
 10
698.15219999999999
 20
463.99999999999994
 30
0.0
 11
690.06929999999988
 21
449.99999999999994
 31
0.0
  0
LINE
  5
28A
100
AcDbEntity
  8
____
  6
CONTINUOUS
 62
              30
100
AcDbLine
 10
735.99999999999989
 20
550.0
 30
0.0
 11
727.91709999999989
 21
536.0
 31
0.0
  0
LINE
  5
28B
100
AcDbEntity
  8
____
  6
CONTINUOUS
 62
              30
100
AcDbLine
 10
718.49999999999989
 20
550.0
 30
0.0
 11
776.23509999999999
 21
449.99999999999994
 31
0.0
  0
LINE
  5
28C
100
AcDbEntity
  8
____
  6
CONTINUOUS
 62
              30
100
AcDbLine
 10
768.15219999999988
 20
463.99999999999994
 30
0.0
 11
760.06929999999988
 21
449.99999999999994
 31
0.0
  0
LINE
  5
28D
100
AcDbEntity
  8
____
  6
CONTINUOUS
 62
              30
100
AcDbLine
 10
805.99999999999989
 20
550.0
 30
0.0
 11
797.91709999999989
 21
536.0
 31
0.0
  0
LINE
  5
28E
100
AcDbEntity
  8
____
  6
CONTINUOUS
 62
              30
100
AcDbLine
 10
788.49999999999989
 20
550.0
 30
0.0
 11
846.23509999999987
 21
449.99999999999994
 31
0.0
  0
LINE
  5
28F
100
AcDbEntity
  8
____
  6
CONTINUOUS
 62
              30
100
AcDbLine
 10
838.15219999999988
 20
463.99999999999994
 30
0.0
 11
830.06929999999988
 21
449.99999999999994
 31
0.0
  0
LINE
  5
290
100
AcDbEntity
  8
____
  6
CONTINUOUS
 62
              30
100
AcDbLine
 10
875.99999999999989
 20
550.0
 30
0.0
 11
867.91709999999989
 21
536.0
 31
0.0
  0
LINE
  5
291
100
AcDbEntity
  8
____
  6
CONTINUOUS
 62
              30
100
AcDbLine
 10
858.49999999999989
 20
550.0
 30
0.0
 11
916.23509999999987
 21
449.99999999999994
 31
0.0
  0
LINE
  5
292
100
AcDbEntity
  8
____
  6
CONTINUOUS
 62
              30
100
AcDbLine
 10
908.15219999999988
 20
463.99999999999994
 30
0.0
 11
900.06929999999988
 21
449.99999999999994
 31
0.0
  0
LINE
  5
293
100
AcDbEntity
  8
____
  6
CONTINUOUS
 62
              30
100
AcDbLine
 10
945.99999999999989
 20
550.0
 30
0.0
 11
937.91709999999989
 21
536.0
 31
0.0
  0
LINE
  5
294
100
AcDbEntity
  8
____
  6
CONTINUOUS
 62
              30
100
AcDbLine
 10
928.49999999999989
 20
550.0
 30
0.0
 11
986.23509999999987
 21
449.99999999999994
 31
0.0
  0
LINE
  5
295
100
AcDbEntity
  8
____
  6
CONTINUOUS
 62
              30
100
AcDbLine
 10
978.15219999999988
 20
463.99999999999994
 30
0.0
 11
970.06929999999988
 21
449.99999999999994
 31
0.0
  0
LINE
  5
296
100
AcDbEntity
  8
____
  6
CONTINUOUS
 62
              30
100
AcDbLine
 10
1015.9999999999999
 20
550.0
 30
0.0
 11
1007.9170999999999
 21
536.0
 31
0.0
  0
LINE
  5
297
100
AcDbEntity
  8
____
  6
CONTINUOUS
 62
              30
100
AcDbLine
 10
998.49999999999989
 20
550.0
 30
0.0
 11
1056.2350999999999
 21
449.99999999999994
 31
0.0
  0
LINE
  5
298
100
AcDbEntity
  8
____
  6
CONTINUOUS
 62
              30
100
AcDbLine
 10
1048.1522
 20
463.99999999999994
 30
0.0
 11
1040.0692999999999
 21
449.99999999999994
 31
0.0
  0
LINE
  5
299
100
AcDbEntity
  8
____
  6
CONTINUOUS
 62
              30
100
AcDbLine
 10
1086.0
 20
550.0
 30
0.0
 11
1077.9170999999999
 21
536.0
 31
0.0
  0
LINE
  5
29A
100
AcDbEntity
  8
____
  6
CONTINUOUS
 62
              30
100
AcDbLine
 10
1068.5
 20
550.0
 30
0.0
 11
1126.2350999999999
 21
449.99999999999994
 31
0.0
  0
LINE
  5
29B
100
AcDbEntity
  8
____
  6
CONTINUOUS
 62
              30
100
AcDbLine
 10
1118.1522
 20
463.99999999999994
 30
0.0
 11
1110.0692999999999
 21
449.99999999999994
 31
0.0
  0
LINE
  5
29C
100
AcDbEntity
  8
____
  6
CONTINUOUS
 62
              30
100
AcDbLine
 10
1156.0
 20
550.0
 30
0.0
 11
1147.9170999999999
 21
536.0
 31
0.0
  0
LINE
  5
29D
100
AcDbEntity
  8
____
  6
CONTINUOUS
 62
              30
100
AcDbLine
 10
1138.5
 20
550.0
 30
0.0
 11
1196.2350999999999
 21
449.99999999999994
 31
0.0
  0
LINE
  5
29E
100
AcDbEntity
  8
____
  6
CONTINUOUS
 62
              30
100
AcDbLine
 10
1188.1522
 20
463.99999999999994
 30
0.0
 11
1180.0692999999999
 21
449.99999999999994
 31
0.0
  0
LINE
  5
29F
100
AcDbEntity
  8
____
  6
CONTINUOUS
 62
              30
100
AcDbLine
 10
1226.0
 20
550.0
 30
0.0
 11
1217.9170999999999
 21
536.0
 31
0.0
  0
LINE
  5
2A0
100
AcDbEntity
  8
____
  6
CONTINUOUS
 62
              30
100
AcDbLine
 10
1208.5
 20
550.0
 30
0.0
 11
1266.2350999999999
 21
449.99999999999994
 31
0.0
  0
LINE
  5
2A1
100
AcDbEntity
  8
____
  6
CONTINUOUS
 62
              30
100
AcDbLine
 10
1258.1522
 20
463.99999999999994
 30
0.0
 11
1250.0692999999999
 21
449.99999999999994
 31
0.0
  0
LINE
  5
2A2
100
AcDbEntity
  8
____
  6
CONTINUOUS
 62
              30
100
AcDbLine
 10
1296.0
 20
550.0
 30
0.0
 11
1287.9170999999999
 21
536.0
 31
0.0
  0
LINE
  5
2A3
100
AcDbEntity
  8
____
  6
CONTINUOUS
 62
              30
100
AcDbLine
 10
1278.5
 20
550.0
 30
0.0
 11
1336.2350999999999
 21
449.99999999999994
 31
0.0
  0
LINE
  5
2A4
100
AcDbEntity
  8
____
  6
CONTINUOUS
 62
              30
100
AcDbLine
 10
1328.1522
 20
463.99999999999994
 30
0.0
 11
1320.0692999999999
 21
449.99999999999994
 31
0.0
  0
LINE
  5
2A5
100
AcDbEntity
  8
____
  6
CONTINUOUS
 62
              30
100
AcDbLine
 10
1365.9999999999998
 20
550.0
 30
0.0
 11
1357.9170999999999
 21
536.0
 31
0.0
  0
LINE
  5
2A6
100
AcDbEntity
  8
____
  6
CONTINUOUS
 62
              30
100
AcDbLine
 10
1348.4999999999998
 20
550.0
 30
0.0
 11
1406.2350999999999
 21
449.99999999999994
 31
0.0
  0
LINE
  5
2A7
100
AcDbEntity
  8
____
  6
CONTINUOUS
 62
              30
100
AcDbLine
 10
1398.1521999999998
 20
463.99999999999994
 30
0.0
 11
1390.0692999999999
 21
449.99999999999994
 31
0.0
  0
LINE
  5
2A8
100
AcDbEntity
  8
____
  6
CONTINUOUS
 62
              30
100
AcDbLine
 10
1435.9999999999998
 20
550.0
 30
0.0
 11
1427.9170999999999
 21
536.0
 31
0.0
  0
LINE
  5
2A9
100
AcDbEntity
  8
____
  6
CONTINUOUS
 62
              30
100
AcDbLine
 10
1418.4999999999998
 20
550.0
 30
0.0
 11
1476.2350999999999
 21
449.99999999999994
 31
0.0
  0
LINE
  5
2AA
100
AcDbEntity
  8
____
  6
CONTINUOUS
 62
              30
100
AcDbLine
 10
1468.1521999999998
 20
463.99999999999994
 30
0.0
 11
1460.0692999999999
 21
449.99999999999994
 31
0.0
  0
LINE
  5
2AB
100
AcDbEntity
  8
____
  6
CONTINUOUS
 62
              30
100
AcDbLine
 10
1505.9999999999998
 20
550.0
 30
0.0
 11
1497.9170999999999
 21
536.0
 31
0.0
  0
LINE
  5
2AC
100
AcDbEntity
  8
____
  6
CONTINUOUS
 62
              30
100
AcDbLine
 10
1488.4999999999998
 20
550.0
 30
0.0
 11
1546.2350999999999
 21
449.99999999999994
 31
0.0
  0
LINE
  5
2AD
100
AcDbEntity
  8
____
  6
CONTINUOUS
 62
              30
100
AcDbLine
 10
1538.1521999999998
 20
463.99999999999994
 30
0.0
 11
1530.0692999999999
 21
449.99999999999994
 31
0.0
  0
POLYLINE
  5
2AE
100
AcDbEntity
  8
____
  6
CONTINUOUS
 62
              30
100
AcDb2dPolyline
 66
               1
 10
0.0
 20
0.0
 30
0.0
 70
               1
 75
               5
  0
VERTEX
  5
2AF
100
AcDbEntity
  8
____
  6
CONTINUOUS
 62
              30
100
AcDbVertex
100
AcDb2dVertex
 10
-2827.4999999999995
 20
550.0
 30
0.0
  0
VERTEX
  5
2B0
100
AcDbEntity
  8
____
  6
CONTINUOUS
 62
              30
100
AcDbVertex
100
AcDb2dVertex
 10
-2427.5
 20
550.0
 30
0.0
  0
VERTEX
  5
2B1
100
AcDbEntity
  8
____
  6
CONTINUOUS
 62
              30
100
AcDbVertex
100
AcDb2dVertex
 10
-2427.5
 20
449.99999999999994
 30
0.0
  0
VERTEX
  5
2B2
100
AcDbEntity
  8
____
  6
CONTINUOUS
 62
              30
100
AcDbVertex
100
AcDb2dVertex
 10
-2827.4999999999995
 20
449.99999999999994
 30
0.0
  0
SEQEND
  5
2B3
100
AcDbEntity
  8
____
  6
CONTINUOUS
 62
              30
  0
LINE
  5
2B5
100
AcDbEntity
  8
____
  6
CONTINUOUS
 62
              30
100
AcDbLine
 10
-2805.9999999999995
 20
550.0
 30
0.0
 11
-2815.8149999999996
 21
533.0
 31
0.0
  0
LINE
  5
2B6
100
AcDbEntity
  8
____
  6
CONTINUOUS
 62
              30
100
AcDbLine
 10
-2825.8260999999998
 20
550.0
 30
0.0
 11
-2768.0909999999999
 21
449.99999999999994
 31
0.0
  0
LINE
  5
2B7
100
AcDbEntity
  8
____
  6
CONTINUOUS
 62
              30
100
AcDbLine
 10
-2777.3285999999998
 20
465.99999999999994
 30
0.0
 11
-2786.5661999999998
 21
449.99999999999994
 31
0.0
  0
LINE
  5
2B8
100
AcDbEntity
  8
____
  6
CONTINUOUS
 62
              30
100
AcDbLine
 10
-2735.9999999999995
 20
550.0
 30
0.0
 11
-2745.8149999999996
 21
533.0
 31
0.0
  0
LINE
  5
2B9
100
AcDbEntity
  8
____
  6
CONTINUOUS
 62
              30
100
AcDbLine
 10
-2755.8260999999998
 20
550.0
 30
0.0
 11
-2698.0909999999999
 21
449.99999999999994
 31
0.0
  0
LINE
  5
2BA
100
AcDbEntity
  8
____
  6
CONTINUOUS
 62
              30
100
AcDbLine
 10
-2707.3285999999998
 20
465.99999999999994
 30
0.0
 11
-2716.5661999999998
 21
449.99999999999994
 31
0.0
  0
LINE
  5
2BB
100
AcDbEntity
  8
____
  6
CONTINUOUS
 62
              30
100
AcDbLine
 10
-2665.9999999999995
 20
550.0
 30
0.0
 11
-2675.8149999999996
 21
533.0
 31
0.0
  0
LINE
  5
2BC
100
AcDbEntity
  8
____
  6
CONTINUOUS
 62
              30
100
AcDbLine
 10
-2685.8260999999998
 20
550.0
 30
0.0
 11
-2628.0909999999999
 21
449.99999999999994
 31
0.0
  0
LINE
  5
2BD
100
AcDbEntity
  8
____
  6
CONTINUOUS
 62
              30
100
AcDbLine
 10
-2637.3285999999998
 20
465.99999999999994
 30
0.0
 11
-2646.5661999999998
 21
449.99999999999994
 31
0.0
  0
LINE
  5
2BE
100
AcDbEntity
  8
____
  6
CONTINUOUS
 62
              30
100
AcDbLine
 10
-2595.9999999999995
 20
550.0
 30
0.0
 11
-2605.8149999999996
 21
533.0
 31
0.0
  0
LINE
  5
2BF
100
AcDbEntity
  8
____
  6
CONTINUOUS
 62
              30
100
AcDbLine
 10
-2615.8260999999998
 20
550.0
 30
0.0
 11
-2558.0909999999999
 21
449.99999999999994
 31
0.0
  0
LINE
  5
2C0
100
AcDbEntity
  8
____
  6
CONTINUOUS
 62
              30
100
AcDbLine
 10
-2567.3285999999998
 20
465.99999999999994
 30
0.0
 11
-2576.5661999999998
 21
449.99999999999994
 31
0.0
  0
LINE
  5
2C1
100
AcDbEntity
  8
____
  6
CONTINUOUS
 62
              30
100
AcDbLine
 10
-2526.0
 20
550.0
 30
0.0
 11
-2535.8149999999996
 21
533.0
 31
0.0
  0
LINE
  5
2C2
100
AcDbEntity
  8
____
  6
CONTINUOUS
 62
              30
100
AcDbLine
 10
-2545.8260999999998
 20
550.0
 30
0.0
 11
-2488.0909999999999
 21
449.99999999999994
 31
0.0
  0
LINE
  5
2C3
100
AcDbEntity
  8
____
  6
CONTINUOUS
 62
              30
100
AcDbLine
 10
-2497.3285999999998
 20
465.99999999999994
 30
0.0
 11
-2506.5661999999998
 21
449.99999999999994
 31
0.0
  0
LINE
  5
2C4
100
AcDbEntity
  8
____
  6
CONTINUOUS
 62
              30
100
AcDbLine
 10
-2456.0
 20
550.0
 30
0.0
 11
-2465.8149999999996
 21
533.0
 31
0.0
  0
LINE
  5
2C5
100
AcDbEntity
  8
____
  6
CONTINUOUS
 62
              30
100
AcDbLine
 10
-2475.8260999999998
 20
550.0
 30
0.0
 11
-2427.3285999999998
 21
465.99999999999994
 31
0.0
  0
POLYLINE
  5
2C6
100
AcDbEntity
  8
____
  6
CONTINUOUS
 62
              30
100
AcDb2dPolyline
 66
               1
 10
0.0
 20
0.0
 30
0.0
 70
               1
 75
               5
  0
VERTEX
  5
2C7
100
AcDbEntity
  8
____
  6
CONTINUOUS
 62
              30
100
AcDbVertex
100
AcDb2dVertex
 10
-1027.5
 20
550.0
 30
0.0
  0
VERTEX
  5
2C8
100
AcDbEntity
  8
____
  6
CONTINUOUS
 62
              30
100
AcDbVertex
100
AcDb2dVertex
 10
-627.5
 20
550.0
 30
0.0
  0
VERTEX
  5
2C9
100
AcDbEntity
  8
____
  6
CONTINUOUS
 62
              30
100
AcDbVertex
100
AcDb2dVertex
 10
-627.5
 20
449.99999999999994
 30
0.0
  0
VERTEX
  5
2CA
100
AcDbEntity
  8
____
  6
CONTINUOUS
 62
              30
100
AcDbVertex
100
AcDb2dVertex
 10
-1027.5
 20
449.99999999999994
 30
0.0
  0
SEQEND
  5
2CB
100
AcDbEntity
  8
____
  6
CONTINUOUS
 62
              30
  0
LINE
  5
2CD
100
AcDbEntity
  8
____
  6
CONTINUOUS
 62
              30
100
AcDbLine
 10
-1005.9999999999999
 20
550.0
 30
0.0
 11
-1015.8149999999999
 21
533.0
 31
0.0
  0
LINE
  5
2CE
100
AcDbEntity
  8
____
  6
CONTINUOUS
 62
              30
100
AcDbLine
 10
-1025.8261
 20
550.0
 30
0.0
 11
-968.09099999999989
 21
449.99999999999994
 31
0.0
  0
LINE
  5
2CF
100
AcDbEntity
  8
____
  6
CONTINUOUS
 62
              30
100
AcDbLine
 10
-977.32859999999994
 20
465.99999999999994
 30
0.0
 11
-986.56619999999987
 21
449.99999999999994
 31
0.0
  0
LINE
  5
2D0
100
AcDbEntity
  8
____
  6
CONTINUOUS
 62
              30
100
AcDbLine
 10
-935.99999999999989
 20
550.0
 30
0.0
 11
-945.81499999999994
 21
533.0
 31
0.0
  0
LINE
  5
2D1
100
AcDbEntity
  8
____
  6
CONTINUOUS
 62
              30
100
AcDbLine
 10
-955.82609999999988
 20
550.0
 30
0.0
 11
-898.09099999999989
 21
449.99999999999994
 31
0.0
  0
LINE
  5
2D2
100
AcDbEntity
  8
____
  6
CONTINUOUS
 62
              30
100
AcDbLine
 10
-907.32859999999994
 20
465.99999999999994
 30
0.0
 11
-916.56619999999987
 21
449.99999999999994
 31
0.0
  0
LINE
  5
2D3
100
AcDbEntity
  8
____
  6
CONTINUOUS
 62
              30
100
AcDbLine
 10
-865.99999999999989
 20
550.0
 30
0.0
 11
-875.81499999999994
 21
533.0
 31
0.0
  0
LINE
  5
2D4
100
AcDbEntity
  8
____
  6
CONTINUOUS
 62
              30
100
AcDbLine
 10
-885.82609999999988
 20
550.0
 30
0.0
 11
-828.09099999999989
 21
449.99999999999994
 31
0.0
  0
LINE
  5
2D5
100
AcDbEntity
  8
____
  6
CONTINUOUS
 62
              30
100
AcDbLine
 10
-837.32859999999994
 20
465.99999999999994
 30
0.0
 11
-846.56619999999998
 21
449.99999999999994
 31
0.0
  0
LINE
  5
2D6
100
AcDbEntity
  8
____
  6
CONTINUOUS
 62
              30
100
AcDbLine
 10
-795.99999999999989
 20
550.0
 30
0.0
 11
-805.81499999999994
 21
533.0
 31
0.0
  0
LINE
  5
2D7
100
AcDbEntity
  8
____
  6
CONTINUOUS
 62
              30
100
AcDbLine
 10
-815.82609999999988
 20
550.0
 30
0.0
 11
-758.09099999999989
 21
449.99999999999994
 31
0.0
  0
LINE
  5
2D8
100
AcDbEntity
  8
____
  6
CONTINUOUS
 62
              30
100
AcDbLine
 10
-767.32859999999994
 20
465.99999999999994
 30
0.0
 11
-776.56619999999998
 21
449.99999999999994
 31
0.0
  0
LINE
  5
2D9
100
AcDbEntity
  8
____
  6
CONTINUOUS
 62
              30
100
AcDbLine
 10
-725.99999999999989
 20
550.0
 30
0.0
 11
-735.81499999999994
 21
533.0
 31
0.0
  0
LINE
  5
2DA
100
AcDbEntity
  8
____
  6
CONTINUOUS
 62
              30
100
AcDbLine
 10
-745.82609999999988
 20
550.0
 30
0.0
 11
-688.09099999999989
 21
449.99999999999994
 31
0.0
  0
LINE
  5
2DB
100
AcDbEntity
  8
____
  6
CONTINUOUS
 62
              30
100
AcDbLine
 10
-697.32859999999994
 20
465.99999999999994
 30
0.0
 11
-706.56619999999998
 21
449.99999999999994
 31
0.0
  0
LINE
  5
2DC
100
AcDbEntity
  8
____
  6
CONTINUOUS
 62
              30
100
AcDbLine
 10
-655.99999999999989
 20
550.0
 30
0.0
 11
-665.81499999999994
 21
533.0
 31
0.0
  0
LINE
  5
2DD
100
AcDbEntity
  8
____
  6
CONTINUOUS
 62
              30
100
AcDbLine
 10
-675.8261
 20
550.0
 30
0.0
 11
-627.32859999999994
 21
465.99999999999994
 31
0.0
  0
POLYLINE
  5
2DE
100
AcDbEntity
  8
____
  6
CONTINUOUS
 62
              30
100
AcDb2dPolyline
 66
               1
 10
0.0
 20
0.0
 30
0.0
 70
               1
 75
               5
  0
VERTEX
  5
2DF
100
AcDbEntity
  8
____
  6
CONTINUOUS
 62
              30
100
AcDbVertex
100
AcDb2dVertex
 10
-677.49999999999989
 20
649.99999999999989
 30
0.0
  0
VERTEX
  5
2E0
100
AcDbEntity
  8
____
  6
CONTINUOUS
 62
              30
100
AcDbVertex
100
AcDb2dVertex
 10
-977.49999999999989
 20
649.99999999999989
 30
0.0
  0
VERTEX
  5
2E1
100
AcDbEntity
  8
____
  6
CONTINUOUS
 62
              30
100
AcDbVertex
100
AcDb2dVertex
 10
-977.49999999999989
 20
1449.9999999999998
 30
0.0
  0
VERTEX
  5
2E2
100
AcDbEntity
  8
____
  6
CONTINUOUS
 62
              30
100
AcDbVertex
100
AcDb2dVertex
 10
-777.49999999999989
 20
1449.9999999999998
 30
0.0
  0
VERTEX
  5
2E3
100
AcDbEntity
  8
____
  6
CONTINUOUS
 62
              30
100
AcDbVertex
100
AcDb2dVertex
 10
-777.49999999999989
 20
1549.9999999999998
 30
0.0
  0
VERTEX
  5
2E4
100
AcDbEntity
  8
____
  6
CONTINUOUS
 62
              30
100
AcDbVertex
100
AcDb2dVertex
 10
-677.49999999999989
 20
1549.9999999999998
 30
0.0
  0
SEQEND
  5
2E5
100
AcDbEntity
  8
____
  6
CONTINUOUS
 62
              30
  0
INSERT
  5
2E7
100
AcDbEntity
  8
____
 62
              30
100
AcDbBlockReference
  2
*X6
 10
0.0
 20
0.0
 30
0.0
  0
POLYLINE
  5
2E8
100
AcDbEntity
  8
____
  6
CONTINUOUS
 62
              30
100
AcDb2dPolyline
 66
               1
 10
0.0
 20
0.0
 30
0.0
 70
               1
 75
               5
  0
VERTEX
  5
2E9
100
AcDbEntity
  8
____
  6
CONTINUOUS
 62
              30
100
AcDbVertex
100
AcDb2dVertex
 10
-2477.5
 20
649.99999999999989
 30
0.0
  0
VERTEX
  5
2EA
100
AcDbEntity
  8
____
  6
CONTINUOUS
 62
              30
100
AcDbVertex
100
AcDb2dVertex
 10
-2777.4999999999995
 20
649.99999999999989
 30
0.0
  0
VERTEX
  5
2EB
100
AcDbEntity
  8
____
  6
CONTINUOUS
 62
              30
100
AcDbVertex
100
AcDb2dVertex
 10
-2777.4999999999995
 20
1549.9999999999998
 30
0.0
  0
VERTEX
  5
2EC
100
AcDbEntity
  8
____
  6
CONTINUOUS
 62
              30
100
AcDbVertex
100
AcDb2dVertex
 10
-2677.4999999999995
 20
1549.9999999999998
 30
0.0
  0
VERTEX
  5
2ED
100
AcDbEntity
  8
____
  6
CONTINUOUS
 62
              30
100
AcDbVertex
100
AcDb2dVertex
 10
-2677.4999999999995
 20
1449.9999999999998
 30
0.0
  0
VERTEX
  5
2EE
100
AcDbEntity
  8
____
  6
CONTINUOUS
 62
              30
100
AcDbVertex
100
AcDb2dVertex
 10
-2477.5
 20
1449.9999999999998
 30
0.0
  0
SEQEND
  5
2EF
100
AcDbEntity
  8
____
  6
CONTINUOUS
 62
              30
  0
INSERT
  5
2F1
100
AcDbEntity
  8
____
 62
              30
100
AcDbBlockReference
  2
*X7
 10
0.0
 20
0.0
 30
0.0
  0
LINE
  5
2F2
100
AcDbEntity
  8
____
  6
CONTINUOUS
 62
              30
100
AcDbLine
 10
-2672.4999999999995
 20
-520.0
 30
0.0
 11
-782.5
 21
-520.0
 31
0.0
  0
LINE
  5
2F3
100
AcDbEntity
  8
____
  6
CONTINUOUS
 62
              30
100
AcDbLine
 10
-2672.4999999999995
 20
-1324.9999999999998
 30
0.0
 11
-782.49999999999989
 21
-1324.9999999999998
 31
0.0
  0
POLYLINE
  5
2F4
100
AcDbEntity
  8
____
  6
STYLE_05
 62
              30
100
AcDb2dPolyline
 66
               1
 10
0.0
 20
0.0
 30
0.0
 70
               1
 75
               5
  0
VERTEX
  5
2F5
100
AcDbEntity
  8
____
  6
STYLE_05
 62
              30
100
AcDbVertex
100
AcDb2dVertex
 10
1298.4999999999998
 20
1549.9999999999998
 30
0.0
  0
VERTEX
  5
2F6
100
AcDbEntity
  8
____
  6
STYLE_05
 62
              30
100
AcDbVertex
100
AcDb2dVertex
 10
1098.5
 20
1549.9999999999998
 30
0.0
  0
VERTEX
  5
2F7
100
AcDbEntity
  8
____
  6
STYLE_05
 62
              30
100
AcDbVertex
100
AcDb2dVertex
 10
1098.5
 20
1449.9999999999998
 30
0.0
  0
VERTEX
  5
2F8
100
AcDbEntity
  8
____
  6
STYLE_05
 62
              30
100
AcDbVertex
100
AcDb2dVertex
 10
1298.4999999999998
 20
1449.9999999999998
 30
0.0
  0
SEQEND
  5
2F9
100
AcDbEntity
  8
____
  6
STYLE_05
 62
              30
  0
POLYLINE
  5
2FB
100
AcDbEntity
  8
____
  6
STYLE_05
 62
              30
100
AcDb2dPolyline
 66
               1
 10
0.0
 20
0.0
 30
0.0
 70
               1
 75
               5
  0
VERTEX
  5
2FC
100
AcDbEntity
  8
____
  6
STYLE_05
 62
              30
100
AcDbVertex
100
AcDb2dVertex
 10
1093.5
 20
1549.9999999999998
 30
0.0
  0
VERTEX
  5
2FD
100
AcDbEntity
  8
____
  6
STYLE_05
 62
              30
100
AcDbVertex
100
AcDb2dVertex
 10
893.49999999999989
 20
1549.9999999999998
 30
0.0
  0
VERTEX
  5
2FE
100
AcDbEntity
  8
____
  6
STYLE_05
 62
              30
100
AcDbVertex
100
AcDb2dVertex
 10
893.49999999999989
 20
1449.9999999999998
 30
0.0
  0
VERTEX
  5
2FF
100
AcDbEntity
  8
____
  6
STYLE_05
 62
              30
100
AcDbVertex
100
AcDb2dVertex
 10
1093.5
 20
1449.9999999999998
 30
0.0
  0
SEQEND
  5
300
100
AcDbEntity
  8
____
  6
STYLE_05
 62
              30
  0
POLYLINE
  5
302
100
AcDbEntity
  8
____
  6
STYLE_05
 62
              30
100
AcDb2dPolyline
 66
               1
 10
0.0
 20
0.0
 30
0.0
 70
               1
 75
               5
  0
VERTEX
  5
303
100
AcDbEntity
  8
____
  6
STYLE_05
 62
              30
100
AcDbVertex
100
AcDb2dVertex
 10
688.49999999999989
 20
1549.9999999999998
 30
0.0
  0
VERTEX
  5
304
100
AcDbEntity
  8
____
  6
STYLE_05
 62
              30
100
AcDbVertex
100
AcDb2dVertex
 10
888.49999999999989
 20
1549.9999999999998
 30
0.0
  0
VERTEX
  5
305
100
AcDbEntity
  8
____
  6
STYLE_05
 62
              30
100
AcDbVertex
100
AcDb2dVertex
 10
888.49999999999989
 20
1449.9999999999998
 30
0.0
  0
VERTEX
  5
306
100
AcDbEntity
  8
____
  6
STYLE_05
 62
              30
100
AcDbVertex
100
AcDb2dVertex
 10
688.49999999999989
 20
1449.9999999999998
 30
0.0
  0
SEQEND
  5
307
100
AcDbEntity
  8
____
  6
STYLE_05
 62
              30
  0
POLYLINE
  5
309
100
AcDbEntity
  8
____
  6
STYLE_05
 62
              30
100
AcDb2dPolyline
 66
               1
 10
0.0
 20
0.0
 30
0.0
 70
               1
 75
               5
  0
VERTEX
  5
30A
100
AcDbEntity
  8
____
  6
STYLE_05
 62
              30
100
AcDbVertex
100
AcDb2dVertex
 10
1303.4999999999998
 20
1449.9999999999998
 30
0.0
  0
VERTEX
  5
30B
100
AcDbEntity
  8
____
  6
STYLE_05
 62
              30
100
AcDbVertex
100
AcDb2dVertex
 10
1303.4999999999998
 20
1549.9999999999998
 30
0.0
  0
VERTEX
  5
30C
100
AcDbEntity
  8
____
  6
STYLE_05
 62
              30
100
AcDbVertex
100
AcDb2dVertex
 10
1503.4999999999998
 20
1549.9999999999998
 30
0.0
  0
VERTEX
  5
30D
100
AcDbEntity
  8
____
  6
STYLE_05
 62
              30
100
AcDbVertex
100
AcDb2dVertex
 10
1503.4999999999998
 20
1449.9999999999998
 30
0.0
  0
SEQEND
  5
30E
100
AcDbEntity
  8
____
  6
STYLE_05
 62
              30
  0
POLYLINE
  5
310
100
AcDbEntity
  8
____
  6
STYLE_11
 62
              30
100
AcDb2dPolyline
 66
               1
 10
0.0
 20
0.0
 30
0.0
 70
               1
 75
               5
  0
VERTEX
  5
311
100
AcDbEntity
  8
____
  6
STYLE_11
 62
              30
100
AcDbVertex
100
AcDb2dVertex
 10
-1742.4999999999998
 20
-547.5
 30
0.0
  0
VERTEX
  5
312
100
AcDbEntity
  8
____
  6
STYLE_11
 62
              30
100
AcDbVertex
100
AcDb2dVertex
 10
-1712.4999999999998
 20
-547.5
 30
0.0
  0
VERTEX
  5
313
100
AcDbEntity
  8
____
  6
STYLE_11
 62
              30
100
AcDbVertex
100
AcDb2dVertex
 10
-1712.4999999999998
 20
-1297.5
 30
0.0
  0
VERTEX
  5
314
100
AcDbEntity
  8
____
  6
STYLE_11
 62
              30
100
AcDbVertex
100
AcDb2dVertex
 10
-1742.4999999999998
 20
-1297.5
 30
0.0
  0
SEQEND
  5
315
100
AcDbEntity
  8
____
  6
STYLE_11
 62
              30
  0
CIRCLE
  5
317
100
AcDbEntity
  8
____
  6
STYLE_11
 62
              30
100
AcDbCircle
 10
-1727.4999999999998
 20
-570.0
 30
0.0
 40
4.0
  0
CIRCLE
  5
318
100
AcDbEntity
  8
____
  6
STYLE_11
 62
              30
100
AcDbCircle
 10
-1727.4999999999998
 20
-744.99999999999989
 30
0.0
 40
4.0
  0
CIRCLE
  5
319
100
AcDbEntity
  8
____
  6
STYLE_11
 62
              30
100
AcDbCircle
 10
-1727.4999999999998
 20
-894.99999999999989
 30
0.0
 40
4.0
  0
CIRCLE
  5
31A
100
AcDbEntity
  8
____
  6
STYLE_11
 62
              30
100
AcDbCircle
 10
-1727.4999999999998
 20
-689.99999999999989
 30
0.0
 40
4.0
  0
CIRCLE
  5
31B
100
AcDbEntity
  8
____
  6
STYLE_11
 62
              30
100
AcDbCircle
 10
-1727.4999999999998
 20
-1275.0
 30
0.0
 40
4.0
  0
CIRCLE
  5
31C
100
AcDbEntity
  8
____
  6
STYLE_11
 62
              30
100
AcDbCircle
 10
-1727.4999999999998
 20
-1100.0
 30
0.0
 40
4.0
  0
CIRCLE
  5
31D
100
AcDbEntity
  8
____
  6
STYLE_11
 62
              30
100
AcDbCircle
 10
-1727.4999999999998
 20
-949.99999999999989
 30
0.0
 40
4.0
  0
CIRCLE
  5
31E
100
AcDbEntity
  8
____
  6
STYLE_11
 62
              30
100
AcDbCircle
 10
-1727.4999999999998
 20
-1155.0
 30
0.0
 40
4.0
  0
POLYLINE
  5
31F
100
AcDbEntity
  8
____
  6
CONTINUOUS
 62
              30
100
AcDb2dPolyline
 66
               1
 10
0.0
 20
0.0
 30
0.0
 70
               1
 75
               5
  0
VERTEX
  5
320
100
AcDbEntity
  8
____
  6
CONTINUOUS
 62
              30
100
AcDbVertex
100
AcDb2dVertex
 10
-1742.4999999999998
 20
1449.9999999999998
 30
0.0
  0
VERTEX
  5
321
100
AcDbEntity
  8
____
  6
CONTINUOUS
 62
              30
100
AcDbVertex
100
AcDb2dVertex
 10
-1712.4999999999998
 20
1449.9999999999998
 30
0.0
  0
VERTEX
  5
322
100
AcDbEntity
  8
____
  6
CONTINUOUS
 62
              30
100
AcDbVertex
100
AcDb2dVertex
 10
-1712.4999999999998
 20
1446.9999999999998
 30
0.0
  0
VERTEX
  5
323
100
AcDbEntity
  8
____
  6
CONTINUOUS
 62
              30
100
AcDbVertex
100
AcDb2dVertex
 10
-1742.4999999999998
 20
1446.9999999999998
 30
0.0
  0
SEQEND
  5
324
100
AcDbEntity
  8
____
  6
CONTINUOUS
 62
              30
  0
POLYLINE
  5
326
100
AcDbEntity
  8
____
  6
STYLE_05
 62
              30
100
AcDb2dPolyline
 66
               1
 10
0.0
 20
0.0
 30
0.0
 70
               1
 75
               5
  0
VERTEX
  5
327
100
AcDbEntity
  8
____
  6
STYLE_05
 62
              30
100
AcDbVertex
100
AcDb2dVertex
 10
-2477.5
 20
-547.5
 30
0.0
  0
VERTEX
  5
328
100
AcDbEntity
  8
____
  6
STYLE_05
 62
              30
100
AcDbVertex
100
AcDb2dVertex
 10
-2427.5
 20
-547.5
 30
0.0
  0
VERTEX
  5
329
100
AcDbEntity
  8
____
  6
STYLE_05
 62
              30
100
AcDbVertex
100
AcDb2dVertex
 10
-2427.5
 20
-1297.5
 30
0.0
  0
VERTEX
  5
32A
100
AcDbEntity
  8
____
  6
STYLE_05
 62
              30
100
AcDbVertex
100
AcDb2dVertex
 10
-2477.5
 20
-1297.5
 30
0.0
  0
SEQEND
  5
32B
100
AcDbEntity
  8
____
  6
STYLE_05
 62
              30
  0
CIRCLE
  5
32D
100
AcDbEntity
  8
____
  6
STYLE_11
 62
              30
100
AcDbCircle
 10
-2452.5
 20
-570.0
 30
0.0
 40
4.0
  0
CIRCLE
  5
32E
100
AcDbEntity
  8
____
  6
STYLE_11
 62
              30
100
AcDbCircle
 10
-2452.5
 20
-744.99999999999989
 30
0.0
 40
4.0
  0
CIRCLE
  5
32F
100
AcDbEntity
  8
____
  6
STYLE_11
 62
              30
100
AcDbCircle
 10
-2452.5
 20
-894.99999999999989
 30
0.0
 40
4.0
  0
CIRCLE
  5
330
100
AcDbEntity
  8
____
  6
STYLE_11
 62
              30
100
AcDbCircle
 10
-2452.5
 20
-689.99999999999989
 30
0.0
 40
4.0
  0
CIRCLE
  5
331
100
AcDbEntity
  8
____
  6
STYLE_11
 62
              30
100
AcDbCircle
 10
-2452.5
 20
-1275.0
 30
0.0
 40
4.0
  0
CIRCLE
  5
332
100
AcDbEntity
  8
____
  6
STYLE_11
 62
              30
100
AcDbCircle
 10
-2452.5
 20
-1100.0
 30
0.0
 40
4.0
  0
CIRCLE
  5
333
100
AcDbEntity
  8
____
  6
STYLE_11
 62
              30
100
AcDbCircle
 10
-2452.5
 20
-949.99999999999989
 30
0.0
 40
4.0
  0
CIRCLE
  5
334
100
AcDbEntity
  8
____
  6
STYLE_11
 62
              30
100
AcDbCircle
 10
-2452.5
 20
-1155.0
 30
0.0
 40
4.0
  0
LINE
  5
335
100
AcDbEntity
  8
____
  6
STYLE_05
 62
              30
100
AcDbLine
 10
-2473.5
 20
-547.5
 30
0.0
 11
-2473.5
 21
-1297.5
 31
0.0
  0
LINE
  5
336
100
AcDbEntity
  8
____
  6
CONTINUOUS
 62
               1
100
AcDbLine
 10
695.49999999999989
 20
1549.9999999999998
 30
0.0
 11
695.49999999999989
 21
649.99999999999989
 31
0.0
  0
LINE
  5
337
100
AcDbEntity
  8
____
  6
CONTINUOUS
 62
               1
100
AcDbLine
 10
1496.4999999999998
 20
1549.9999999999998
 30
0.0
 11
1496.4999999999998
 21
649.99999999999989
 31
0.0
  0
LINE
  5
338
100
AcDbEntity
  8
____
  6
CONTINUOUS
 62
               1
100
AcDbLine
 10
-684.49999999999989
 20
1549.9999999999998
 30
0.0
 11
-684.49999999999989
 21
649.99999999999989
 31
0.0
  0
LINE
  5
339
100
AcDbEntity
  8
____
  6
CONTINUOUS
 62
              30
100
AcDbLine
 10
-2484.5
 20
649.99999999999989
 30
0.0
 11
-2484.5
 21
1449.9999999999998
 31
0.0
  0
LINE
  5
33A
100
AcDbEntity
  8
____
  6
CONTINUOUS
 62
              30
100
AcDbLine
 10
-970.49999999999989
 20
649.99999999999989
 30
0.0
 11
-970.49999999999989
 21
1449.9999999999998
 31
0.0
  0
POLYLINE
  5
33B
100
AcDbEntity
  8
____
  6
CONTINUOUS
 62
              30
100
AcDb2dPolyline
 66
               1
 10
0.0
 20
0.0
 30
0.0
 70
               1
 75
               5
  0
VERTEX
  5
33C
100
AcDbEntity
  8
____
  6
CONTINUOUS
 62
              30
100
AcDbVertex
100
AcDb2dVertex
 10
-1727.5
 20
-1330.0
 30
0.0
  0
VERTEX
  5
33D
100
AcDbEntity
  8
____
  6
CONTINUOUS
 62
              30
100
AcDbVertex
100
AcDb2dVertex
 10
-1627.5
 20
-1330.0
 30
0.0
  0
VERTEX
  5
33E
100
AcDbEntity
  8
____
  6
CONTINUOUS
 62
              30
100
AcDbVertex
100
AcDb2dVertex
 10
-1627.5
 20
-1334.0
 30
0.0
  0
VERTEX
  5
33F
100
AcDbEntity
  8
____
  6
CONTINUOUS
 62
              30
100
AcDbVertex
100
AcDb2dVertex
 10
-1727.5
 20
-1334.0
 30
0.0
  0
SEQEND
  5
340
100
AcDbEntity
  8
____
  6
CONTINUOUS
 62
              30
  0
POLYLINE
  5
342
100
AcDbEntity
  8
____
  6
CONTINUOUS
 62
              30
100
AcDb2dPolyline
 66
               1
 10
0.0
 20
0.0
 30
0.0
 70
             129
  0
VERTEX
  5
343
100
AcDbEntity
  8
____
  6
CONTINUOUS
 62
              30
100
AcDbVertex
100
AcDb2dVertex
 10
-948.84999999999991
 20
-1334.0001000000002
 30
0.0
  0
VERTEX
  5
344
100
AcDbEntity
  8
____
  6
CONTINUOUS
 62
              30
100
AcDbVertex
100
AcDb2dVertex
 10
-906.14999999999998
 20
-1334.0001000000002
 30
0.0
  0
VERTEX
  5
345
100
AcDbEntity
  8
____
  6
CONTINUOUS
 62
              30
100
AcDbVertex
100
AcDb2dVertex
 10
-906.14999999999998
 20
-1380.0
 30
0.0
  0
VERTEX
  5
346
100
AcDbEntity
  8
____
  6
CONTINUOUS
 62
              30
100
AcDbVertex
100
AcDb2dVertex
 10
-906.14999999999998
 20
-1422.6499000000001
 30
0.0
  0
VERTEX
  5
347
100
AcDbEntity
  8
____
  6
CONTINUOUS
 62
              30
100
AcDbVertex
100
AcDb2dVertex
 10
-906.14999999999998
 20
-1422.6499000000001
 30
0.0
 42
-0.4142135623730961
 70
               2
  0
VERTEX
  5
348
100
AcDbEntity
  8
____
  6
CONTINUOUS
 62
              30
100
AcDbVertex
100
AcDb2dVertex
 10
-968.84999999999991
 20
-1485.3499000000002
 30
0.0
  0
VERTEX
  5
349
100
AcDbEntity
  8
____
  6
CONTINUOUS
 62
              30
100
AcDbVertex
100
AcDb2dVertex
 10
-1636.1500000000001
 20
-1485.3499000000002
 30
0.0
  0
VERTEX
  5
34A
100
AcDbEntity
  8
____
  6
CONTINUOUS
 62
              30
100
AcDbVertex
100
AcDb2dVertex
 10
-1636.1500000000001
 20
-1485.3499000000002
 30
0.0
 42
-0.4142135623730929
 70
               2
 50
7860454045474474.0
  0
VERTEX
  5
34B
100
AcDbEntity
  8
____
  6
CONTINUOUS
 62
              30
100
AcDbVertex
100
AcDb2dVertex
 10
-1698.8499999999999
 20
-1422.6499000000001
 30
0.0
  0
VERTEX
  5
34C
100
AcDbEntity
  8
____
  6
CONTINUOUS
 62
              30
100
AcDbVertex
100
AcDb2dVertex
 10
-1698.8499999999999
 20
-1380.0
 30
0.0
  0
VERTEX
  5
34D
100
AcDbEntity
  8
____
  6
CONTINUOUS
 62
              30
100
AcDbVertex
100
AcDb2dVertex
 10
-1698.8499999999999
 20
-1334.0001000000002
 30
0.0
  0
VERTEX
  5
34E
100
AcDbEntity
  8
____
  6
CONTINUOUS
 62
              30
100
AcDbVertex
100
AcDb2dVertex
 10
-1656.1500000000001
 20
-1334.0001000000002
 30
0.0
  0
VERTEX
  5
34F
100
AcDbEntity
  8
____
  6
CONTINUOUS
 62
              30
100
AcDbVertex
100
AcDb2dVertex
 10
-1656.1500000000001
 20
-1380.0
 30
0.0
  0
VERTEX
  5
350
100
AcDbEntity
  8
____
  6
CONTINUOUS
 62
              30
100
AcDbVertex
100
AcDb2dVertex
 10
-1656.1500000000001
 20
-1422.6499000000001
 30
0.0
  0
VERTEX
  5
351
100
AcDbEntity
  8
____
  6
CONTINUOUS
 62
              30
100
AcDbVertex
100
AcDb2dVertex
 10
-1656.1500000000001
 20
-1422.6499000000001
 30
0.0
 42
0.414213562373095
 70
               2
  0
VERTEX
  5
352
100
AcDbEntity
  8
____
  6
CONTINUOUS
 62
              30
100
AcDbVertex
100
AcDb2dVertex
 10
-1636.1500000000001
 20
-1442.6499000000001
 30
0.0
  0
VERTEX
  5
353
100
AcDbEntity
  8
____
  6
CONTINUOUS
 62
              30
100
AcDbVertex
100
AcDb2dVertex
 10
-968.84999999999991
 20
-1442.6499000000001
 30
0.0
  0
VERTEX
  5
354
100
AcDbEntity
  8
____
  6
CONTINUOUS
 62
              30
100
AcDbVertex
100
AcDb2dVertex
 10
-968.84999999999991
 20
-1442.6499000000001
 30
0.0
 42
0.414213562373095
 70
               2
 50
3.1191399769264294E+17
  0
VERTEX
  5
355
100
AcDbEntity
  8
____
  6
CONTINUOUS
 62
              30
100
AcDbVertex
100
AcDb2dVertex
 10
-948.84999999999991
 20
-1422.6499000000001
 30
0.0
  0
VERTEX
  5
356
100
AcDbEntity
  8
____
  6
CONTINUOUS
 62
              30
100
AcDbVertex
100
AcDb2dVertex
 10
-948.84999999999991
 20
-1380.0
 30
0.0
  0
SEQEND
  5
357
100
AcDbEntity
  8
____
  6
CONTINUOUS
 62
              30
  0
POLYLINE
  5
358
100
AcDbEntity
  8
____
  6
CONTINUOUS
 62
              30
100
AcDb2dPolyline
 66
               1
 10
0.0
 20
0.0
 30
0.0
 70
             129
  0
VERTEX
  5
359
100
AcDbEntity
  8
____
  6
CONTINUOUS
 62
              30
100
AcDbVertex
100
AcDb2dVertex
 10
-877.5
 20
-1334.0
 30
0.0
  0
VERTEX
  5
35A
100
AcDbEntity
  8
____
  6
CONTINUOUS
 62
              30
100
AcDbVertex
100
AcDb2dVertex
 10
-877.5
 20
-1330.0
 30
0.0
  0
VERTEX
  5
35B
100
AcDbEntity
  8
____
  6
CONTINUOUS
 62
              30
100
AcDbVertex
100
AcDb2dVertex
 10
-977.49999999999989
 20
-1330.0
 30
0.0
  0
VERTEX
  5
35C
100
AcDbEntity
  8
____
  6
CONTINUOUS
 62
              30
100
AcDbVertex
100
AcDb2dVertex
 10
-977.49999999999989
 20
-1334.0
 30
0.0
  0
VERTEX
  5
35D
100
AcDbEntity
  8
____
  6
CONTINUOUS
 62
              30
100
AcDbVertex
100
AcDb2dVertex
 10
-877.5
 20
-1334.0
 30
0.0
  0
SEQEND
  5
35E
100
AcDbEntity
  8
____
  6
CONTINUOUS
 62
              30
  0
LINE
  5
35F
100
AcDbEntity
  8
____
  6
CONTINUOUS
 62
               4
100
AcDbLine
 10
59.999999999999993
 20
799.99999999999989
 30
0.0
 11
-3619.9999999999995
 21
799.99999999999989
 31
0.0
  0
POLYLINE
  5
360
100
AcDbEntity
  8
____
  6
STYLE_01
 62
              30
100
AcDb2dPolyline
 66
               1
 10
0.0
 20
0.0
 30
0.0
 70
               1
 75
               5
  0
VERTEX
  5
361
100
AcDbEntity
  8
____
  6
STYLE_01
 62
              30
100
AcDbVertex
100
AcDb2dVertex
 10
-2827.4999999999995
 20
-464.99999999999994
 30
0.0
  0
VERTEX
  5
362
100
AcDbEntity
  8
____
  6
STYLE_01
 62
              30
100
AcDbVertex
100
AcDb2dVertex
 10
-2427.5
 20
-464.99999999999994
 30
0.0
  0
VERTEX
  5
363
100
AcDbEntity
  8
____
  6
STYLE_01
 62
              30
100
AcDbVertex
100
AcDb2dVertex
 10
-2427.5
 20
-1379.9999999999998
 30
0.0
  0
VERTEX
  5
364
100
AcDbEntity
  8
____
  6
STYLE_01
 62
              30
100
AcDbVertex
100
AcDb2dVertex
 10
-2827.4999999999995
 20
-1379.9999999999998
 30
0.0
  0
SEQEND
  5
365
100
AcDbEntity
  8
____
  6
STYLE_01
 62
              30
  0
LINE
  5
367
100
AcDbEntity
  8
____
  6
STYLE_05
 62
              30
100
AcDbLine
 10
-999.93301270189261
 20
1445.9999999999998
 30
0.0
 11
-999.93301270189261
 21
1447.9999999999998
 31
0.0
  0
LINE
  5
368
100
AcDbEntity
  8
____
  6
STYLE_05
 62
              30
100
AcDbLine
 10
-1005.0669872981078
 20
1447.9999999999998
 30
0.0
 11
-1005.0669872981078
 21
1445.9999999999998
 31
0.0
  0
POLYLINE
  5
369
100
AcDbEntity
  8
____
  6
STYLE_05
 62
              30
100
AcDb2dPolyline
 66
               1
 10
0.0
 20
0.0
 30
0.0
 70
               1
 75
               5
  0
VERTEX
  5
36A
100
AcDbEntity
  8
____
  6
STYLE_05
 62
              30
100
AcDbVertex
100
AcDb2dVertex
 10
-1005.4999999999999
 20
1463.9999999999998
 30
0.0
  0
VERTEX
  5
36B
100
AcDbEntity
  8
____
  6
STYLE_05
 62
              30
100
AcDbVertex
100
AcDb2dVertex
 10
-1002.4999999999997
 20
1470.9999999999998
 30
0.0
  0
VERTEX
  5
36C
100
AcDbEntity
  8
____
  6
STYLE_05
 62
              30
100
AcDbVertex
100
AcDb2dVertex
 10
-999.49999999999966
 20
1463.9999999999998
 30
0.0
  0
VERTEX
  5
36D
100
AcDbEntity
  8
____
  6
STYLE_05
 62
              30
100
AcDbVertex
100
AcDb2dVertex
 10
-999.49999999999966
 20
1445.9999999999998
 30
0.0
  0
VERTEX
  5
36E
100
AcDbEntity
  8
____
  6
STYLE_05
 62
              30
100
AcDbVertex
100
AcDb2dVertex
 10
-1005.4999999999999
 20
1445.9999999999998
 30
0.0
  0
SEQEND
  5
36F
100
AcDbEntity
  8
____
  6
STYLE_05
 62
              30
  0
SPLINE
  5
371
100
AcDbEntity
  8
____
  6
STYLE_05
 62
              30
100
AcDbSpline
210
0.0
220
0.0
230
1.0
 70
              13
 71
               2
 72
              20
 73
              17
 74
               0
 42
0.000001
 43
0.000001
 40
0.0
 40
0.0
 40
0.0
 40
1.0
 40
1.0
 40
2.0
 40
2.0
 40
3.0
 40
3.0
 40
4.0
 40
4.0
 40
5.0
 40
5.0
 40
6.0
 40
6.0
 40
7.0
 40
7.0
 40
8.0
 40
8.0
 40
8.0
 10
-995.99999999999966
 20
1445.9999999999998
 30
0.0
 41
1.0
 10
-995.99999999999966
 20
1445.905585717695
 30
0.0
 41
1.0
 10
-995.99999999999966
 20
1445.81117143539
 30
0.0
 41
1.0
 10
-995.99999999999966
 20
1443.6000000000001
 30
0.0
 41
0.7490511335493656
 10
-998.1946119966417
 20
1443.3298939081058
 30
0.0
 41
1.0
 10
-998.72230599832073
 20
1443.2649469540529
 30
0.0
 41
1.0
 10
-999.24999999999966
 20
1443.2000000000003
 30
0.0
 41
1.0
 10
-1002.4999999999997
 20
1442.8000000000002
 30
0.0
 41
1.0
 10
-1005.7499999999998
 20
1443.2000000000003
 30
0.0
 41
1.0
 10
-1006.2776940016788
 20
1443.2649469540529
 30
0.0
 41
1.0
 10
-1006.8053880033578
 20
1443.3298939081058
 30
0.0
 41
1.0
 10
-1008.9999999999999
 20
1443.6000000000001
 30
0.0
 41
0.7490511335493807
 10
-1008.9999999999999
 20
1445.81117143539
 30
0.0
 41
1.0
 10
-1008.9999999999999
 20
1445.905585717695
 30
0.0
 41
1.0
 10
-1008.9999999999999
 20
1445.9999999999998
 30
0.0
 41
1.0
 10
-1002.4999999999998
 20
1445.9999999999998
 30
0.0
 41
1.0
 10
-995.99999999999966
 20
1445.9999999999998
 30
0.0
 41
1.0
  0
POLYLINE
  5
372
100
AcDbEntity
  8
____
  6
CONTINUOUS
 62
               3
100
AcDb2dPolyline
 66
               1
 10
0.0
 20
0.0
 30
0.0
 70
               1
 75
               5
  0
VERTEX
  5
373
100
AcDbEntity
  8
____
  6
CONTINUOUS
 62
               3
100
AcDbVertex
100
AcDb2dVertex
 10
-997.99999999999989
 20
1384.9999999999998
 30
0.0
  0
VERTEX
  5
374
100
AcDbEntity
  8
____
  6
CONTINUOUS
 62
               3
100
AcDbVertex
100
AcDb2dVertex
 10
-977.61199999999997
 20
1384.9999999999998
 30
0.0
  0
VERTEX
  5
375
100
AcDbEntity
  8
____
  6
CONTINUOUS
 62
               3
100
AcDbVertex
100
AcDb2dVertex
 10
-977.61199999999997
 20
1374.9999999999998
 30
0.0
  0
VERTEX
  5
376
100
AcDbEntity
  8
____
  6
CONTINUOUS
 62
               3
100
AcDbVertex
100
AcDb2dVertex
 10
-997.99999999999989
 20
1374.9999999999998
 30
0.0
  0
SEQEND
  5
377
100
AcDbEntity
  8
____
  6
CONTINUOUS
 62
               3
  0
LINE
  5
379
100
AcDbEntity
  8
____
  6
CONTINUOUS
 62
               3
100
AcDbLine
 10
-987.80689999999993
 20
1384.9999999999998
 30
0.0
 11
-987.80689999999993
 21
1374.9999999999998
 31
0.0
  0
LINE
  5
37A
100
AcDbEntity
  8
____
  6
CONTINUOUS
 62
               3
100
AcDbLine
 10
-986.10799999999983
 20
1384.9999999999998
 30
0.0
 11
-986.10799999999983
 21
1374.9999999999998
 31
0.0
  0
LINE
  5
37B
100
AcDbEntity
  8
____
  6
CONTINUOUS
 62
               3
100
AcDbLine
 10
-984.40859999999986
 20
1384.9999999999998
 30
0.0
 11
-984.40859999999986
 21
1374.9999999999998
 31
0.0
  0
LINE
  5
37C
100
AcDbEntity
  8
____
  6
STYLE_05
 62
               3
100
AcDbLine
 10
-982.70939999999985
 20
1384.9999999999998
 30
0.0
 11
-982.70939999999985
 21
1374.9999999999998
 31
0.0
  0
LINE
  5
37D
100
AcDbEntity
  8
____
  6
STYLE_05
 62
               3
100
AcDbLine
 10
-981.0102999999998
 20
1384.9999999999998
 30
0.0
 11
-981.0102999999998
 21
1374.9999999999998
 31
0.0
  0
LINE
  5
37E
100
AcDbEntity
  8
____
  6
STYLE_05
 62
               3
100
AcDbLine
 10
-979.31109999999978
 20
1384.9999999999998
 30
0.0
 11
-979.31109999999978
 21
1374.9999999999998
 31
0.0
  0
LINE
  5
37F
100
AcDbEntity
  8
____
  6
STYLE_05
 62
               3
100
AcDbLine
 10
-977.61199999999997
 20
1384.9999999999998
 30
0.0
 11
-977.61199999999997
 21
1374.9999999999998
 31
0.0
  0
POLYLINE
  5
380
100
AcDbEntity
  8
____
  6
STYLE_05
 62
               3
100
AcDb2dPolyline
 66
               1
 10
0.0
 20
0.0
 30
0.0
 70
               1
 75
               5
  0
VERTEX
  5
381
100
AcDbEntity
  8
____
  6
STYLE_05
 62
               3
100
AcDbVertex
100
AcDb2dVertex
 10
-977.61199999999997
 20
1387.0833333333333
 30
0.0
  0
VERTEX
  5
382
100
AcDbEntity
  8
____
  6
STYLE_05
 62
               3
100
AcDbVertex
100
AcDb2dVertex
 10
-947.61199999999997
 20
1387.0833333333333
 30
0.0
  0
VERTEX
  5
383
100
AcDbEntity
  8
____
  6
STYLE_05
 62
               3
100
AcDbVertex
100
AcDb2dVertex
 10
-947.61199999999997
 20
1372.9166666666665
 30
0.0
  0
VERTEX
  5
384
100
AcDbEntity
  8
____
  6
STYLE_05
 62
               3
100
AcDbVertex
100
AcDb2dVertex
 10
-977.61199999999997
 20
1372.9166666666665
 30
0.0
  0
SEQEND
  5
385
100
AcDbEntity
  8
____
  6
STYLE_05
 62
               3
  0
POLYLINE
  5
387
100
AcDbEntity
  8
____
  6
STYLE_05
 62
               3
100
AcDb2dPolyline
 66
               1
 10
0.0
 20
0.0
 30
0.0
 70
               1
 75
               5
  0
VERTEX
  5
388
100
AcDbEntity
  8
____
  6
STYLE_05
 62
               3
100
AcDbVertex
100
AcDb2dVertex
 10
-947.61199999999997
 20
1387.0833333333333
 30
0.0
  0
VERTEX
  5
389
100
AcDbEntity
  8
____
  6
STYLE_05
 62
               3
100
AcDbVertex
100
AcDb2dVertex
 10
-947.61199999999997
 20
1379.9999999999998
 30
0.0
  0
VERTEX
  5
38A
100
AcDbEntity
  8
____
  6
STYLE_05
 62
               3
100
AcDbVertex
100
AcDb2dVertex
 10
-926.45989999999995
 20
1383.7499999999998
 30
0.0
  0
VERTEX
  5
38B
100
AcDbEntity
  8
____
  6
STYLE_05
 62
               3
100
AcDbVertex
100
AcDb2dVertex
 10
-928.41369999999995
 20
1390.2456666666667
 30
0.0
  0
SEQEND
  5
38C
100
AcDbEntity
  8
____
  6
STYLE_05
 62
               3
  0
POLYLINE
  5
38E
100
AcDbEntity
  8
____
  6
STYLE_05
 62
               3
100
AcDb2dPolyline
 66
               1
 10
0.0
 20
0.0
 30
0.0
 70
               1
 75
               5
  0
VERTEX
  5
38F
100
AcDbEntity
  8
____
  6
STYLE_05
 62
               3
100
AcDbVertex
100
AcDb2dVertex
 10
-947.61199999999997
 20
1372.9166666666665
 30
0.0
  0
VERTEX
  5
390
100
AcDbEntity
  8
____
  6
STYLE_05
 62
               3
100
AcDbVertex
100
AcDb2dVertex
 10
-947.61199999999997
 20
1379.9999999999998
 30
0.0
  0
VERTEX
  5
391
100
AcDbEntity
  8
____
  6
STYLE_05
 62
               3
100
AcDbVertex
100
AcDb2dVertex
 10
-926.45989999999995
 20
1376.2499999999998
 30
0.0
  0
VERTEX
  5
392
100
AcDbEntity
  8
____
  6
STYLE_05
 62
               3
100
AcDbVertex
100
AcDb2dVertex
 10
-928.41369999999995
 20
1369.7543333333335
 30
0.0
  0
SEQEND
  5
393
100
AcDbEntity
  8
____
  6
STYLE_05
 62
               3
  0
POLYLINE
  5
395
100
AcDbEntity
  8
____
  6
CONTINUOUS
 62
               3
100
AcDb2dPolyline
 66
               1
 10
0.0
 20
0.0
 30
0.0
 70
               1
 75
               5
  0
VERTEX
  5
396
100
AcDbEntity
  8
____
  6
CONTINUOUS
 62
               3
100
AcDbVertex
100
AcDb2dVertex
 10
-993.4634047619046
 20
1389.2376666666664
 30
0.0
  0
VERTEX
  5
397
100
AcDbEntity
  8
____
  6
CONTINUOUS
 62
               3
100
AcDbVertex
100
AcDb2dVertex
 10
-994.31399999999996
 20
1388.0000000000002
 30
0.0
  0
VERTEX
  5
398
100
AcDbEntity
  8
____
  6
CONTINUOUS
 62
               3
100
AcDbVertex
100
AcDb2dVertex
 10
-994.31399999999996
 20
1372.0
 30
0.0
  0
VERTEX
  5
399
100
AcDbEntity
  8
____
  6
CONTINUOUS
 62
               3
100
AcDbVertex
100
AcDb2dVertex
 10
-993.4634047619046
 20
1370.7623333333331
 30
0.0
  0
VERTEX
  5
39A
100
AcDbEntity
  8
____
  6
CONTINUOUS
 62
               3
100
AcDbVertex
100
AcDb2dVertex
 10
-985.1645952380951
 20
1370.7623333333331
 30
0.0
  0
VERTEX
  5
39B
100
AcDbEntity
  8
____
  6
CONTINUOUS
 62
               3
100
AcDbVertex
100
AcDb2dVertex
 10
-984.31399999999996
 20
1372.0
 30
0.0
  0
VERTEX
  5
39C
100
AcDbEntity
  8
____
  6
CONTINUOUS
 62
               3
100
AcDbVertex
100
AcDb2dVertex
 10
-984.31399999999996
 20
1388.0000000000002
 30
0.0
  0
VERTEX
  5
39D
100
AcDbEntity
  8
____
  6
CONTINUOUS
 62
               3
100
AcDbVertex
100
AcDb2dVertex
 10
-985.1645952380951
 20
1389.2376666666664
 30
0.0
  0
SEQEND
  5
39E
100
AcDbEntity
  8
____
  6
CONTINUOUS
 62
               3
  0
SPLINE
  5
3A0
100
AcDbEntity
  8
____
  6
CONTINUOUS
 62
               3
100
AcDbSpline
210
0.0
220
0.0
230
1.0
 70
               8
 71
               2
 72
              10
 73
               7
 74
               0
 42
0.000001
 43
0.000001
 40
0.0
 40
0.0
 40
0.0
 40
1.0
 40
1.0
 40
2.0
 40
2.0
 40
3.0
 40
3.0
 40
3.0
 10
-993.4634047619046
 20
1389.2376666666664
 30
0.0
 10
-995.16109484616902
 20
1386.9280836762691
 30
0.0
 10
-993.4634047619046
 20
1384.6188333333334
 30
0.0
 10
-995.16109484616902
 20
1379.9999999999995
 30
0.0
 10
-993.4634047619046
 20
1375.3811666666668
 30
0.0
 10
-995.16109484616902
 20
1373.0719163237309
 30
0.0
 10
-993.4634047619046
 20
1370.7623333333331
 30
0.0
  0
SPLINE
  5
3A1
100
AcDbEntity
  8
____
  6
CONTINUOUS
 62
               3
100
AcDbSpline
210
0.0
220
0.0
230
1.0
 70
               8
 71
               2
 72
              10
 73
               7
 74
               0
 42
0.000001
 43
0.000001
 40
0.0
 40
0.0
 40
0.0
 40
1.0
 40
1.0
 40
2.0
 40
2.0
 40
3.0
 40
3.0
 40
3.0
 10
-985.1645952380951
 20
1389.2376666666664
 30
0.0
 10
-983.46690515383114
 20
1386.9280836762691
 30
0.0
 10
-985.1645952380951
 20
1384.6188333333334
 30
0.0
 10
-983.46690515383114
 20
1379.9999999999995
 30
0.0
 10
-985.1645952380951
 20
1375.3811666666668
 30
0.0
 10
-983.46690515383114
 20
1373.0719163237309
 30
0.0
 10
-985.1645952380951
 20
1370.7623333333331
 30
0.0
  0
LINE
  5
3A2
100
AcDbEntity
  8
____
  6
CONTINUOUS
 62
               3
100
AcDbLine
 10
-993.4634047619046
 20
1384.6188333333334
 30
0.0
 11
-985.1645952380951
 21
1384.6188333333334
 31
0.0
  0
LINE
  5
3A3
100
AcDbEntity
  8
____
  6
CONTINUOUS
 62
               3
100
AcDbLine
 10
-985.1645952380951
 20
1375.3811666666668
 30
0.0
 11
-993.4634047619046
 21
1375.3811666666668
 31
0.0
  0
POLYLINE
  5
3A4
100
AcDbEntity
  8
____
  6
CONTINUOUS
 62
               3
100
AcDb2dPolyline
 66
               1
 10
0.0
 20
0.0
 30
0.0
 70
               1
 75
               5
  0
VERTEX
  5
3A5
100
AcDbEntity
  8
____
  6
CONTINUOUS
 62
               3
100
AcDbVertex
100
AcDb2dVertex
 10
-982.87999999999977
 20
1389.9999999999998
 30
0.0
  0
VERTEX
  5
3A6
100
AcDbEntity
  8
____
  6
CONTINUOUS
 62
               3
100
AcDbVertex
100
AcDb2dVertex
 10
-981.49999999999989
 20
1389.9999999999998
 30
0.0
  0
VERTEX
  5
3A7
100
AcDbEntity
  8
____
  6
CONTINUOUS
 62
               3
100
AcDbVertex
100
AcDb2dVertex
 10
-981.49999999999989
 20
1369.9999999999998
 30
0.0
  0
VERTEX
  5
3A8
100
AcDbEntity
  8
____
  6
CONTINUOUS
 62
               3
100
AcDbVertex
100
AcDb2dVertex
 10
-982.87999999999977
 20
1369.9999999999998
 30
0.0
  0
SEQEND
  5
3A9
100
AcDbEntity
  8
____
  6
CONTINUOUS
 62
               3
  0
POLYLINE
  5
3AB
100
AcDbEntity
  8
____
  6
CONTINUOUS
 62
               3
100
AcDb2dPolyline
 66
               1
 10
0.0
 20
0.0
 30
0.0
 70
               1
 75
               5
  0
VERTEX
  5
3AC
100
AcDbEntity
  8
____
  6
CONTINUOUS
 62
               3
100
AcDbVertex
100
AcDb2dVertex
 10
-984.31399999999996
 20
1388.9150000000002
 30
0.0
  0
VERTEX
  5
3AD
100
AcDbEntity
  8
____
  6
CONTINUOUS
 62
               3
100
AcDbVertex
100
AcDb2dVertex
 10
-982.87999999999977
 20
1388.9150000000002
 30
0.0
  0
VERTEX
  5
3AE
100
AcDbEntity
  8
____
  6
CONTINUOUS
 62
               3
100
AcDbVertex
100
AcDb2dVertex
 10
-982.87999999999977
 20
1371.085
 30
0.0
  0
VERTEX
  5
3AF
100
AcDbEntity
  8
____
  6
CONTINUOUS
 62
               3
100
AcDbVertex
100
AcDb2dVertex
 10
-984.31399999999996
 20
1371.085
 30
0.0
  0
SEQEND
  5
3B0
100
AcDbEntity
  8
____
  6
CONTINUOUS
 62
               3
  0
LINE
  5
3B2
100
AcDbEntity
  8
____
  6
CONTINUOUS
 62
               3
100
AcDbLine
 10
-982.87999999999977
 20
1380.6898333333331
 30
0.0
 11
-984.31399999999996
 21
1379.3101666666669
 31
0.0
  0
LINE
  5
3B3
100
AcDbEntity
  8
____
  6
CONTINUOUS
 62
               3
100
AcDbLine
 10
-984.31399999999996
 20
1378.7911666666669
 30
0.0
 11
-982.87999999999977
 21
1380.1708333333336
 31
0.0
  0
LINE
  5
3B4
100
AcDbEntity
  8
____
  6
STYLE_05
 62
              30
100
AcDbLine
 10
-926.45989999999995
 20
1383.7499999999998
 30
0.0
 11
-926.45989999999995
 21
1376.2499999999998
 31
0.0
  0
POLYLINE
  5
3B5
100
AcDbEntity
  8
____
  6
CONTINUOUS
 62
              30
100
AcDb2dPolyline
 66
               1
 10
0.0
 20
0.0
 30
0.0
 70
               1
 75
               5
  0
VERTEX
  5
3B6
100
AcDbEntity
  8
____
  6
CONTINUOUS
 62
              30
100
AcDbVertex
100
AcDb2dVertex
 10
-981.49999999999989
 20
1349.9999999999998
 30
0.0
  0
VERTEX
  5
3B7
100
AcDbEntity
  8
____
  6
CONTINUOUS
 62
              30
100
AcDbVertex
100
AcDb2dVertex
 10
-981.49999999999989
 20
1445.9999999999998
 30
0.0
  0
VERTEX
  5
3B8
100
AcDbEntity
  8
____
  6
CONTINUOUS
 62
              30
100
AcDbVertex
100
AcDb2dVertex
 10
-1027.5
 20
1445.9999999999998
 30
0.0
  0
VERTEX
  5
3B9
100
AcDbEntity
  8
____
  6
CONTINUOUS
 62
              30
100
AcDbVertex
100
AcDb2dVertex
 10
-1027.5
 20
1449.9999999999998
 30
0.0
  0
VERTEX
  5
3BA
100
AcDbEntity
  8
____
  6
CONTINUOUS
 62
              30
100
AcDbVertex
100
AcDb2dVertex
 10
-977.49999999999989
 20
1449.9999999999998
 30
0.0
  0
VERTEX
  5
3BB
100
AcDbEntity
  8
____
  6
CONTINUOUS
 62
              30
100
AcDbVertex
100
AcDb2dVertex
 10
-977.49999999999989
 20
1349.9999999999998
 30
0.0
  0
SEQEND
  5
3BC
100
AcDbEntity
  8
____
  6
CONTINUOUS
 62
              30
  0
LINE
  5
3BE
100
AcDbEntity
  8
____
  6
STYLE_05
 62
              30
100
AcDbLine
 10
-2455.0669872981075
 20
1445.9999999999998
 30
0.0
 11
-2455.0669872981075
 21
1447.9999999999998
 31
0.0
  0
LINE
  5
3BF
100
AcDbEntity
  8
____
  6
STYLE_05
 62
              30
100
AcDbLine
 10
-2449.933012701892
 20
1447.9999999999998
 30
0.0
 11
-2449.933012701892
 21
1445.9999999999998
 31
0.0
  0
POLYLINE
  5
3C0
100
AcDbEntity
  8
____
  6
STYLE_05
 62
              30
100
AcDb2dPolyline
 66
               1
 10
0.0
 20
0.0
 30
0.0
 70
               1
 75
               5
  0
VERTEX
  5
3C1
100
AcDbEntity
  8
____
  6
STYLE_05
 62
              30
100
AcDbVertex
100
AcDb2dVertex
 10
-2449.5
 20
1463.9999999999998
 30
0.0
  0
VERTEX
  5
3C2
100
AcDbEntity
  8
____
  6
STYLE_05
 62
              30
100
AcDbVertex
100
AcDb2dVertex
 10
-2452.5000000000005
 20
1470.9999999999998
 30
0.0
  0
VERTEX
  5
3C3
100
AcDbEntity
  8
____
  6
STYLE_05
 62
              30
100
AcDbVertex
100
AcDb2dVertex
 10
-2455.5000000000005
 20
1463.9999999999998
 30
0.0
  0
VERTEX
  5
3C4
100
AcDbEntity
  8
____
  6
STYLE_05
 62
              30
100
AcDbVertex
100
AcDb2dVertex
 10
-2455.5000000000005
 20
1445.9999999999998
 30
0.0
  0
VERTEX
  5
3C5
100
AcDbEntity
  8
____
  6
STYLE_05
 62
              30
100
AcDbVertex
100
AcDb2dVertex
 10
-2449.5
 20
1445.9999999999998
 30
0.0
  0
SEQEND
  5
3C6
100
AcDbEntity
  8
____
  6
STYLE_05
 62
              30
  0
SPLINE
  5
3C8
100
AcDbEntity
  8
____
  6
STYLE_05
 62
              30
100
AcDbSpline
210
0.0
220
0.0
230
1.0
 70
              13
 71
               2
 72
              20
 73
              17
 74
               0
 42
0.000001
 43
0.000001
 40
0.0
 40
0.0
 40
0.0
 40
1.0
 40
1.0
 40
2.0
 40
2.0
 40
3.0
 40
3.0
 40
4.0
 40
4.0
 40
5.0
 40
5.0
 40
6.0
 40
6.0
 40
7.0
 40
7.0
 40
8.0
 40
8.0
 40
8.0
 10
-2459.0000000000005
 20
1445.9999999999998
 30
0.0
 41
1.0
 10
-2459.0000000000005
 20
1445.905585717695
 30
0.0
 41
1.0
 10
-2459.0000000000005
 20
1445.81117143539
 30
0.0
 41
1.0
 10
-2459.0000000000005
 20
1443.6000000000004
 30
0.0
 41
0.7490511335493808
 10
-2456.8053880033585
 20
1443.3298939081058
 30
0.0
 41
1.0
 10
-2456.2776940016793
 20
1443.2649469540529
 30
0.0
 41
1.0
 10
-2455.7500000000005
 20
1443.2000000000003
 30
0.0
 41
1.0
 10
-2452.5000000000005
 20
1442.8000000000002
 30
0.0
 41
1.0
 10
-2449.25
 20
1443.2000000000003
 30
0.0
 41
1.0
 10
-2448.7223059983207
 20
1443.2649469540529
 30
0.0
 41
1.0
 10
-2448.1946119966419
 20
1443.3298939081058
 30
0.0
 41
1.0
 10
-2446.0
 20
1443.6000000000001
 30
0.0
 41
0.7490511335494074
 10
-2446.0
 20
1445.81117143539
 30
0.0
 41
1.0
 10
-2446.0
 20
1445.905585717695
 30
0.0
 41
1.0
 10
-2446.0
 20
1445.9999999999998
 30
0.0
 41
1.0
 10
-2452.5
 20
1445.9999999999998
 30
0.0
 41
1.0
 10
-2459.0000000000005
 20
1445.9999999999998
 30
0.0
 41
1.0
  0
POLYLINE
  5
3C9
100
AcDbEntity
  8
____
  6
CONTINUOUS
 62
               3
100
AcDb2dPolyline
 66
               1
 10
0.0
 20
0.0
 30
0.0
 70
               1
 75
               5
  0
VERTEX
  5
3CA
100
AcDbEntity
  8
____
  6
CONTINUOUS
 62
               3
100
AcDbVertex
100
AcDb2dVertex
 10
-2477.3879999999999
 20
1384.9999999999998
 30
0.0
  0
VERTEX
  5
3CB
100
AcDbEntity
  8
____
  6
CONTINUOUS
 62
               3
100
AcDbVertex
100
AcDb2dVertex
 10
-2457.0
 20
1384.9999999999998
 30
0.0
  0
VERTEX
  5
3CC
100
AcDbEntity
  8
____
  6
CONTINUOUS
 62
               3
100
AcDbVertex
100
AcDb2dVertex
 10
-2457.0
 20
1374.9999999999998
 30
0.0
  0
VERTEX
  5
3CD
100
AcDbEntity
  8
____
  6
CONTINUOUS
 62
               3
100
AcDbVertex
100
AcDb2dVertex
 10
-2477.3879999999999
 20
1374.9999999999998
 30
0.0
  0
SEQEND
  5
3CE
100
AcDbEntity
  8
____
  6
CONTINUOUS
 62
               3
  0
LINE
  5
3D0
100
AcDbEntity
  8
____
  6
CONTINUOUS
 62
               3
100
AcDbLine
 10
-2467.1931
 20
1384.9999999999998
 30
0.0
 11
-2467.1931
 21
1374.9999999999998
 31
0.0
  0
LINE
  5
3D1
100
AcDbEntity
  8
____
  6
CONTINUOUS
 62
               3
100
AcDbLine
 10
-2468.8920000000003
 20
1384.9999999999998
 30
0.0
 11
-2468.8920000000003
 21
1374.9999999999998
 31
0.0
  0
LINE
  5
3D2
100
AcDbEntity
  8
____
  6
CONTINUOUS
 62
               3
100
AcDbLine
 10
-2470.5914000000002
 20
1384.9999999999998
 30
0.0
 11
-2470.5914000000002
 21
1374.9999999999998
 31
0.0
  0
LINE
  5
3D3
100
AcDbEntity
  8
____
  6
STYLE_05
 62
               3
100
AcDbLine
 10
-2472.2906000000003
 20
1384.9999999999998
 30
0.0
 11
-2472.2906000000003
 21
1374.9999999999998
 31
0.0
  0
LINE
  5
3D4
100
AcDbEntity
  8
____
  6
STYLE_05
 62
               3
100
AcDbLine
 10
-2473.9897000000001
 20
1384.9999999999998
 30
0.0
 11
-2473.9897000000001
 21
1374.9999999999998
 31
0.0
  0
LINE
  5
3D5
100
AcDbEntity
  8
____
  6
STYLE_05
 62
               3
100
AcDbLine
 10
-2475.6889000000001
 20
1384.9999999999998
 30
0.0
 11
-2475.6889000000001
 21
1374.9999999999998
 31
0.0
  0
LINE
  5
3D6
100
AcDbEntity
  8
____
  6
STYLE_05
 62
               3
100
AcDbLine
 10
-2477.3879999999999
 20
1384.9999999999998
 30
0.0
 11
-2477.3879999999999
 21
1374.9999999999998
 31
0.0
  0
POLYLINE
  5
3D7
100
AcDbEntity
  8
____
  6
STYLE_05
 62
               3
100
AcDb2dPolyline
 66
               1
 10
0.0
 20
0.0
 30
0.0
 70
               1
 75
               5
  0
VERTEX
  5
3D8
100
AcDbEntity
  8
____
  6
STYLE_05
 62
               3
100
AcDbVertex
100
AcDb2dVertex
 10
-2507.3879999999999
 20
1387.0833333333333
 30
0.0
  0
VERTEX
  5
3D9
100
AcDbEntity
  8
____
  6
STYLE_05
 62
               3
100
AcDbVertex
100
AcDb2dVertex
 10
-2477.3879999999999
 20
1387.0833333333333
 30
0.0
  0
VERTEX
  5
3DA
100
AcDbEntity
  8
____
  6
STYLE_05
 62
               3
100
AcDbVertex
100
AcDb2dVertex
 10
-2477.3879999999999
 20
1372.9166666666665
 30
0.0
  0
VERTEX
  5
3DB
100
AcDbEntity
  8
____
  6
STYLE_05
 62
               3
100
AcDbVertex
100
AcDb2dVertex
 10
-2507.3879999999999
 20
1372.9166666666665
 30
0.0
  0
SEQEND
  5
3DC
100
AcDbEntity
  8
____
  6
STYLE_05
 62
               3
  0
POLYLINE
  5
3DE
100
AcDbEntity
  8
____
  6
STYLE_05
 62
               3
100
AcDb2dPolyline
 66
               1
 10
0.0
 20
0.0
 30
0.0
 70
               1
 75
               5
  0
VERTEX
  5
3DF
100
AcDbEntity
  8
____
  6
STYLE_05
 62
               3
100
AcDbVertex
100
AcDb2dVertex
 10
-2507.3879999999999
 20
1387.0833333333333
 30
0.0
  0
VERTEX
  5
3E0
100
AcDbEntity
  8
____
  6
STYLE_05
 62
               3
100
AcDbVertex
100
AcDb2dVertex
 10
-2507.3879999999999
 20
1379.9999999999998
 30
0.0
  0
VERTEX
  5
3E1
100
AcDbEntity
  8
____
  6
STYLE_05
 62
               3
100
AcDbVertex
100
AcDb2dVertex
 10
-2528.5401000000002
 20
1383.7499999999998
 30
0.0
  0
VERTEX
  5
3E2
100
AcDbEntity
  8
____
  6
STYLE_05
 62
               3
100
AcDbVertex
100
AcDb2dVertex
 10
-2526.5862999999999
 20
1390.2456666666667
 30
0.0
  0
SEQEND
  5
3E3
100
AcDbEntity
  8
____
  6
STYLE_05
 62
               3
  0
POLYLINE
  5
3E5
100
AcDbEntity
  8
____
  6
STYLE_05
 62
               3
100
AcDb2dPolyline
 66
               1
 10
0.0
 20
0.0
 30
0.0
 70
               1
 75
               5
  0
VERTEX
  5
3E6
100
AcDbEntity
  8
____
  6
STYLE_05
 62
               3
100
AcDbVertex
100
AcDb2dVertex
 10
-2507.3879999999999
 20
1372.9166666666665
 30
0.0
  0
VERTEX
  5
3E7
100
AcDbEntity
  8
____
  6
STYLE_05
 62
               3
100
AcDbVertex
100
AcDb2dVertex
 10
-2507.3879999999999
 20
1379.9999999999998
 30
0.0
  0
VERTEX
  5
3E8
100
AcDbEntity
  8
____
  6
STYLE_05
 62
               3
100
AcDbVertex
100
AcDb2dVertex
 10
-2528.5401000000002
 20
1376.2499999999998
 30
0.0
  0
VERTEX
  5
3E9
100
AcDbEntity
  8
____
  6
STYLE_05
 62
               3
100
AcDbVertex
100
AcDb2dVertex
 10
-2526.5862999999999
 20
1369.7543333333335
 30
0.0
  0
SEQEND
  5
3EA
100
AcDbEntity
  8
____
  6
STYLE_05
 62
               3
  0
POLYLINE
  5
3EC
100
AcDbEntity
  8
____
  6
CONTINUOUS
 62
               3
100
AcDb2dPolyline
 66
               1
 10
0.0
 20
0.0
 30
0.0
 70
               1
 75
               5
  0
VERTEX
  5
3ED
100
AcDbEntity
  8
____
  6
CONTINUOUS
 62
               3
100
AcDbVertex
100
AcDb2dVertex
 10
-2461.5365952380953
 20
1389.2376666666664
 30
0.0
  0
VERTEX
  5
3EE
100
AcDbEntity
  8
____
  6
CONTINUOUS
 62
               3
100
AcDbVertex
100
AcDb2dVertex
 10
-2460.6860000000001
 20
1388.0000000000002
 30
0.0
  0
VERTEX
  5
3EF
100
AcDbEntity
  8
____
  6
CONTINUOUS
 62
               3
100
AcDbVertex
100
AcDb2dVertex
 10
-2460.6860000000001
 20
1372.0
 30
0.0
  0
VERTEX
  5
3F0
100
AcDbEntity
  8
____
  6
CONTINUOUS
 62
               3
100
AcDbVertex
100
AcDb2dVertex
 10
-2461.5365952380953
 20
1370.7623333333331
 30
0.0
  0
VERTEX
  5
3F1
100
AcDbEntity
  8
____
  6
CONTINUOUS
 62
               3
100
AcDbVertex
100
AcDb2dVertex
 10
-2469.835404761905
 20
1370.7623333333331
 30
0.0
  0
VERTEX
  5
3F2
100
AcDbEntity
  8
____
  6
CONTINUOUS
 62
               3
100
AcDbVertex
100
AcDb2dVertex
 10
-2470.6860000000001
 20
1372.0
 30
0.0
  0
VERTEX
  5
3F3
100
AcDbEntity
  8
____
  6
CONTINUOUS
 62
               3
100
AcDbVertex
100
AcDb2dVertex
 10
-2470.6860000000001
 20
1388.0000000000002
 30
0.0
  0
VERTEX
  5
3F4
100
AcDbEntity
  8
____
  6
CONTINUOUS
 62
               3
100
AcDbVertex
100
AcDb2dVertex
 10
-2469.835404761905
 20
1389.2376666666664
 30
0.0
  0
SEQEND
  5
3F5
100
AcDbEntity
  8
____
  6
CONTINUOUS
 62
               3
  0
SPLINE
  5
3F7
100
AcDbEntity
  8
____
  6
CONTINUOUS
 62
               3
100
AcDbSpline
210
0.0
220
0.0
230
1.0
 70
               8
 71
               2
 72
              10
 73
               7
 74
               0
 42
0.000001
 43
0.000001
 40
0.0
 40
0.0
 40
0.0
 40
1.0
 40
1.0
 40
2.0
 40
2.0
 40
3.0
 40
3.0
 40
3.0
 10
-2461.5365952380953
 20
1389.2376666666664
 30
0.0
 10
-2459.8389051538315
 20
1386.9280836762691
 30
0.0
 10
-2461.5365952380953
 20
1384.6188333333334
 30
0.0
 10
-2459.8389051538315
 20
1379.9999999999995
 30
0.0
 10
-2461.5365952380953
 20
1375.3811666666668
 30
0.0
 10
-2459.8389051538315
 20
1373.0719163237309
 30
0.0
 10
-2461.5365952380953
 20
1370.7623333333331
 30
0.0
  0
SPLINE
  5
3F8
100
AcDbEntity
  8
____
  6
CONTINUOUS
 62
               3
100
AcDbSpline
210
0.0
220
0.0
230
1.0
 70
               8
 71
               2
 72
              10
 73
               7
 74
               0
 42
0.000001
 43
0.000001
 40
0.0
 40
0.0
 40
0.0
 40
1.0
 40
1.0
 40
2.0
 40
2.0
 40
3.0
 40
3.0
 40
3.0
 10
-2469.835404761905
 20
1389.2376666666664
 30
0.0
 10
-2471.5330948461688
 20
1386.9280836762691
 30
0.0
 10
-2469.835404761905
 20
1384.6188333333334
 30
0.0
 10
-2471.5330948461688
 20
1379.9999999999995
 30
0.0
 10
-2469.835404761905
 20
1375.3811666666668
 30
0.0
 10
-2471.5330948461688
 20
1373.0719163237309
 30
0.0
 10
-2469.835404761905
 20
1370.7623333333331
 30
0.0
  0
LINE
  5
3F9
100
AcDbEntity
  8
____
  6
CONTINUOUS
 62
               3
100
AcDbLine
 10
-2461.5365952380953
 20
1384.6188333333334
 30
0.0
 11
-2469.835404761905
 21
1384.6188333333334
 31
0.0
  0
LINE
  5
3FA
100
AcDbEntity
  8
____
  6
CONTINUOUS
 62
               3
100
AcDbLine
 10
-2469.835404761905
 20
1375.3811666666668
 30
0.0
 11
-2461.5365952380953
 21
1375.3811666666668
 31
0.0
  0
POLYLINE
  5
3FB
100
AcDbEntity
  8
____
  6
CONTINUOUS
 62
               3
100
AcDb2dPolyline
 66
               1
 10
0.0
 20
0.0
 30
0.0
 70
               1
 75
               5
  0
VERTEX
  5
3FC
100
AcDbEntity
  8
____
  6
CONTINUOUS
 62
               3
100
AcDbVertex
100
AcDb2dVertex
 10
-2473.5000000000005
 20
1389.9999999999998
 30
0.0
  0
VERTEX
  5
3FD
100
AcDbEntity
  8
____
  6
CONTINUOUS
 62
               3
100
AcDbVertex
100
AcDb2dVertex
 10
-2472.1200000000008
 20
1389.9999999999998
 30
0.0
  0
VERTEX
  5
3FE
100
AcDbEntity
  8
____
  6
CONTINUOUS
 62
               3
100
AcDbVertex
100
AcDb2dVertex
 10
-2472.1200000000008
 20
1369.9999999999998
 30
0.0
  0
VERTEX
  5
3FF
100
AcDbEntity
  8
____
  6
CONTINUOUS
 62
               3
100
AcDbVertex
100
AcDb2dVertex
 10
-2473.5000000000005
 20
1369.9999999999998
 30
0.0
  0
SEQEND
  5
400
100
AcDbEntity
  8
____
  6
CONTINUOUS
 62
               3
  0
POLYLINE
  5
402
100
AcDbEntity
  8
____
  6
CONTINUOUS
 62
               3
100
AcDb2dPolyline
 66
               1
 10
0.0
 20
0.0
 30
0.0
 70
               1
 75
               5
  0
VERTEX
  5
403
100
AcDbEntity
  8
____
  6
CONTINUOUS
 62
               3
100
AcDbVertex
100
AcDb2dVertex
 10
-2472.1200000000003
 20
1388.9150000000002
 30
0.0
  0
VERTEX
  5
404
100
AcDbEntity
  8
____
  6
CONTINUOUS
 62
               3
100
AcDbVertex
100
AcDb2dVertex
 10
-2470.6860000000001
 20
1388.9150000000002
 30
0.0
  0
VERTEX
  5
405
100
AcDbEntity
  8
____
  6
CONTINUOUS
 62
               3
100
AcDbVertex
100
AcDb2dVertex
 10
-2470.6860000000001
 20
1371.085
 30
0.0
  0
VERTEX
  5
406
100
AcDbEntity
  8
____
  6
CONTINUOUS
 62
               3
100
AcDbVertex
100
AcDb2dVertex
 10
-2472.1200000000003
 20
1371.085
 30
0.0
  0
SEQEND
  5
407
100
AcDbEntity
  8
____
  6
CONTINUOUS
 62
               3
  0
LINE
  5
409
100
AcDbEntity
  8
____
  6
CONTINUOUS
 62
               3
100
AcDbLine
 10
-2472.1200000000003
 20
1380.6898333333331
 30
0.0
 11
-2470.6860000000001
 21
1379.3101666666669
 31
0.0
  0
LINE
  5
40A
100
AcDbEntity
  8
____
  6
CONTINUOUS
 62
               3
100
AcDbLine
 10
-2470.6860000000001
 20
1378.7911666666669
 30
0.0
 11
-2472.1200000000003
 21
1380.1708333333336
 31
0.0
  0
LINE
  5
40B
100
AcDbEntity
  8
____
  6
STYLE_05
 62
              30
100
AcDbLine
 10
-2528.5401000000002
 20
1383.7499999999998
 30
0.0
 11
-2528.5401000000002
 21
1376.2499999999998
 31
0.0
  0
POLYLINE
  5
40C
100
AcDbEntity
  8
____
  6
CONTINUOUS
 62
              30
100
AcDb2dPolyline
 66
               1
 10
0.0
 20
0.0
 30
0.0
 70
               1
 75
               5
  0
VERTEX
  5
40D
100
AcDbEntity
  8
____
  6
CONTINUOUS
 62
              30
100
AcDbVertex
100
AcDb2dVertex
 10
-2473.5
 20
1349.9999999999998
 30
0.0
  0
VERTEX
  5
40E
100
AcDbEntity
  8
____
  6
CONTINUOUS
 62
              30
100
AcDbVertex
100
AcDb2dVertex
 10
-2473.5
 20
1445.9999999999998
 30
0.0
  0
VERTEX
  5
40F
100
AcDbEntity
  8
____
  6
CONTINUOUS
 62
              30
100
AcDbVertex
100
AcDb2dVertex
 10
-2427.5
 20
1445.9999999999998
 30
0.0
  0
VERTEX
  5
410
100
AcDbEntity
  8
____
  6
CONTINUOUS
 62
              30
100
AcDbVertex
100
AcDb2dVertex
 10
-2427.5
 20
1449.9999999999998
 30
0.0
  0
VERTEX
  5
411
100
AcDbEntity
  8
____
  6
CONTINUOUS
 62
              30
100
AcDbVertex
100
AcDb2dVertex
 10
-2477.5
 20
1449.9999999999998
 30
0.0
  0
VERTEX
  5
412
100
AcDbEntity
  8
____
  6
CONTINUOUS
 62
              30
100
AcDbVertex
100
AcDb2dVertex
 10
-2477.5
 20
1349.9999999999998
 30
0.0
  0
SEQEND
  5
413
100
AcDbEntity
  8
____
  6
CONTINUOUS
 62
              30
  0
LINE
  5
415
100
AcDbEntity
  8
____
  6
CONTINUOUS
 62
              30
100
AcDbLine
 10
-2770.4999999999995
 20
1549.9999999999998
 30
0.0
 11
-2770.4999999999995
 21
649.99999999999989
 31
0.0
  0
POLYLINE
  5
416
100
AcDbEntity
  8
____
  6
CONTINUOUS
 62
               3
100
AcDb2dPolyline
 66
               1
 10
0.0
 20
0.0
 30
0.0
 70
               1
 75
               5
  0
VERTEX
  5
417
100
AcDbEntity
  8
____
  6
CONTINUOUS
 62
               3
100
AcDbVertex
100
AcDb2dVertex
 10
-2477.3879999999999
 20
-710.0
 30
0.0
  0
VERTEX
  5
418
100
AcDbEntity
  8
____
  6
CONTINUOUS
 62
               3
100
AcDbVertex
100
AcDb2dVertex
 10
-2457.0
 20
-710.0
 30
0.0
  0
VERTEX
  5
419
100
AcDbEntity
  8
____
  6
CONTINUOUS
 62
               3
100
AcDbVertex
100
AcDb2dVertex
 10
-2457.0
 20
-720.0
 30
0.0
  0
VERTEX
  5
41A
100
AcDbEntity
  8
____
  6
CONTINUOUS
 62
               3
100
AcDbVertex
100
AcDb2dVertex
 10
-2477.3879999999999
 20
-720.0
 30
0.0
  0
SEQEND
  5
41B
100
AcDbEntity
  8
____
  6
CONTINUOUS
 62
               3
  0
LINE
  5
41D
100
AcDbEntity
  8
____
  6
CONTINUOUS
 62
               3
100
AcDbLine
 10
-2467.1931000000004
 20
-720.0
 30
0.0
 11
-2467.1931000000004
 21
-710.0
 31
0.0
  0
LINE
  5
41E
100
AcDbEntity
  8
____
  6
CONTINUOUS
 62
               3
100
AcDbLine
 10
-2468.8920000000007
 20
-720.0
 30
0.0
 11
-2468.8920000000007
 21
-710.0
 31
0.0
  0
LINE
  5
41F
100
AcDbEntity
  8
____
  6
CONTINUOUS
 62
               3
100
AcDbLine
 10
-2470.5914000000002
 20
-720.0
 30
0.0
 11
-2470.5914000000002
 21
-710.0
 31
0.0
  0
LINE
  5
420
100
AcDbEntity
  8
____
  6
STYLE_05
 62
               3
100
AcDbLine
 10
-2472.2906000000003
 20
-720.0
 30
0.0
 11
-2472.2906000000003
 21
-710.0
 31
0.0
  0
LINE
  5
421
100
AcDbEntity
  8
____
  6
STYLE_05
 62
               3
100
AcDbLine
 10
-2473.9897000000001
 20
-720.0
 30
0.0
 11
-2473.9897000000001
 21
-710.0
 31
0.0
  0
LINE
  5
422
100
AcDbEntity
  8
____
  6
STYLE_05
 62
               3
100
AcDbLine
 10
-2475.6889000000001
 20
-720.0
 30
0.0
 11
-2475.6889000000001
 21
-710.0
 31
0.0
  0
LINE
  5
423
100
AcDbEntity
  8
____
  6
STYLE_05
 62
               3
100
AcDbLine
 10
-2477.3879999999999
 20
-720.0
 30
0.0
 11
-2477.3879999999999
 21
-710.0
 31
0.0
  0
POLYLINE
  5
424
100
AcDbEntity
  8
____
  6
STYLE_05
 62
               3
100
AcDb2dPolyline
 66
               1
 10
0.0
 20
0.0
 30
0.0
 70
               1
 75
               5
  0
VERTEX
  5
425
100
AcDbEntity
  8
____
  6
STYLE_05
 62
               3
100
AcDbVertex
100
AcDb2dVertex
 10
-2507.3879999999999
 20
-707.91666666666697
 30
0.0
  0
VERTEX
  5
426
100
AcDbEntity
  8
____
  6
STYLE_05
 62
               3
100
AcDbVertex
100
AcDb2dVertex
 10
-2477.3879999999999
 20
-707.91666666666697
 30
0.0
  0
VERTEX
  5
427
100
AcDbEntity
  8
____
  6
STYLE_05
 62
               3
100
AcDbVertex
100
AcDb2dVertex
 10
-2477.3879999999999
 20
-722.08333333333348
 30
0.0
  0
VERTEX
  5
428
100
AcDbEntity
  8
____
  6
STYLE_05
 62
               3
100
AcDbVertex
100
AcDb2dVertex
 10
-2507.3879999999999
 20
-722.08333333333348
 30
0.0
  0
SEQEND
  5
429
100
AcDbEntity
  8
____
  6
STYLE_05
 62
               3
  0
POLYLINE
  5
42B
100
AcDbEntity
  8
____
  6
STYLE_05
 62
               3
100
AcDb2dPolyline
 66
               1
 10
0.0
 20
0.0
 30
0.0
 70
               1
 75
               5
  0
VERTEX
  5
42C
100
AcDbEntity
  8
____
  6
STYLE_05
 62
               3
100
AcDbVertex
100
AcDb2dVertex
 10
-2507.3879999999999
 20
-722.08333333333348
 30
0.0
  0
VERTEX
  5
42D
100
AcDbEntity
  8
____
  6
STYLE_05
 62
               3
100
AcDbVertex
100
AcDb2dVertex
 10
-2507.3879999999999
 20
-715.0
 30
0.0
  0
VERTEX
  5
42E
100
AcDbEntity
  8
____
  6
STYLE_05
 62
               3
100
AcDbVertex
100
AcDb2dVertex
 10
-2528.5401000000002
 20
-718.75
 30
0.0
  0
VERTEX
  5
42F
100
AcDbEntity
  8
____
  6
STYLE_05
 62
               3
100
AcDbVertex
100
AcDb2dVertex
 10
-2526.5862999999999
 20
-725.24566666666715
 30
0.0
  0
SEQEND
  5
430
100
AcDbEntity
  8
____
  6
STYLE_05
 62
               3
  0
POLYLINE
  5
432
100
AcDbEntity
  8
____
  6
STYLE_05
 62
               3
100
AcDb2dPolyline
 66
               1
 10
0.0
 20
0.0
 30
0.0
 70
               1
 75
               5
  0
VERTEX
  5
433
100
AcDbEntity
  8
____
  6
STYLE_05
 62
               3
100
AcDbVertex
100
AcDb2dVertex
 10
-2507.3879999999999
 20
-707.91666666666697
 30
0.0
  0
VERTEX
  5
434
100
AcDbEntity
  8
____
  6
STYLE_05
 62
               3
100
AcDbVertex
100
AcDb2dVertex
 10
-2507.3879999999999
 20
-715.0
 30
0.0
  0
VERTEX
  5
435
100
AcDbEntity
  8
____
  6
STYLE_05
 62
               3
100
AcDbVertex
100
AcDb2dVertex
 10
-2528.5401000000002
 20
-711.25
 30
0.0
  0
VERTEX
  5
436
100
AcDbEntity
  8
____
  6
STYLE_05
 62
               3
100
AcDbVertex
100
AcDb2dVertex
 10
-2526.5862999999999
 20
-704.75433333333376
 30
0.0
  0
SEQEND
  5
437
100
AcDbEntity
  8
____
  6
STYLE_05
 62
               3
  0
POLYLINE
  5
439
100
AcDbEntity
  8
____
  6
CONTINUOUS
 62
               3
100
AcDb2dPolyline
 66
               1
 10
0.0
 20
0.0
 30
0.0
 70
               1
 75
               5
  0
VERTEX
  5
43A
100
AcDbEntity
  8
____
  6
CONTINUOUS
 62
               3
100
AcDbVertex
100
AcDb2dVertex
 10
-2461.5365952380953
 20
-724.23766666666688
 30
0.0
  0
VERTEX
  5
43B
100
AcDbEntity
  8
____
  6
CONTINUOUS
 62
               3
100
AcDbVertex
100
AcDb2dVertex
 10
-2460.6860000000006
 20
-723.00000000000045
 30
0.0
  0
VERTEX
  5
43C
100
AcDbEntity
  8
____
  6
CONTINUOUS
 62
               3
100
AcDbVertex
100
AcDb2dVertex
 10
-2460.6860000000006
 20
-707.00000000000045
 30
0.0
  0
VERTEX
  5
43D
100
AcDbEntity
  8
____
  6
CONTINUOUS
 62
               3
100
AcDbVertex
100
AcDb2dVertex
 10
-2461.5365952380953
 20
-705.76233333333357
 30
0.0
  0
VERTEX
  5
43E
100
AcDbEntity
  8
____
  6
CONTINUOUS
 62
               3
100
AcDbVertex
100
AcDb2dVertex
 10
-2469.835404761905
 20
-705.76233333333357
 30
0.0
  0
VERTEX
  5
43F
100
AcDbEntity
  8
____
  6
CONTINUOUS
 62
               3
100
AcDbVertex
100
AcDb2dVertex
 10
-2470.6860000000006
 20
-707.00000000000045
 30
0.0
  0
VERTEX
  5
440
100
AcDbEntity
  8
____
  6
CONTINUOUS
 62
               3
100
AcDbVertex
100
AcDb2dVertex
 10
-2470.6860000000006
 20
-723.00000000000045
 30
0.0
  0
VERTEX
  5
441
100
AcDbEntity
  8
____
  6
CONTINUOUS
 62
               3
100
AcDbVertex
100
AcDb2dVertex
 10
-2469.835404761905
 20
-724.23766666666688
 30
0.0
  0
SEQEND
  5
442
100
AcDbEntity
  8
____
  6
CONTINUOUS
 62
               3
  0
SPLINE
  5
444
100
AcDbEntity
  8
____
  6
CONTINUOUS
 62
               3
100
AcDbSpline
210
0.0
220
0.0
230
1.0
 70
               8
 71
               2
 72
              10
 73
               7
 74
               0
 42
0.000001
 43
0.000001
 40
0.0
 40
0.0
 40
0.0
 40
1.0
 40
1.0
 40
2.0
 40
2.0
 40
3.0
 40
3.0
 40
3.0
 10
-2461.5365952380953
 20
-724.23766666666688
 30
0.0
 10
-2459.8389051538325
 20
-721.92808367626924
 30
0.0
 10
-2461.5365952380953
 20
-719.6188333333339
 30
0.0
 10
-2459.8389051538325
 20
-714.99999999999955
 30
0.0
 10
-2461.5365952380953
 20
-710.38116666666701
 30
0.0
 10
-2459.8389051538325
 20
-708.07191632373099
 30
0.0
 10
-2461.5365952380953
 20
-705.76233333333357
 30
0.0
  0
SPLINE
  5
445
100
AcDbEntity
  8
____
  6
CONTINUOUS
 62
               3
100
AcDbSpline
210
0.0
220
0.0
230
1.0
 70
               8
 71
               2
 72
              10
 73
               7
 74
               0
 42
0.000001
 43
0.000001
 40
0.0
 40
0.0
 40
0.0
 40
1.0
 40
1.0
 40
2.0
 40
2.0
 40
3.0
 40
3.0
 40
3.0
 10
-2469.835404761905
 20
-724.23766666666688
 30
0.0
 10
-2471.5330948461697
 20
-721.92808367626924
 30
0.0
 10
-2469.835404761905
 20
-719.6188333333339
 30
0.0
 10
-2471.5330948461697
 20
-714.99999999999955
 30
0.0
 10
-2469.835404761905
 20
-710.38116666666701
 30
0.0
 10
-2471.5330948461697
 20
-708.07191632373099
 30
0.0
 10
-2469.835404761905
 20
-705.76233333333357
 30
0.0
  0
LINE
  5
446
100
AcDbEntity
  8
____
  6
CONTINUOUS
 62
               3
100
AcDbLine
 10
-2461.5365952380953
 20
-719.6188333333339
 30
0.0
 11
-2469.835404761905
 21
-719.6188333333339
 31
0.0
  0
LINE
  5
447
100
AcDbEntity
  8
____
  6
CONTINUOUS
 62
               3
100
AcDbLine
 10
-2469.835404761905
 20
-710.38116666666701
 30
0.0
 11
-2461.5365952380953
 21
-710.38116666666701
 31
0.0
  0
POLYLINE
  5
448
100
AcDbEntity
  8
____
  6
CONTINUOUS
 62
               3
100
AcDb2dPolyline
 66
               1
 10
0.0
 20
0.0
 30
0.0
 70
               1
 75
               5
  0
VERTEX
  5
449
100
AcDbEntity
  8
____
  6
CONTINUOUS
 62
               3
100
AcDbVertex
100
AcDb2dVertex
 10
-2473.5
 20
-705.0
 30
0.0
  0
VERTEX
  5
44A
100
AcDbEntity
  8
____
  6
CONTINUOUS
 62
               3
100
AcDbVertex
100
AcDb2dVertex
 10
-2472.1200000000008
 20
-705.0
 30
0.0
  0
VERTEX
  5
44B
100
AcDbEntity
  8
____
  6
CONTINUOUS
 62
               3
100
AcDbVertex
100
AcDb2dVertex
 10
-2472.1200000000008
 20
-725.0
 30
0.0
  0
VERTEX
  5
44C
100
AcDbEntity
  8
____
  6
CONTINUOUS
 62
               3
100
AcDbVertex
100
AcDb2dVertex
 10
-2473.5
 20
-725.0
 30
0.0
  0
SEQEND
  5
44D
100
AcDbEntity
  8
____
  6
CONTINUOUS
 62
               3
  0
POLYLINE
  5
44F
100
AcDbEntity
  8
____
  6
CONTINUOUS
 62
               3
100
AcDb2dPolyline
 66
               1
 10
0.0
 20
0.0
 30
0.0
 70
               1
 75
               5
  0
VERTEX
  5
450
100
AcDbEntity
  8
____
  6
CONTINUOUS
 62
               3
100
AcDbVertex
100
AcDb2dVertex
 10
-2472.1200000000008
 20
-706.08500000000049
 30
0.0
  0
VERTEX
  5
451
100
AcDbEntity
  8
____
  6
CONTINUOUS
 62
               3
100
AcDbVertex
100
AcDb2dVertex
 10
-2470.6860000000006
 20
-706.08500000000049
 30
0.0
  0
VERTEX
  5
452
100
AcDbEntity
  8
____
  6
CONTINUOUS
 62
               3
100
AcDbVertex
100
AcDb2dVertex
 10
-2470.6860000000006
 20
-723.91500000000042
 30
0.0
  0
VERTEX
  5
453
100
AcDbEntity
  8
____
  6
CONTINUOUS
 62
               3
100
AcDbVertex
100
AcDb2dVertex
 10
-2472.1200000000008
 20
-723.91500000000042
 30
0.0
  0
SEQEND
  5
454
100
AcDbEntity
  8
____
  6
CONTINUOUS
 62
               3
  0
LINE
  5
456
100
AcDbEntity
  8
____
  6
CONTINUOUS
 62
               3
100
AcDbLine
 10
-2472.1200000000008
 20
-715.68983333333335
 30
0.0
 11
-2470.6860000000006
 21
-714.3101666666671
 31
0.0
  0
LINE
  5
457
100
AcDbEntity
  8
____
  6
CONTINUOUS
 62
               3
100
AcDbLine
 10
-2470.6860000000006
 20
-713.79116666666732
 30
0.0
 11
-2472.1200000000008
 21
-715.17083333333403
 31
0.0
  0
LINE
  5
458
100
AcDbEntity
  8
____
  6
STYLE_05
 62
              30
100
AcDbLine
 10
-2528.5401000000002
 20
-718.75
 30
0.0
 11
-2528.5401000000002
 21
-711.25
 31
0.0
  0
POLYLINE
  5
459
100
AcDbEntity
  8
____
  6
CONTINUOUS
 62
               3
100
AcDb2dPolyline
 66
               1
 10
0.0
 20
0.0
 30
0.0
 70
               1
 75
               5
  0
VERTEX
  5
45A
100
AcDbEntity
  8
____
  6
CONTINUOUS
 62
               3
100
AcDbVertex
100
AcDb2dVertex
 10
-2477.3879999999999
 20
-1124.9999999999998
 30
0.0
  0
VERTEX
  5
45B
100
AcDbEntity
  8
____
  6
CONTINUOUS
 62
               3
100
AcDbVertex
100
AcDb2dVertex
 10
-2457.0
 20
-1124.9999999999998
 30
0.0
  0
VERTEX
  5
45C
100
AcDbEntity
  8
____
  6
CONTINUOUS
 62
               3
100
AcDbVertex
100
AcDb2dVertex
 10
-2457.0
 20
-1134.9999999999998
 30
0.0
  0
VERTEX
  5
45D
100
AcDbEntity
  8
____
  6
CONTINUOUS
 62
               3
100
AcDbVertex
100
AcDb2dVertex
 10
-2477.3879999999999
 20
-1134.9999999999998
 30
0.0
  0
SEQEND
  5
45E
100
AcDbEntity
  8
____
  6
CONTINUOUS
 62
               3
  0
LINE
  5
460
100
AcDbEntity
  8
____
  6
CONTINUOUS
 62
               3
100
AcDbLine
 10
-2467.1931000000004
 20
-1124.9999999999998
 30
0.0
 11
-2467.1931000000004
 21
-1134.9999999999998
 31
0.0
  0
LINE
  5
461
100
AcDbEntity
  8
____
  6
CONTINUOUS
 62
               3
100
AcDbLine
 10
-2468.8920000000007
 20
-1124.9999999999998
 30
0.0
 11
-2468.8920000000007
 21
-1134.9999999999998
 31
0.0
  0
LINE
  5
462
100
AcDbEntity
  8
____
  6
CONTINUOUS
 62
               3
100
AcDbLine
 10
-2470.5914000000002
 20
-1124.9999999999998
 30
0.0
 11
-2470.5914000000002
 21
-1134.9999999999998
 31
0.0
  0
LINE
  5
463
100
AcDbEntity
  8
____
  6
STYLE_05
 62
               3
100
AcDbLine
 10
-2472.2906000000003
 20
-1124.9999999999998
 30
0.0
 11
-2472.2906000000003
 21
-1134.9999999999998
 31
0.0
  0
LINE
  5
464
100
AcDbEntity
  8
____
  6
STYLE_05
 62
               3
100
AcDbLine
 10
-2473.9897000000001
 20
-1124.9999999999998
 30
0.0
 11
-2473.9897000000001
 21
-1134.9999999999998
 31
0.0
  0
LINE
  5
465
100
AcDbEntity
  8
____
  6
STYLE_05
 62
               3
100
AcDbLine
 10
-2475.6889000000001
 20
-1124.9999999999998
 30
0.0
 11
-2475.6889000000001
 21
-1134.9999999999998
 31
0.0
  0
LINE
  5
466
100
AcDbEntity
  8
____
  6
STYLE_05
 62
               3
100
AcDbLine
 10
-2477.3879999999999
 20
-1124.9999999999998
 30
0.0
 11
-2477.3879999999999
 21
-1134.9999999999998
 31
0.0
  0
POLYLINE
  5
467
100
AcDbEntity
  8
____
  6
STYLE_05
 62
               3
100
AcDb2dPolyline
 66
               1
 10
0.0
 20
0.0
 30
0.0
 70
               1
 75
               5
  0
VERTEX
  5
468
100
AcDbEntity
  8
____
  6
STYLE_05
 62
               3
100
AcDbVertex
100
AcDb2dVertex
 10
-2507.3879999999999
 20
-1122.9166666666663
 30
0.0
  0
VERTEX
  5
469
100
AcDbEntity
  8
____
  6
STYLE_05
 62
               3
100
AcDbVertex
100
AcDb2dVertex
 10
-2477.3879999999999
 20
-1122.9166666666663
 30
0.0
  0
VERTEX
  5
46A
100
AcDbEntity
  8
____
  6
STYLE_05
 62
               3
100
AcDbVertex
100
AcDb2dVertex
 10
-2477.3879999999999
 20
-1137.0833333333328
 30
0.0
  0
VERTEX
  5
46B
100
AcDbEntity
  8
____
  6
STYLE_05
 62
               3
100
AcDbVertex
100
AcDb2dVertex
 10
-2507.3879999999999
 20
-1137.0833333333328
 30
0.0
  0
SEQEND
  5
46C
100
AcDbEntity
  8
____
  6
STYLE_05
 62
               3
  0
POLYLINE
  5
46E
100
AcDbEntity
  8
____
  6
STYLE_05
 62
               3
100
AcDb2dPolyline
 66
               1
 10
0.0
 20
0.0
 30
0.0
 70
               1
 75
               5
  0
VERTEX
  5
46F
100
AcDbEntity
  8
____
  6
STYLE_05
 62
               3
100
AcDbVertex
100
AcDb2dVertex
 10
-2507.3879999999999
 20
-1122.9166666666663
 30
0.0
  0
VERTEX
  5
470
100
AcDbEntity
  8
____
  6
STYLE_05
 62
               3
100
AcDbVertex
100
AcDb2dVertex
 10
-2507.3879999999999
 20
-1129.9999999999998
 30
0.0
  0
VERTEX
  5
471
100
AcDbEntity
  8
____
  6
STYLE_05
 62
               3
100
AcDbVertex
100
AcDb2dVertex
 10
-2528.5401000000002
 20
-1126.2499999999998
 30
0.0
  0
VERTEX
  5
472
100
AcDbEntity
  8
____
  6
STYLE_05
 62
               3
100
AcDbVertex
100
AcDb2dVertex
 10
-2526.5862999999999
 20
-1119.7543333333326
 30
0.0
  0
SEQEND
  5
473
100
AcDbEntity
  8
____
  6
STYLE_05
 62
               3
  0
POLYLINE
  5
475
100
AcDbEntity
  8
____
  6
STYLE_05
 62
               3
100
AcDb2dPolyline
 66
               1
 10
0.0
 20
0.0
 30
0.0
 70
               1
 75
               5
  0
VERTEX
  5
476
100
AcDbEntity
  8
____
  6
STYLE_05
 62
               3
100
AcDbVertex
100
AcDb2dVertex
 10
-2507.3879999999999
 20
-1137.0833333333328
 30
0.0
  0
VERTEX
  5
477
100
AcDbEntity
  8
____
  6
STYLE_05
 62
               3
100
AcDbVertex
100
AcDb2dVertex
 10
-2507.3879999999999
 20
-1129.9999999999998
 30
0.0
  0
VERTEX
  5
478
100
AcDbEntity
  8
____
  6
STYLE_05
 62
               3
100
AcDbVertex
100
AcDb2dVertex
 10
-2528.5401000000002
 20
-1133.7499999999998
 30
0.0
  0
VERTEX
  5
479
100
AcDbEntity
  8
____
  6
STYLE_05
 62
               3
100
AcDbVertex
100
AcDb2dVertex
 10
-2526.5862999999999
 20
-1140.245666666666
 30
0.0
  0
SEQEND
  5
47A
100
AcDbEntity
  8
____
  6
STYLE_05
 62
               3
  0
POLYLINE
  5
47C
100
AcDbEntity
  8
____
  6
CONTINUOUS
 62
               3
100
AcDb2dPolyline
 66
               1
 10
0.0
 20
0.0
 30
0.0
 70
               1
 75
               5
  0
VERTEX
  5
47D
100
AcDbEntity
  8
____
  6
CONTINUOUS
 62
               3
100
AcDbVertex
100
AcDb2dVertex
 10
-2461.5365952380953
 20
-1120.7623333333329
 30
0.0
  0
VERTEX
  5
47E
100
AcDbEntity
  8
____
  6
CONTINUOUS
 62
               3
100
AcDbVertex
100
AcDb2dVertex
 10
-2460.6860000000006
 20
-1121.9999999999993
 30
0.0
  0
VERTEX
  5
47F
100
AcDbEntity
  8
____
  6
CONTINUOUS
 62
               3
100
AcDbVertex
100
AcDb2dVertex
 10
-2460.6860000000006
 20
-1137.9999999999993
 30
0.0
  0
VERTEX
  5
480
100
AcDbEntity
  8
____
  6
CONTINUOUS
 62
               3
100
AcDbVertex
100
AcDb2dVertex
 10
-2461.5365952380953
 20
-1139.2376666666662
 30
0.0
  0
VERTEX
  5
481
100
AcDbEntity
  8
____
  6
CONTINUOUS
 62
               3
100
AcDbVertex
100
AcDb2dVertex
 10
-2469.835404761905
 20
-1139.2376666666662
 30
0.0
  0
VERTEX
  5
482
100
AcDbEntity
  8
____
  6
CONTINUOUS
 62
               3
100
AcDbVertex
100
AcDb2dVertex
 10
-2470.6860000000006
 20
-1137.9999999999993
 30
0.0
  0
VERTEX
  5
483
100
AcDbEntity
  8
____
  6
CONTINUOUS
 62
               3
100
AcDbVertex
100
AcDb2dVertex
 10
-2470.6860000000006
 20
-1121.9999999999993
 30
0.0
  0
VERTEX
  5
484
100
AcDbEntity
  8
____
  6
CONTINUOUS
 62
               3
100
AcDbVertex
100
AcDb2dVertex
 10
-2469.835404761905
 20
-1120.7623333333329
 30
0.0
  0
SEQEND
  5
485
100
AcDbEntity
  8
____
  6
CONTINUOUS
 62
               3
  0
SPLINE
  5
487
100
AcDbEntity
  8
____
  6
CONTINUOUS
 62
               3
100
AcDbSpline
210
0.0
220
0.0
230
1.0
 70
               8
 71
               2
 72
              10
 73
               7
 74
               0
 42
0.000001
 43
0.000001
 40
0.0
 40
0.0
 40
0.0
 40
1.0
 40
1.0
 40
2.0
 40
2.0
 40
3.0
 40
3.0
 40
3.0
 10
-2461.5365952380953
 20
-1120.7623333333329
 30
0.0
 10
-2459.8389051538325
 20
-1123.0719163237306
 30
0.0
 10
-2461.5365952380953
 20
-1125.3811666666659
 30
0.0
 10
-2459.8389051538325
 20
-1130.0000000000002
 30
0.0
 10
-2461.5365952380953
 20
-1134.6188333333328
 30
0.0
 10
-2459.8389051538325
 20
-1136.9280836762687
 30
0.0
 10
-2461.5365952380953
 20
-1139.2376666666662
 30
0.0
  0
SPLINE
  5
488
100
AcDbEntity
  8
____
  6
CONTINUOUS
 62
               3
100
AcDbSpline
210
0.0
220
0.0
230
1.0
 70
               8
 71
               2
 72
              10
 73
               7
 74
               0
 42
0.000001
 43
0.000001
 40
0.0
 40
0.0
 40
0.0
 40
1.0
 40
1.0
 40
2.0
 40
2.0
 40
3.0
 40
3.0
 40
3.0
 10
-2469.835404761905
 20
-1120.7623333333329
 30
0.0
 10
-2471.5330948461697
 20
-1123.0719163237306
 30
0.0
 10
-2469.835404761905
 20
-1125.3811666666659
 30
0.0
 10
-2471.5330948461697
 20
-1130.0000000000002
 30
0.0
 10
-2469.835404761905
 20
-1134.6188333333328
 30
0.0
 10
-2471.5330948461697
 20
-1136.9280836762687
 30
0.0
 10
-2469.835404761905
 20
-1139.2376666666662
 30
0.0
  0
LINE
  5
489
100
AcDbEntity
  8
____
  6
CONTINUOUS
 62
               3
100
AcDbLine
 10
-2461.5365952380953
 20
-1125.3811666666659
 30
0.0
 11
-2469.835404761905
 21
-1125.3811666666659
 31
0.0
  0
LINE
  5
48A
100
AcDbEntity
  8
____
  6
CONTINUOUS
 62
               3
100
AcDbLine
 10
-2469.835404761905
 20
-1134.6188333333328
 30
0.0
 11
-2461.5365952380953
 21
-1134.6188333333328
 31
0.0
  0
POLYLINE
  5
48B
100
AcDbEntity
  8
____
  6
CONTINUOUS
 62
               3
100
AcDb2dPolyline
 66
               1
 10
0.0
 20
0.0
 30
0.0
 70
               1
 75
               5
  0
VERTEX
  5
48C
100
AcDbEntity
  8
____
  6
CONTINUOUS
 62
               3
100
AcDbVertex
100
AcDb2dVertex
 10
-2473.5
 20
-1119.9999999999998
 30
0.0
  0
VERTEX
  5
48D
100
AcDbEntity
  8
____
  6
CONTINUOUS
 62
               3
100
AcDbVertex
100
AcDb2dVertex
 10
-2472.1200000000008
 20
-1119.9999999999998
 30
0.0
  0
VERTEX
  5
48E
100
AcDbEntity
  8
____
  6
CONTINUOUS
 62
               3
100
AcDbVertex
100
AcDb2dVertex
 10
-2472.1200000000008
 20
-1139.9999999999998
 30
0.0
  0
VERTEX
  5
48F
100
AcDbEntity
  8
____
  6
CONTINUOUS
 62
               3
100
AcDbVertex
100
AcDb2dVertex
 10
-2473.5
 20
-1139.9999999999998
 30
0.0
  0
SEQEND
  5
490
100
AcDbEntity
  8
____
  6
CONTINUOUS
 62
               3
  0
POLYLINE
  5
492
100
AcDbEntity
  8
____
  6
CONTINUOUS
 62
               3
100
AcDb2dPolyline
 66
               1
 10
0.0
 20
0.0
 30
0.0
 70
               1
 75
               5
  0
VERTEX
  5
493
100
AcDbEntity
  8
____
  6
CONTINUOUS
 62
               3
100
AcDbVertex
100
AcDb2dVertex
 10
-2472.1200000000008
 20
-1121.0849999999994
 30
0.0
  0
VERTEX
  5
494
100
AcDbEntity
  8
____
  6
CONTINUOUS
 62
               3
100
AcDbVertex
100
AcDb2dVertex
 10
-2470.6860000000006
 20
-1121.0849999999994
 30
0.0
  0
VERTEX
  5
495
100
AcDbEntity
  8
____
  6
CONTINUOUS
 62
               3
100
AcDbVertex
100
AcDb2dVertex
 10
-2470.6860000000006
 20
-1138.9149999999993
 30
0.0
  0
VERTEX
  5
496
100
AcDbEntity
  8
____
  6
CONTINUOUS
 62
               3
100
AcDbVertex
100
AcDb2dVertex
 10
-2472.1200000000008
 20
-1138.9149999999993
 30
0.0
  0
SEQEND
  5
497
100
AcDbEntity
  8
____
  6
CONTINUOUS
 62
               3
  0
LINE
  5
499
100
AcDbEntity
  8
____
  6
CONTINUOUS
 62
               3
100
AcDbLine
 10
-2472.1200000000008
 20
-1129.3101666666664
 30
0.0
 11
-2470.6860000000006
 21
-1130.6898333333327
 31
0.0
  0
LINE
  5
49A
100
AcDbEntity
  8
____
  6
CONTINUOUS
 62
               3
100
AcDbLine
 10
-2470.6860000000006
 20
-1131.2088333333324
 30
0.0
 11
-2472.1200000000008
 21
-1129.8291666666657
 31
0.0
  0
LINE
  5
49B
100
AcDbEntity
  8
____
  6
STYLE_05
 62
              30
100
AcDbLine
 10
-2528.5401000000002
 20
-1126.2499999999998
 30
0.0
 11
-2528.5401000000002
 21
-1133.7499999999998
 31
0.0
  0
LINE
  5
49C
100
AcDbEntity
  8
____
  6
CONTINUOUS
 62
              30
100
AcDbLine
 10
-777.5
 20
-515.0
 30
0.0
 11
-777.5
 21
-1330.0
 31
0.0
  0
POLYLINE
  5
49D
100
AcDbEntity
  8
____
  6
STYLE_05
 62
              30
100
AcDb2dPolyline
 66
               1
 10
0.0
 20
0.0
 30
0.0
 70
               1
 75
               5
  0
VERTEX
  5
49E
100
AcDbEntity
  8
____
  6
STYLE_05
 62
              30
100
AcDbVertex
100
AcDb2dVertex
 10
-1027.4999999999995
 20
-547.5
 30
0.0
  0
VERTEX
  5
49F
100
AcDbEntity
  8
____
  6
STYLE_05
 62
              30
100
AcDbVertex
100
AcDb2dVertex
 10
-977.49999999999955
 20
-547.5
 30
0.0
  0
VERTEX
  5
4A0
100
AcDbEntity
  8
____
  6
STYLE_05
 62
              30
100
AcDbVertex
100
AcDb2dVertex
 10
-977.49999999999955
 20
-1297.5
 30
0.0
  0
VERTEX
  5
4A1
100
AcDbEntity
  8
____
  6
STYLE_05
 62
              30
100
AcDbVertex
100
AcDb2dVertex
 10
-1027.4999999999995
 20
-1297.5
 30
0.0
  0
SEQEND
  5
4A2
100
AcDbEntity
  8
____
  6
STYLE_05
 62
              30
  0
CIRCLE
  5
4A4
100
AcDbEntity
  8
____
  6
STYLE_11
 62
              30
100
AcDbCircle
 10
-1002.4999999999991
 20
-570.0
 30
0.0
 40
4.0
  0
CIRCLE
  5
4A5
100
AcDbEntity
  8
____
  6
STYLE_11
 62
              30
100
AcDbCircle
 10
-1002.4999999999991
 20
-744.99999999999989
 30
0.0
 40
4.0
  0
CIRCLE
  5
4A6
100
AcDbEntity
  8
____
  6
STYLE_11
 62
              30
100
AcDbCircle
 10
-1002.4999999999991
 20
-894.99999999999989
 30
0.0
 40
4.0
  0
CIRCLE
  5
4A7
100
AcDbEntity
  8
____
  6
STYLE_11
 62
              30
100
AcDbCircle
 10
-1002.4999999999991
 20
-689.99999999999989
 30
0.0
 40
4.0
  0
CIRCLE
  5
4A8
100
AcDbEntity
  8
____
  6
STYLE_11
 62
              30
100
AcDbCircle
 10
-1002.4999999999991
 20
-1275.0
 30
0.0
 40
4.0
  0
CIRCLE
  5
4A9
100
AcDbEntity
  8
____
  6
STYLE_11
 62
              30
100
AcDbCircle
 10
-1002.4999999999991
 20
-1100.0
 30
0.0
 40
4.0
  0
CIRCLE
  5
4AA
100
AcDbEntity
  8
____
  6
STYLE_11
 62
              30
100
AcDbCircle
 10
-1002.4999999999991
 20
-949.99999999999989
 30
0.0
 40
4.0
  0
CIRCLE
  5
4AB
100
AcDbEntity
  8
____
  6
STYLE_11
 62
              30
100
AcDbCircle
 10
-1002.4999999999991
 20
-1155.0
 30
0.0
 40
4.0
  0
LINE
  5
4AC
100
AcDbEntity
  8
____
  6
STYLE_05
 62
              30
100
AcDbLine
 10
-981.49999999999955
 20
-547.5
 30
0.0
 11
-981.49999999999955
 21
-1297.5
 31
0.0
  0
POLYLINE
  5
4AD
100
AcDbEntity
  8
____
  6
STYLE_01
 62
              30
100
AcDb2dPolyline
 66
               1
 10
0.0
 20
0.0
 30
0.0
 70
               1
 75
               5
  0
VERTEX
  5
4AE
100
AcDbEntity
  8
____
  6
STYLE_01
 62
              30
100
AcDbVertex
100
AcDb2dVertex
 10
-1027.4999999999991
 20
-464.99999999999994
 30
0.0
  0
VERTEX
  5
4AF
100
AcDbEntity
  8
____
  6
STYLE_01
 62
              30
100
AcDbVertex
100
AcDb2dVertex
 10
-627.49999999999955
 20
-464.99999999999994
 30
0.0
  0
VERTEX
  5
4B0
100
AcDbEntity
  8
____
  6
STYLE_01
 62
              30
100
AcDbVertex
100
AcDb2dVertex
 10
-627.49999999999955
 20
-1379.9999999999998
 30
0.0
  0
VERTEX
  5
4B1
100
AcDbEntity
  8
____
  6
STYLE_01
 62
              30
100
AcDbVertex
100
AcDb2dVertex
 10
-1027.4999999999991
 20
-1379.9999999999998
 30
0.0
  0
SEQEND
  5
4B2
100
AcDbEntity
  8
____
  6
STYLE_01
 62
              30
  0
POLYLINE
  5
4B4
100
AcDbEntity
  8
____
  6
CONTINUOUS
 62
               3
100
AcDb2dPolyline
 66
               1
 10
0.0
 20
0.0
 30
0.0
 70
               1
 75
               5
  0
VERTEX
  5
4B5
100
AcDbEntity
  8
____
  6
CONTINUOUS
 62
               3
100
AcDbVertex
100
AcDb2dVertex
 10
-997.99999999999955
 20
-710.0
 30
0.0
  0
VERTEX
  5
4B6
100
AcDbEntity
  8
____
  6
CONTINUOUS
 62
               3
100
AcDbVertex
100
AcDb2dVertex
 10
-977.61199999999963
 20
-710.0
 30
0.0
  0
VERTEX
  5
4B7
100
AcDbEntity
  8
____
  6
CONTINUOUS
 62
               3
100
AcDbVertex
100
AcDb2dVertex
 10
-977.61199999999963
 20
-720.0
 30
0.0
  0
VERTEX
  5
4B8
100
AcDbEntity
  8
____
  6
CONTINUOUS
 62
               3
100
AcDbVertex
100
AcDb2dVertex
 10
-997.99999999999955
 20
-720.0
 30
0.0
  0
SEQEND
  5
4B9
100
AcDbEntity
  8
____
  6
CONTINUOUS
 62
               3
  0
LINE
  5
4BB
100
AcDbEntity
  8
____
  6
CONTINUOUS
 62
               3
100
AcDbLine
 10
-987.80689999999913
 20
-720.0
 30
0.0
 11
-987.80689999999913
 21
-710.0
 31
0.0
  0
LINE
  5
4BC
100
AcDbEntity
  8
____
  6
CONTINUOUS
 62
               3
100
AcDbLine
 10
-986.10799999999881
 20
-720.0
 30
0.0
 11
-986.10799999999881
 21
-710.0
 31
0.0
  0
LINE
  5
4BD
100
AcDbEntity
  8
____
  6
CONTINUOUS
 62
               3
100
AcDbLine
 10
-984.4085999999993
 20
-720.0
 30
0.0
 11
-984.4085999999993
 21
-710.0
 31
0.0
  0
LINE
  5
4BE
100
AcDbEntity
  8
____
  6
STYLE_05
 62
               3
100
AcDbLine
 10
-982.70939999999928
 20
-720.0
 30
0.0
 11
-982.70939999999928
 21
-710.0
 31
0.0
  0
LINE
  5
4BF
100
AcDbEntity
  8
____
  6
STYLE_05
 62
               3
100
AcDbLine
 10
-981.01029999999946
 20
-720.0
 30
0.0
 11
-981.01029999999946
 21
-710.0
 31
0.0
  0
LINE
  5
4C0
100
AcDbEntity
  8
____
  6
STYLE_05
 62
               3
100
AcDbLine
 10
-979.31109999999944
 20
-720.0
 30
0.0
 11
-979.31109999999944
 21
-710.0
 31
0.0
  0
LINE
  5
4C1
100
AcDbEntity
  8
____
  6
STYLE_05
 62
               3
100
AcDbLine
 10
-977.61199999999963
 20
-720.0
 30
0.0
 11
-977.61199999999963
 21
-710.0
 31
0.0
  0
POLYLINE
  5
4C2
100
AcDbEntity
  8
____
  6
STYLE_05
 62
               3
100
AcDb2dPolyline
 66
               1
 10
0.0
 20
0.0
 30
0.0
 70
               1
 75
               5
  0
VERTEX
  5
4C3
100
AcDbEntity
  8
____
  6
STYLE_05
 62
               3
100
AcDbVertex
100
AcDb2dVertex
 10
-977.61199999999963
 20
-707.91666666666697
 30
0.0
  0
VERTEX
  5
4C4
100
AcDbEntity
  8
____
  6
STYLE_05
 62
               3
100
AcDbVertex
100
AcDb2dVertex
 10
-947.61199999999963
 20
-707.91666666666697
 30
0.0
  0
VERTEX
  5
4C5
100
AcDbEntity
  8
____
  6
STYLE_05
 62
               3
100
AcDbVertex
100
AcDb2dVertex
 10
-947.61199999999963
 20
-722.08333333333348
 30
0.0
  0
VERTEX
  5
4C6
100
AcDbEntity
  8
____
  6
STYLE_05
 62
               3
100
AcDbVertex
100
AcDb2dVertex
 10
-977.61199999999963
 20
-722.08333333333348
 30
0.0
  0
SEQEND
  5
4C7
100
AcDbEntity
  8
____
  6
STYLE_05
 62
               3
  0
POLYLINE
  5
4C9
100
AcDbEntity
  8
____
  6
STYLE_05
 62
               3
100
AcDb2dPolyline
 66
               1
 10
0.0
 20
0.0
 30
0.0
 70
               1
 75
               5
  0
VERTEX
  5
4CA
100
AcDbEntity
  8
____
  6
STYLE_05
 62
               3
100
AcDbVertex
100
AcDb2dVertex
 10
-947.61199999999963
 20
-722.08333333333348
 30
0.0
  0
VERTEX
  5
4CB
100
AcDbEntity
  8
____
  6
STYLE_05
 62
               3
100
AcDbVertex
100
AcDb2dVertex
 10
-947.61199999999963
 20
-715.0
 30
0.0
  0
VERTEX
  5
4CC
100
AcDbEntity
  8
____
  6
STYLE_05
 62
               3
100
AcDbVertex
100
AcDb2dVertex
 10
-926.45989999999938
 20
-718.75
 30
0.0
  0
VERTEX
  5
4CD
100
AcDbEntity
  8
____
  6
STYLE_05
 62
               3
100
AcDbVertex
100
AcDb2dVertex
 10
-928.41369999999961
 20
-725.24566666666715
 30
0.0
  0
SEQEND
  5
4CE
100
AcDbEntity
  8
____
  6
STYLE_05
 62
               3
  0
POLYLINE
  5
4D0
100
AcDbEntity
  8
____
  6
STYLE_05
 62
               3
100
AcDb2dPolyline
 66
               1
 10
0.0
 20
0.0
 30
0.0
 70
               1
 75
               5
  0
VERTEX
  5
4D1
100
AcDbEntity
  8
____
  6
STYLE_05
 62
               3
100
AcDbVertex
100
AcDb2dVertex
 10
-947.61199999999963
 20
-707.91666666666697
 30
0.0
  0
VERTEX
  5
4D2
100
AcDbEntity
  8
____
  6
STYLE_05
 62
               3
100
AcDbVertex
100
AcDb2dVertex
 10
-947.61199999999963
 20
-715.0
 30
0.0
  0
VERTEX
  5
4D3
100
AcDbEntity
  8
____
  6
STYLE_05
 62
               3
100
AcDbVertex
100
AcDb2dVertex
 10
-926.45989999999938
 20
-711.25
 30
0.0
  0
VERTEX
  5
4D4
100
AcDbEntity
  8
____
  6
STYLE_05
 62
               3
100
AcDbVertex
100
AcDb2dVertex
 10
-928.41369999999961
 20
-704.75433333333376
 30
0.0
  0
SEQEND
  5
4D5
100
AcDbEntity
  8
____
  6
STYLE_05
 62
               3
  0
POLYLINE
  5
4D7
100
AcDbEntity
  8
____
  6
CONTINUOUS
 62
               3
100
AcDb2dPolyline
 66
               1
 10
0.0
 20
0.0
 30
0.0
 70
               1
 75
               5
  0
VERTEX
  5
4D8
100
AcDbEntity
  8
____
  6
CONTINUOUS
 62
               3
100
AcDbVertex
100
AcDb2dVertex
 10
-993.46340476190426
 20
-724.23766666666688
 30
0.0
  0
VERTEX
  5
4D9
100
AcDbEntity
  8
____
  6
CONTINUOUS
 62
               3
100
AcDbVertex
100
AcDb2dVertex
 10
-994.31399999999894
 20
-723.00000000000045
 30
0.0
  0
VERTEX
  5
4DA
100
AcDbEntity
  8
____
  6
CONTINUOUS
 62
               3
100
AcDbVertex
100
AcDb2dVertex
 10
-994.31399999999894
 20
-707.00000000000045
 30
0.0
  0
VERTEX
  5
4DB
100
AcDbEntity
  8
____
  6
CONTINUOUS
 62
               3
100
AcDbVertex
100
AcDb2dVertex
 10
-993.46340476190426
 20
-705.76233333333357
 30
0.0
  0
VERTEX
  5
4DC
100
AcDbEntity
  8
____
  6
CONTINUOUS
 62
               3
100
AcDbVertex
100
AcDb2dVertex
 10
-985.16459523809453
 20
-705.76233333333357
 30
0.0
  0
VERTEX
  5
4DD
100
AcDbEntity
  8
____
  6
CONTINUOUS
 62
               3
100
AcDbVertex
100
AcDb2dVertex
 10
-984.31399999999894
 20
-707.00000000000045
 30
0.0
  0
VERTEX
  5
4DE
100
AcDbEntity
  8
____
  6
CONTINUOUS
 62
               3
100
AcDbVertex
100
AcDb2dVertex
 10
-984.31399999999894
 20
-723.00000000000045
 30
0.0
  0
VERTEX
  5
4DF
100
AcDbEntity
  8
____
  6
CONTINUOUS
 62
               3
100
AcDbVertex
100
AcDb2dVertex
 10
-985.16459523809453
 20
-724.23766666666688
 30
0.0
  0
SEQEND
  5
4E0
100
AcDbEntity
  8
____
  6
CONTINUOUS
 62
               3
  0
SPLINE
  5
4E2
100
AcDbEntity
  8
____
  6
CONTINUOUS
 62
               3
100
AcDbSpline
210
0.0
220
0.0
230
1.0
 70
               8
 71
               2
 72
              10
 73
               7
 74
               0
 42
0.000001
 43
0.000001
 40
0.0
 40
0.0
 40
0.0
 40
1.0
 40
1.0
 40
2.0
 40
2.0
 40
3.0
 40
3.0
 40
3.0
 10
-993.46340476190426
 20
-724.23766666666688
 30
0.0
 10
-995.16109484616732
 20
-721.92808367626924
 30
0.0
 10
-993.46340476190426
 20
-719.6188333333339
 30
0.0
 10
-995.16109484616732
 20
-714.99999999999955
 30
0.0
 10
-993.46340476190426
 20
-710.38116666666701
 30
0.0
 10
-995.16109484616732
 20
-708.07191632373099
 30
0.0
 10
-993.46340476190426
 20
-705.76233333333357
 30
0.0
  0
SPLINE
  5
4E3
100
AcDbEntity
  8
____
  6
CONTINUOUS
 62
               3
100
AcDbSpline
210
0.0
220
0.0
230
1.0
 70
               8
 71
               2
 72
              10
 73
               7
 74
               0
 42
0.000001
 43
0.000001
 40
0.0
 40
0.0
 40
0.0
 40
1.0
 40
1.0
 40
2.0
 40
2.0
 40
3.0
 40
3.0
 40
3.0
 10
-985.16459523809453
 20
-724.23766666666688
 30
0.0
 10
-983.46690515382966
 20
-721.92808367626924
 30
0.0
 10
-985.16459523809453
 20
-719.6188333333339
 30
0.0
 10
-983.46690515382966
 20
-714.99999999999955
 30
0.0
 10
-985.16459523809453
 20
-710.38116666666701
 30
0.0
 10
-983.46690515382966
 20
-708.07191632373099
 30
0.0
 10
-985.16459523809453
 20
-705.76233333333357
 30
0.0
  0
LINE
  5
4E4
100
AcDbEntity
  8
____
  6
CONTINUOUS
 62
               3
100
AcDbLine
 10
-993.46340476190426
 20
-719.6188333333339
 30
0.0
 11
-985.16459523809453
 21
-719.6188333333339
 31
0.0
  0
LINE
  5
4E5
100
AcDbEntity
  8
____
  6
CONTINUOUS
 62
               3
100
AcDbLine
 10
-985.16459523809453
 20
-710.38116666666701
 30
0.0
 11
-993.46340476190426
 21
-710.38116666666701
 31
0.0
  0
POLYLINE
  5
4E6
100
AcDbEntity
  8
____
  6
CONTINUOUS
 62
               3
100
AcDb2dPolyline
 66
               1
 10
0.0
 20
0.0
 30
0.0
 70
               1
 75
               5
  0
VERTEX
  5
4E7
100
AcDbEntity
  8
____
  6
CONTINUOUS
 62
               3
100
AcDbVertex
100
AcDb2dVertex
 10
-982.87999999999874
 20
-705.0
 30
0.0
  0
VERTEX
  5
4E8
100
AcDbEntity
  8
____
  6
CONTINUOUS
 62
               3
100
AcDbVertex
100
AcDb2dVertex
 10
-981.49999999999955
 20
-705.0
 30
0.0
  0
VERTEX
  5
4E9
100
AcDbEntity
  8
____
  6
CONTINUOUS
 62
               3
100
AcDbVertex
100
AcDb2dVertex
 10
-981.49999999999955
 20
-725.0
 30
0.0
  0
VERTEX
  5
4EA
100
AcDbEntity
  8
____
  6
CONTINUOUS
 62
               3
100
AcDbVertex
100
AcDb2dVertex
 10
-982.87999999999874
 20
-725.0
 30
0.0
  0
SEQEND
  5
4EB
100
AcDbEntity
  8
____
  6
CONTINUOUS
 62
               3
  0
POLYLINE
  5
4ED
100
AcDbEntity
  8
____
  6
CONTINUOUS
 62
               3
100
AcDb2dPolyline
 66
               1
 10
0.0
 20
0.0
 30
0.0
 70
               1
 75
               5
  0
VERTEX
  5
4EE
100
AcDbEntity
  8
____
  6
CONTINUOUS
 62
               3
100
AcDbVertex
100
AcDb2dVertex
 10
-984.31399999999894
 20
-706.08500000000049
 30
0.0
  0
VERTEX
  5
4EF
100
AcDbEntity
  8
____
  6
CONTINUOUS
 62
               3
100
AcDbVertex
100
AcDb2dVertex
 10
-982.87999999999874
 20
-706.08500000000049
 30
0.0
  0
VERTEX
  5
4F0
100
AcDbEntity
  8
____
  6
CONTINUOUS
 62
               3
100
AcDbVertex
100
AcDb2dVertex
 10
-982.87999999999874
 20
-723.91500000000042
 30
0.0
  0
VERTEX
  5
4F1
100
AcDbEntity
  8
____
  6
CONTINUOUS
 62
               3
100
AcDbVertex
100
AcDb2dVertex
 10
-984.31399999999894
 20
-723.91500000000042
 30
0.0
  0
SEQEND
  5
4F2
100
AcDbEntity
  8
____
  6
CONTINUOUS
 62
               3
  0
LINE
  5
4F4
100
AcDbEntity
  8
____
  6
CONTINUOUS
 62
               3
100
AcDbLine
 10
-982.87999999999874
 20
-715.68983333333335
 30
0.0
 11
-984.31399999999894
 21
-714.3101666666671
 31
0.0
  0
LINE
  5
4F5
100
AcDbEntity
  8
____
  6
CONTINUOUS
 62
               3
100
AcDbLine
 10
-984.31399999999894
 20
-713.79116666666732
 30
0.0
 11
-982.87999999999874
 21
-715.17083333333403
 31
0.0
  0
LINE
  5
4F6
100
AcDbEntity
  8
____
  6
STYLE_05
 62
              30
100
AcDbLine
 10
-926.45989999999938
 20
-718.75
 30
0.0
 11
-926.45989999999938
 21
-711.25
 31
0.0
  0
POLYLINE
  5
4F7
100
AcDbEntity
  8
____
  6
CONTINUOUS
 62
               3
100
AcDb2dPolyline
 66
               1
 10
0.0
 20
0.0
 30
0.0
 70
               1
 75
               5
  0
VERTEX
  5
4F8
100
AcDbEntity
  8
____
  6
CONTINUOUS
 62
               3
100
AcDbVertex
100
AcDb2dVertex
 10
-997.99999999999955
 20
-1124.9999999999998
 30
0.0
  0
VERTEX
  5
4F9
100
AcDbEntity
  8
____
  6
CONTINUOUS
 62
               3
100
AcDbVertex
100
AcDb2dVertex
 10
-977.61199999999963
 20
-1124.9999999999998
 30
0.0
  0
VERTEX
  5
4FA
100
AcDbEntity
  8
____
  6
CONTINUOUS
 62
               3
100
AcDbVertex
100
AcDb2dVertex
 10
-977.61199999999963
 20
-1134.9999999999998
 30
0.0
  0
VERTEX
  5
4FB
100
AcDbEntity
  8
____
  6
CONTINUOUS
 62
               3
100
AcDbVertex
100
AcDb2dVertex
 10
-997.99999999999955
 20
-1134.9999999999998
 30
0.0
  0
SEQEND
  5
4FC
100
AcDbEntity
  8
____
  6
CONTINUOUS
 62
               3
  0
LINE
  5
4FE
100
AcDbEntity
  8
____
  6
CONTINUOUS
 62
               3
100
AcDbLine
 10
-987.80689999999913
 20
-1124.9999999999998
 30
0.0
 11
-987.80689999999913
 21
-1134.9999999999998
 31
0.0
  0
LINE
  5
4FF
100
AcDbEntity
  8
____
  6
CONTINUOUS
 62
               3
100
AcDbLine
 10
-986.10799999999881
 20
-1124.9999999999998
 30
0.0
 11
-986.10799999999881
 21
-1134.9999999999998
 31
0.0
  0
LINE
  5
500
100
AcDbEntity
  8
____
  6
CONTINUOUS
 62
               3
100
AcDbLine
 10
-984.4085999999993
 20
-1124.9999999999998
 30
0.0
 11
-984.4085999999993
 21
-1134.9999999999998
 31
0.0
  0
LINE
  5
501
100
AcDbEntity
  8
____
  6
STYLE_05
 62
               3
100
AcDbLine
 10
-982.70939999999928
 20
-1124.9999999999998
 30
0.0
 11
-982.70939999999928
 21
-1134.9999999999998
 31
0.0
  0
LINE
  5
502
100
AcDbEntity
  8
____
  6
STYLE_05
 62
               3
100
AcDbLine
 10
-981.01029999999946
 20
-1124.9999999999998
 30
0.0
 11
-981.01029999999946
 21
-1134.9999999999998
 31
0.0
  0
LINE
  5
503
100
AcDbEntity
  8
____
  6
STYLE_05
 62
               3
100
AcDbLine
 10
-979.31109999999944
 20
-1124.9999999999998
 30
0.0
 11
-979.31109999999944
 21
-1134.9999999999998
 31
0.0
  0
LINE
  5
504
100
AcDbEntity
  8
____
  6
STYLE_05
 62
               3
100
AcDbLine
 10
-977.61199999999963
 20
-1124.9999999999998
 30
0.0
 11
-977.61199999999963
 21
-1134.9999999999998
 31
0.0
  0
POLYLINE
  5
505
100
AcDbEntity
  8
____
  6
STYLE_05
 62
               3
100
AcDb2dPolyline
 66
               1
 10
0.0
 20
0.0
 30
0.0
 70
               1
 75
               5
  0
VERTEX
  5
506
100
AcDbEntity
  8
____
  6
STYLE_05
 62
               3
100
AcDbVertex
100
AcDb2dVertex
 10
-977.61199999999963
 20
-1122.9166666666663
 30
0.0
  0
VERTEX
  5
507
100
AcDbEntity
  8
____
  6
STYLE_05
 62
               3
100
AcDbVertex
100
AcDb2dVertex
 10
-947.61199999999963
 20
-1122.9166666666663
 30
0.0
  0
VERTEX
  5
508
100
AcDbEntity
  8
____
  6
STYLE_05
 62
               3
100
AcDbVertex
100
AcDb2dVertex
 10
-947.61199999999963
 20
-1137.0833333333328
 30
0.0
  0
VERTEX
  5
509
100
AcDbEntity
  8
____
  6
STYLE_05
 62
               3
100
AcDbVertex
100
AcDb2dVertex
 10
-977.61199999999963
 20
-1137.0833333333328
 30
0.0
  0
SEQEND
  5
50A
100
AcDbEntity
  8
____
  6
STYLE_05
 62
               3
  0
POLYLINE
  5
50C
100
AcDbEntity
  8
____
  6
STYLE_05
 62
               3
100
AcDb2dPolyline
 66
               1
 10
0.0
 20
0.0
 30
0.0
 70
               1
 75
               5
  0
VERTEX
  5
50D
100
AcDbEntity
  8
____
  6
STYLE_05
 62
               3
100
AcDbVertex
100
AcDb2dVertex
 10
-947.61199999999963
 20
-1122.9166666666663
 30
0.0
  0
VERTEX
  5
50E
100
AcDbEntity
  8
____
  6
STYLE_05
 62
               3
100
AcDbVertex
100
AcDb2dVertex
 10
-947.61199999999963
 20
-1129.9999999999998
 30
0.0
  0
VERTEX
  5
50F
100
AcDbEntity
  8
____
  6
STYLE_05
 62
               3
100
AcDbVertex
100
AcDb2dVertex
 10
-926.45989999999938
 20
-1126.2499999999998
 30
0.0
  0
VERTEX
  5
510
100
AcDbEntity
  8
____
  6
STYLE_05
 62
               3
100
AcDbVertex
100
AcDb2dVertex
 10
-928.41369999999961
 20
-1119.7543333333326
 30
0.0
  0
SEQEND
  5
511
100
AcDbEntity
  8
____
  6
STYLE_05
 62
               3
  0
POLYLINE
  5
513
100
AcDbEntity
  8
____
  6
STYLE_05
 62
               3
100
AcDb2dPolyline
 66
               1
 10
0.0
 20
0.0
 30
0.0
 70
               1
 75
               5
  0
VERTEX
  5
514
100
AcDbEntity
  8
____
  6
STYLE_05
 62
               3
100
AcDbVertex
100
AcDb2dVertex
 10
-947.61199999999963
 20
-1137.0833333333328
 30
0.0
  0
VERTEX
  5
515
100
AcDbEntity
  8
____
  6
STYLE_05
 62
               3
100
AcDbVertex
100
AcDb2dVertex
 10
-947.61199999999963
 20
-1129.9999999999998
 30
0.0
  0
VERTEX
  5
516
100
AcDbEntity
  8
____
  6
STYLE_05
 62
               3
100
AcDbVertex
100
AcDb2dVertex
 10
-926.45989999999938
 20
-1133.7499999999998
 30
0.0
  0
VERTEX
  5
517
100
AcDbEntity
  8
____
  6
STYLE_05
 62
               3
100
AcDbVertex
100
AcDb2dVertex
 10
-928.41369999999961
 20
-1140.245666666666
 30
0.0
  0
SEQEND
  5
518
100
AcDbEntity
  8
____
  6
STYLE_05
 62
               3
  0
POLYLINE
  5
51A
100
AcDbEntity
  8
____
  6
CONTINUOUS
 62
               3
100
AcDb2dPolyline
 66
               1
 10
0.0
 20
0.0
 30
0.0
 70
               1
 75
               5
  0
VERTEX
  5
51B
100
AcDbEntity
  8
____
  6
CONTINUOUS
 62
               3
100
AcDbVertex
100
AcDb2dVertex
 10
-993.46340476190426
 20
-1120.7623333333329
 30
0.0
  0
VERTEX
  5
51C
100
AcDbEntity
  8
____
  6
CONTINUOUS
 62
               3
100
AcDbVertex
100
AcDb2dVertex
 10
-994.31399999999894
 20
-1121.9999999999993
 30
0.0
  0
VERTEX
  5
51D
100
AcDbEntity
  8
____
  6
CONTINUOUS
 62
               3
100
AcDbVertex
100
AcDb2dVertex
 10
-994.31399999999894
 20
-1137.9999999999993
 30
0.0
  0
VERTEX
  5
51E
100
AcDbEntity
  8
____
  6
CONTINUOUS
 62
               3
100
AcDbVertex
100
AcDb2dVertex
 10
-993.46340476190426
 20
-1139.2376666666662
 30
0.0
  0
VERTEX
  5
51F
100
AcDbEntity
  8
____
  6
CONTINUOUS
 62
               3
100
AcDbVertex
100
AcDb2dVertex
 10
-985.16459523809453
 20
-1139.2376666666662
 30
0.0
  0
VERTEX
  5
520
100
AcDbEntity
  8
____
  6
CONTINUOUS
 62
               3
100
AcDbVertex
100
AcDb2dVertex
 10
-984.31399999999894
 20
-1137.9999999999993
 30
0.0
  0
VERTEX
  5
521
100
AcDbEntity
  8
____
  6
CONTINUOUS
 62
               3
100
AcDbVertex
100
AcDb2dVertex
 10
-984.31399999999894
 20
-1121.9999999999993
 30
0.0
  0
VERTEX
  5
522
100
AcDbEntity
  8
____
  6
CONTINUOUS
 62
               3
100
AcDbVertex
100
AcDb2dVertex
 10
-985.16459523809453
 20
-1120.7623333333329
 30
0.0
  0
SEQEND
  5
523
100
AcDbEntity
  8
____
  6
CONTINUOUS
 62
               3
  0
SPLINE
  5
525
100
AcDbEntity
  8
____
  6
CONTINUOUS
 62
               3
100
AcDbSpline
210
0.0
220
0.0
230
1.0
 70
               8
 71
               2
 72
              10
 73
               7
 74
               0
 42
0.000001
 43
0.000001
 40
0.0
 40
0.0
 40
0.0
 40
1.0
 40
1.0
 40
2.0
 40
2.0
 40
3.0
 40
3.0
 40
3.0
 10
-993.46340476190426
 20
-1120.7623333333329
 30
0.0
 10
-995.16109484616732
 20
-1123.0719163237306
 30
0.0
 10
-993.46340476190426
 20
-1125.3811666666659
 30
0.0
 10
-995.16109484616732
 20
-1130.0000000000002
 30
0.0
 10
-993.46340476190426
 20
-1134.6188333333328
 30
0.0
 10
-995.16109484616732
 20
-1136.9280836762687
 30
0.0
 10
-993.46340476190426
 20
-1139.2376666666662
 30
0.0
  0
SPLINE
  5
526
100
AcDbEntity
  8
____
  6
CONTINUOUS
 62
               3
100
AcDbSpline
210
0.0
220
0.0
230
1.0
 70
               8
 71
               2
 72
              10
 73
               7
 74
               0
 42
0.000001
 43
0.000001
 40
0.0
 40
0.0
 40
0.0
 40
1.0
 40
1.0
 40
2.0
 40
2.0
 40
3.0
 40
3.0
 40
3.0
 10
-985.16459523809453
 20
-1120.7623333333329
 30
0.0
 10
-983.46690515382966
 20
-1123.0719163237306
 30
0.0
 10
-985.16459523809453
 20
-1125.3811666666659
 30
0.0
 10
-983.46690515382966
 20
-1130.0000000000002
 30
0.0
 10
-985.16459523809453
 20
-1134.6188333333328
 30
0.0
 10
-983.46690515382966
 20
-1136.9280836762687
 30
0.0
 10
-985.16459523809453
 20
-1139.2376666666662
 30
0.0
  0
LINE
  5
527
100
AcDbEntity
  8
____
  6
CONTINUOUS
 62
               3
100
AcDbLine
 10
-993.46340476190426
 20
-1125.3811666666659
 30
0.0
 11
-985.16459523809453
 21
-1125.3811666666659
 31
0.0
  0
LINE
  5
528
100
AcDbEntity
  8
____
  6
CONTINUOUS
 62
               3
100
AcDbLine
 10
-985.16459523809453
 20
-1134.6188333333328
 30
0.0
 11
-993.46340476190426
 21
-1134.6188333333328
 31
0.0
  0
POLYLINE
  5
529
100
AcDbEntity
  8
____
  6
CONTINUOUS
 62
               3
100
AcDb2dPolyline
 66
               1
 10
0.0
 20
0.0
 30
0.0
 70
               1
 75
               5
  0
VERTEX
  5
52A
100
AcDbEntity
  8
____
  6
CONTINUOUS
 62
               3
100
AcDbVertex
100
AcDb2dVertex
 10
-982.87999999999874
 20
-1119.9999999999998
 30
0.0
  0
VERTEX
  5
52B
100
AcDbEntity
  8
____
  6
CONTINUOUS
 62
               3
100
AcDbVertex
100
AcDb2dVertex
 10
-981.49999999999955
 20
-1119.9999999999998
 30
0.0
  0
VERTEX
  5
52C
100
AcDbEntity
  8
____
  6
CONTINUOUS
 62
               3
100
AcDbVertex
100
AcDb2dVertex
 10
-981.49999999999955
 20
-1139.9999999999998
 30
0.0
  0
VERTEX
  5
52D
100
AcDbEntity
  8
____
  6
CONTINUOUS
 62
               3
100
AcDbVertex
100
AcDb2dVertex
 10
-982.87999999999874
 20
-1139.9999999999998
 30
0.0
  0
SEQEND
  5
52E
100
AcDbEntity
  8
____
  6
CONTINUOUS
 62
               3
  0
POLYLINE
  5
530
100
AcDbEntity
  8
____
  6
CONTINUOUS
 62
               3
100
AcDb2dPolyline
 66
               1
 10
0.0
 20
0.0
 30
0.0
 70
               1
 75
               5
  0
VERTEX
  5
531
100
AcDbEntity
  8
____
  6
CONTINUOUS
 62
               3
100
AcDbVertex
100
AcDb2dVertex
 10
-984.31399999999894
 20
-1121.0849999999994
 30
0.0
  0
VERTEX
  5
532
100
AcDbEntity
  8
____
  6
CONTINUOUS
 62
               3
100
AcDbVertex
100
AcDb2dVertex
 10
-982.87999999999874
 20
-1121.0849999999994
 30
0.0
  0
VERTEX
  5
533
100
AcDbEntity
  8
____
  6
CONTINUOUS
 62
               3
100
AcDbVertex
100
AcDb2dVertex
 10
-982.87999999999874
 20
-1138.9149999999993
 30
0.0
  0
VERTEX
  5
534
100
AcDbEntity
  8
____
  6
CONTINUOUS
 62
               3
100
AcDbVertex
100
AcDb2dVertex
 10
-984.31399999999894
 20
-1138.9149999999993
 30
0.0
  0
SEQEND
  5
535
100
AcDbEntity
  8
____
  6
CONTINUOUS
 62
               3
  0
LINE
  5
537
100
AcDbEntity
  8
____
  6
CONTINUOUS
 62
               3
100
AcDbLine
 10
-982.87999999999874
 20
-1129.3101666666664
 30
0.0
 11
-984.31399999999894
 21
-1130.6898333333327
 31
0.0
  0
LINE
  5
538
100
AcDbEntity
  8
____
  6
CONTINUOUS
 62
               3
100
AcDbLine
 10
-984.31399999999894
 20
-1131.2088333333324
 30
0.0
 11
-982.87999999999874
 21
-1129.8291666666657
 31
0.0
  0
LINE
  5
539
100
AcDbEntity
  8
____
  6
STYLE_05
 62
              30
100
AcDbLine
 10
-926.45989999999938
 20
-1126.2499999999998
 30
0.0
 11
-926.45989999999938
 21
-1133.7499999999998
 31
0.0
  0
LINE
  5
53A
100
AcDbEntity
  8
____
  6
CONTINUOUS
 62
              30
100
AcDbLine
 10
-787.5
 20
-515.0
 30
0.0
 11
-787.5
 21
-714.99999999999989
 31
0.0
  0
LINE
  5
53B
100
AcDbEntity
  8
____
  6
CONTINUOUS
 62
              30
100
AcDbLine
 10
-787.5
 20
-719.99999999999989
 30
0.0
 11
-787.5
 21
-919.99999999999989
 31
0.0
  0
LINE
  5
53C
100
AcDbEntity
  8
____
  6
CONTINUOUS
 62
              30
100
AcDbLine
 10
-787.5
 20
-924.99999999999989
 30
0.0
 11
-787.5
 21
-1125.0
 31
0.0
  0
LINE
  5
53D
100
AcDbEntity
  8
____
  6
CONTINUOUS
 62
              30
100
AcDbLine
 10
-787.5
 20
-1130.0
 30
0.0
 11
-787.5
 21
-1329.9999999999998
 31
0.0
  0
LINE
  5
53E
100
AcDbEntity
  8
____
  6
CONTINUOUS
 62
              30
100
AcDbLine
 10
-2667.4999999999995
 20
-515.0
 30
0.0
 11
-2667.4999999999995
 21
-714.99999999999989
 31
0.0
  0
LINE
  5
53F
100
AcDbEntity
  8
____
  6
CONTINUOUS
 62
              30
100
AcDbLine
 10
-2667.4999999999995
 20
-719.99999999999989
 30
0.0
 11
-2667.4999999999995
 21
-919.99999999999989
 31
0.0
  0
LINE
  5
540
100
AcDbEntity
  8
____
  6
CONTINUOUS
 62
              30
100
AcDbLine
 10
-2667.4999999999995
 20
-924.99999999999989
 30
0.0
 11
-2667.4999999999995
 21
-1125.0
 31
0.0
  0
LINE
  5
541
100
AcDbEntity
  8
____
  6
CONTINUOUS
 62
              30
100
AcDbLine
 10
-2667.4999999999995
 20
-1130.0
 30
0.0
 11
-2667.4999999999995
 21
-1329.9999999999998
 31
0.0
  0
CIRCLE
  5
542
100
AcDbEntity
  8
____
  6
CONTINUOUS
 62
              30
100
AcDbCircle
 10
-892.49999999999989
 20
1499.9999999999998
 30
0.0
 40
6.2999999999999545
  0
POLYLINE
  5
543
100
AcDbEntity
  8
____
  6
CONTINUOUS
 62
              30
100
AcDb2dPolyline
 66
               1
 10
0.0
 20
0.0
 30
0.0
 70
             129
  0
VERTEX
  5
544
100
AcDbEntity
  8
____
  6
CONTINUOUS
 62
              30
100
AcDbVertex
100
AcDb2dVertex
 10
-893.44999999999993
 20
1503.9374999999998
 30
0.0
  0
VERTEX
  5
545
100
AcDbEntity
  8
____
  6
CONTINUOUS
 62
              30
100
AcDbVertex
100
AcDb2dVertex
 10
-891.54999999999984
 20
1503.9374999999998
 30
0.0
  0
VERTEX
  5
546
100
AcDbEntity
  8
____
  6
CONTINUOUS
 62
              30
100
AcDbVertex
100
AcDb2dVertex
 10
-891.54999999999984
 20
1502.4437499999999
 30
0.0
 42
0.4142135623730728
 70
               2
  0
VERTEX
  5
547
100
AcDbEntity
  8
____
  6
CONTINUOUS
 62
              30
100
AcDbVertex
100
AcDb2dVertex
 10
-890.05624999999986
 20
1500.9499999999998
 30
0.0
  0
VERTEX
  5
548
100
AcDbEntity
  8
____
  6
CONTINUOUS
 62
              30
100
AcDbVertex
100
AcDb2dVertex
 10
-888.56249999999989
 20
1500.9499999999998
 30
0.0
  0
VERTEX
  5
549
100
AcDbEntity
  8
____
  6
CONTINUOUS
 62
              30
100
AcDbVertex
100
AcDb2dVertex
 10
-888.56249999999989
 20
1499.0499999999997
 30
0.0
  0
VERTEX
  5
54A
100
AcDbEntity
  8
____
  6
CONTINUOUS
 62
              30
100
AcDbVertex
100
AcDb2dVertex
 10
-890.05624999999986
 20
1499.0499999999997
 30
0.0
 42
0.414213562373095
 70
               2
 50
9.3574199307792870E+17
  0
VERTEX
  5
54B
100
AcDbEntity
  8
____
  6
CONTINUOUS
 62
              30
100
AcDbVertex
100
AcDb2dVertex
 10
-891.54999999999984
 20
1497.5562499999996
 30
0.0
  0
VERTEX
  5
54C
100
AcDbEntity
  8
____
  6
CONTINUOUS
 62
              30
100
AcDbVertex
100
AcDb2dVertex
 10
-891.54999999999984
 20
1496.0624999999998
 30
0.0
  0
VERTEX
  5
54D
100
AcDbEntity
  8
____
  6
CONTINUOUS
 62
              30
100
AcDbVertex
100
AcDb2dVertex
 10
-893.44999999999993
 20
1496.0624999999998
 30
0.0
  0
VERTEX
  5
54E
100
AcDbEntity
  8
____
  6
CONTINUOUS
 62
              30
100
AcDbVertex
100
AcDb2dVertex
 10
-893.44999999999993
 20
1497.5562499999996
 30
0.0
 42
0.4142135623730728
 70
               2
  0
VERTEX
  5
54F
100
AcDbEntity
  8
____
  6
CONTINUOUS
 62
              30
100
AcDbVertex
100
AcDb2dVertex
 10
-894.94374999999991
 20
1499.0499999999997
 30
0.0
  0
VERTEX
  5
550
100
AcDbEntity
  8
____
  6
CONTINUOUS
 62
              30
100
AcDbVertex
100
AcDb2dVertex
 10
-896.43749999999989
 20
1499.0499999999997
 30
0.0
  0
VERTEX
  5
551
100
AcDbEntity
  8
____
  6
CONTINUOUS
 62
              30
100
AcDbVertex
100
AcDb2dVertex
 10
-896.43749999999989
 20
1500.9499999999998
 30
0.0
  0
VERTEX
  5
552
100
AcDbEntity
  8
____
  6
CONTINUOUS
 62
              30
100
AcDbVertex
100
AcDb2dVertex
 10
-894.94374999999991
 20
1500.9499999999998
 30
0.0
 42
0.414213562373095
 70
               2
 50
3.1191399769264294E+17
  0
VERTEX
  5
553
100
AcDbEntity
  8
____
  6
CONTINUOUS
 62
              30
100
AcDbVertex
100
AcDb2dVertex
 10
-893.44999999999993
 20
1502.4437499999999
 30
0.0
  0
SEQEND
  5
554
100
AcDbEntity
  8
____
  6
CONTINUOUS
 62
              30
  0
CIRCLE
  5
555
100
AcDbEntity
  8
____
  6
CONTINUOUS
 62
              30
100
AcDbCircle
 10
-1712.4999999999998
 20
1500.0563
 30
0.0
 40
6.2999999999999545
  0
POLYLINE
  5
556
100
AcDbEntity
  8
____
  6
CONTINUOUS
 62
              30
100
AcDb2dPolyline
 66
               1
 10
0.0
 20
0.0
 30
0.0
 70
             129
  0
VERTEX
  5
557
100
AcDbEntity
  8
____
  6
CONTINUOUS
 62
              30
100
AcDbVertex
100
AcDb2dVertex
 10
-1713.4499999999998
 20
1503.9938
 30
0.0
  0
VERTEX
  5
558
100
AcDbEntity
  8
____
  6
CONTINUOUS
 62
              30
100
AcDbVertex
100
AcDb2dVertex
 10
-1711.5499999999997
 20
1503.9938
 30
0.0
  0
VERTEX
  5
559
100
AcDbEntity
  8
____
  6
CONTINUOUS
 62
              30
100
AcDbVertex
100
AcDb2dVertex
 10
-1711.5499999999997
 20
1502.5000500000001
 30
0.0
 42
0.414213562373095
 70
               2
  0
VERTEX
  5
55A
100
AcDbEntity
  8
____
  6
CONTINUOUS
 62
              30
100
AcDbVertex
100
AcDb2dVertex
 10
-1710.0562499999996
 20
1501.0063
 30
0.0
  0
VERTEX
  5
55B
100
AcDbEntity
  8
____
  6
CONTINUOUS
 62
              30
100
AcDbVertex
100
AcDb2dVertex
 10
-1708.5624999999998
 20
1501.0063
 30
0.0
  0
VERTEX
  5
55C
100
AcDbEntity
  8
____
  6
CONTINUOUS
 62
              30
100
AcDbVertex
100
AcDb2dVertex
 10
-1708.5624999999998
 20
1499.1062999999999
 30
0.0
  0
VERTEX
  5
55D
100
AcDbEntity
  8
____
  6
CONTINUOUS
 62
              30
100
AcDbVertex
100
AcDb2dVertex
 10
-1710.0562499999996
 20
1499.1062999999999
 30
0.0
 42
0.414213562373095
 70
               2
 50
9.3574199307792870E+17
  0
VERTEX
  5
55E
100
AcDbEntity
  8
____
  6
CONTINUOUS
 62
              30
100
AcDbVertex
100
AcDb2dVertex
 10
-1711.5499999999997
 20
1497.6125499999998
 30
0.0
  0
VERTEX
  5
55F
100
AcDbEntity
  8
____
  6
CONTINUOUS
 62
              30
100
AcDbVertex
100
AcDb2dVertex
 10
-1711.5499999999997
 20
1496.1188
 30
0.0
  0
VERTEX
  5
560
100
AcDbEntity
  8
____
  6
CONTINUOUS
 62
              30
100
AcDbVertex
100
AcDb2dVertex
 10
-1713.4499999999998
 20
1496.1188
 30
0.0
  0
VERTEX
  5
561
100
AcDbEntity
  8
____
  6
CONTINUOUS
 62
              30
100
AcDbVertex
100
AcDb2dVertex
 10
-1713.4499999999998
 20
1497.6125499999998
 30
0.0
 42
0.414213562373095
 70
               2
  0
VERTEX
  5
562
100
AcDbEntity
  8
____
  6
CONTINUOUS
 62
              30
100
AcDbVertex
100
AcDb2dVertex
 10
-1714.9437499999999
 20
1499.1062999999999
 30
0.0
  0
VERTEX
  5
563
100
AcDbEntity
  8
____
  6
CONTINUOUS
 62
              30
100
AcDbVertex
100
AcDb2dVertex
 10
-1716.4374999999998
 20
1499.1062999999999
 30
0.0
  0
VERTEX
  5
564
100
AcDbEntity
  8
____
  6
CONTINUOUS
 62
              30
100
AcDbVertex
100
AcDb2dVertex
 10
-1716.4374999999998
 20
1501.0063
 30
0.0
  0
VERTEX
  5
565
100
AcDbEntity
  8
____
  6
CONTINUOUS
 62
              30
100
AcDbVertex
100
AcDb2dVertex
 10
-1714.9437499999999
 20
1501.0063
 30
0.0
 42
0.414213562373095
 70
               2
 50
3.1191399769264294E+17
  0
VERTEX
  5
566
100
AcDbEntity
  8
____
  6
CONTINUOUS
 62
              30
100
AcDbVertex
100
AcDb2dVertex
 10
-1713.4499999999998
 20
1502.5000500000001
 30
0.0
  0
SEQEND
  5
567
100
AcDbEntity
  8
____
  6
CONTINUOUS
 62
              30
  0
POLYLINE
  5
568
100
AcDbEntity
  8
____
  6
STYLE_05
 62
              30
100
AcDb2dPolyline
 66
               1
 10
0.0
 20
0.0
 30
0.0
 70
             129
  0
VERTEX
  5
569
100
AcDbEntity
  8
____
  6
STYLE_05
 62
              30
100
AcDbVertex
100
AcDb2dVertex
 10
-1691.4980999999998
 20
1525.0563
 30
0.0
  0
VERTEX
  5
56A
100
AcDbEntity
  8
____
  6
STYLE_05
 62
              30
100
AcDbVertex
100
AcDb2dVertex
 10
-1641.4980999999998
 20
1525.0563
 30
0.0
  0
VERTEX
  5
56B
100
AcDbEntity
  8
____
  6
STYLE_05
 62
              30
100
AcDbVertex
100
AcDb2dVertex
 10
-1641.4980999999998
 20
1475.0563
 30
0.0
  0
VERTEX
  5
56C
100
AcDbEntity
  8
____
  6
STYLE_05
 62
              30
100
AcDbVertex
100
AcDb2dVertex
 10
-1691.4980999999998
 20
1475.0563
 30
0.0
  0
VERTEX
  5
56D
100
AcDbEntity
  8
____
  6
STYLE_05
 62
              30
100
AcDbVertex
100
AcDb2dVertex
 10
-1691.4980999999998
 20
1525.0563
 30
0.0
  0
SEQEND
  5
56E
100
AcDbEntity
  8
____
  6
STYLE_05
 62
              30
  0
LINE
  5
56F
100
AcDbEntity
  8
____
  6
CONTINUOUS
 62
              30
100
AcDbLine
 10
-1727.4999999999998
 20
1475.0563
 30
0.0
 11
-1727.4999999999998
 21
1525.0563
 31
0.0
  0
LINE
  5
570
100
AcDbEntity
  8
____
  6
CONTINUOUS
 62
              30
100
AcDbLine
 10
-1627.4999999999998
 20
1475.0563
 30
0.0
 11
-1727.4999999999998
 21
1475.0563
 31
0.0
  0
LINE
  5
571
100
AcDbEntity
  8
____
  6
CONTINUOUS
 62
              30
100
AcDbLine
 10
-1627.4999999999998
 20
1480.0563
 30
0.0
 11
-1627.4999999999998
 21
1475.0563
 31
0.0
  0
LINE
  5
572
100
AcDbEntity
  8
____
  6
CONTINUOUS
 62
              30
100
AcDbLine
 10
-1727.4999999999998
 20
1525.0563
 30
0.0
 11
-1627.4999999999998
 21
1525.0563
 31
0.0
  0
LINE
  5
573
100
AcDbEntity
  8
____
  6
CONTINUOUS
 62
              30
100
AcDbLine
 10
-977.49999999999989
 20
1474.9999999999998
 30
0.0
 11
-977.49999999999989
 21
1480.0563
 31
0.0
  0
LINE
  5
574
100
AcDbEntity
  8
____
  6
CONTINUOUS
 62
              30
100
AcDbLine
 10
-877.49999999999989
 20
1474.9999999999998
 30
0.0
 11
-977.49999999999989
 21
1474.9999999999998
 31
0.0
  0
LINE
  5
575
100
AcDbEntity
  8
____
  6
CONTINUOUS
 62
              30
100
AcDbLine
 10
-877.49999999999989
 20
1524.9999999999998
 30
0.0
 11
-877.49999999999989
 21
1474.9999999999998
 31
0.0
  0
LINE
  5
576
100
AcDbEntity
  8
____
  6
CONTINUOUS
 62
              30
100
AcDbLine
 10
-977.49999999999989
 20
1524.9999999999998
 30
0.0
 11
-877.49999999999989
 21
1524.9999999999998
 31
0.0
  0
POLYLINE
  5
577
100
AcDbEntity
  8
____
  6
CONTINUOUS
 62
              30
100
AcDb2dPolyline
 66
               1
 10
0.0
 20
0.0
 30
0.0
 70
             128
  0
VERTEX
  5
578
100
AcDbEntity
  8
____
  6
CONTINUOUS
 62
              30
100
AcDbVertex
100
AcDb2dVertex
 10
-927.49999999999989
 20
1478.6781999999998
 30
0.0
  0
VERTEX
  5
579
100
AcDbEntity
  8
____
  6
CONTINUOUS
 62
              30
100
AcDbVertex
100
AcDb2dVertex
 10
-927.49999999999989
 20
1478.6781999999998
 30
0.0
 42
0.0199920063935889
 70
               2
 50
3.1191399769264294E+17
  0
VERTEX
  5
57A
100
AcDbEntity
  8
____
  6
CONTINUOUS
 62
              30
100
AcDbVertex
100
AcDb2dVertex
 10
-925.99999999999989
 20
1478.7381999999998
 30
0.0
  0
VERTEX
  5
57B
100
AcDbEntity
  8
____
  6
CONTINUOUS
 62
              30
100
AcDbVertex
100
AcDb2dVertex
 10
-925.99999999999989
 20
1478.7381999999998
 30
0.0
  0
VERTEX
  5
57C
100
AcDbEntity
  8
____
  6
CONTINUOUS
 62
              30
100
AcDbVertex
100
AcDb2dVertex
 10
-925.99999999999989
 20
1478.7381999999998
 30
0.0
  0
VERTEX
  5
57D
100
AcDbEntity
  8
____
  6
CONTINUOUS
 62
              30
100
AcDbVertex
100
AcDb2dVertex
 10
-925.99999999999989
 20
1478.7381999999998
 30
0.0
 42
0.1864415926352579
 70
               2
 50
-714.44900788994005
  0
VERTEX
  5
57E
100
AcDbEntity
  8
____
  6
CONTINUOUS
 62
              30
100
AcDbVertex
100
AcDb2dVertex
 10
-913.52608492732168
 20
1484.7434175352446
 30
0.0
  0
VERTEX
  5
57F
100
AcDbEntity
  8
____
  6
CONTINUOUS
 62
              30
100
AcDbVertex
100
AcDb2dVertex
 10
-913.35789999999997
 20
1484.9226999999998
 30
0.0
  0
VERTEX
  5
580
100
AcDbEntity
  8
____
  6
CONTINUOUS
 62
              30
100
AcDbVertex
100
AcDb2dVertex
 10
-913.35789999999997
 20
1484.9226999999998
 30
0.0
  0
VERTEX
  5
581
100
AcDbEntity
  8
____
  6
CONTINUOUS
 62
              30
100
AcDbVertex
100
AcDb2dVertex
 10
-913.35789999999997
 20
1484.9226999999998
 30
0.0
  0
VERTEX
  5
582
100
AcDbEntity
  8
____
  6
CONTINUOUS
 62
              30
100
AcDbVertex
100
AcDb2dVertex
 10
-912.91368360011381
 20
1485.396225476271
 30
0.0
 42
0.1906282468691758
 70
               2
 50
-53.749430979707022
  0
VERTEX
  5
583
100
AcDbEntity
  8
____
  6
CONTINUOUS
 62
              30
100
AcDbVertex
100
AcDb2dVertex
 10
-907.49999999999989
 20
1499.0798089476843
 30
0.0
  0
VERTEX
  5
584
100
AcDbEntity
  8
____
  6
CONTINUOUS
 62
              30
100
AcDbVertex
100
AcDb2dVertex
 10
-907.49999999999989
 20
1499.9981999999998
 30
0.0
  0
VERTEX
  5
585
100
AcDbEntity
  8
____
  6
CONTINUOUS
 62
              30
100
AcDbVertex
100
AcDb2dVertex
 10
-907.49999999999989
 20
1499.9981999999998
 30
0.0
  0
VERTEX
  5
586
100
AcDbEntity
  8
____
  6
CONTINUOUS
 62
              30
100
AcDbVertex
100
AcDb2dVertex
 10
-907.49999999999989
 20
1500.0581999999999
 30
0.0
  0
VERTEX
  5
587
100
AcDbEntity
  8
____
  6
CONTINUOUS
 62
              30
100
AcDbVertex
100
AcDb2dVertex
 10
-907.49999999999989
 20
1500.0581999999999
 30
0.0
  0
VERTEX
  5
588
100
AcDbEntity
  8
____
  6
CONTINUOUS
 62
              30
100
AcDbVertex
100
AcDb2dVertex
 10
-907.49999999999989
 20
1500.9767097423562
 30
0.0
 42
0.1906282468691821
 70
               2
  0
VERTEX
  5
589
100
AcDbEntity
  8
____
  6
CONTINUOUS
 62
              30
100
AcDbVertex
100
AcDb2dVertex
 10
-912.91360239526591
 20
1514.6600879610437
 30
0.0
  0
VERTEX
  5
58A
100
AcDbEntity
  8
____
  6
CONTINUOUS
 62
              30
100
AcDbVertex
100
AcDb2dVertex
 10
-913.35789999999997
 20
1515.1336999999999
 30
0.0
  0
VERTEX
  5
58B
100
AcDbEntity
  8
____
  6
CONTINUOUS
 62
              30
100
AcDbVertex
100
AcDb2dVertex
 10
-913.35789999999997
 20
1515.1336999999999
 30
0.0
  0
VERTEX
  5
58C
100
AcDbEntity
  8
____
  6
CONTINUOUS
 62
              30
100
AcDbVertex
100
AcDb2dVertex
 10
-913.35789999999997
 20
1515.1336999999999
 30
0.0
  0
VERTEX
  5
58D
100
AcDbEntity
  8
____
  6
CONTINUOUS
 62
              30
100
AcDbVertex
100
AcDb2dVertex
 10
-913.52613869391973
 20
1515.3130429865748
 30
0.0
 42
0.1864473761644706
 70
               2
 50
53.748224541620417
  0
VERTEX
  5
58E
100
AcDbEntity
  8
____
  6
CONTINUOUS
 62
              30
100
AcDbVertex
100
AcDb2dVertex
 10
-925.99999999999989
 20
1521.3181999999999
 30
0.0
  0
VERTEX
  5
58F
100
AcDbEntity
  8
____
  6
CONTINUOUS
 62
              30
100
AcDbVertex
100
AcDb2dVertex
 10
-925.99999999999989
 20
1521.3181999999999
 30
0.0
  0
VERTEX
  5
590
100
AcDbEntity
  8
____
  6
CONTINUOUS
 62
              30
100
AcDbVertex
100
AcDb2dVertex
 10
-925.99999999999989
 20
1521.3181999999999
 30
0.0
  0
VERTEX
  5
591
100
AcDbEntity
  8
____
  6
CONTINUOUS
 62
              30
100
AcDbVertex
100
AcDb2dVertex
 10
-925.99999999999989
 20
1521.3181999999999
 30
0.0
 42
0.0199866886674246
 70
               2
 50
715.14682128980428
  0
VERTEX
  5
592
100
AcDbEntity
  8
____
  6
CONTINUOUS
 62
              30
100
AcDbVertex
100
AcDb2dVertex
 10
-927.49999999999989
 20
1521.3781999999999
 30
0.0
  0
VERTEX
  5
593
100
AcDbEntity
  8
____
  6
CONTINUOUS
 62
              30
100
AcDbVertex
100
AcDb2dVertex
 10
-927.49999999999989
 20
1521.3781999999999
 30
0.0
  0
SEQEND
  5
594
100
AcDbEntity
  8
____
  6
CONTINUOUS
 62
              30
  0
LINE
  5
595
100
AcDbEntity
  8
____
  6
CONTINUOUS
 62
              30
100
AcDbLine
 10
-1627.4999999999998
 20
1525.0563
 30
0.0
 11
-1627.4999999999998
 21
1519.9999999999998
 31
0.0
  0
LINE
  5
596
100
AcDbEntity
  8
____
  6
CONTINUOUS
 62
              30
100
AcDbLine
 10
-977.49999999999989
 20
1519.9999999999998
 30
0.0
 11
-977.49999999999989
 21
1524.9999999999998
 31
0.0
  0
LINE
  5
597
100
AcDbEntity
  8
____
  6
STYLE_05
 62
              30
100
AcDbLine
 10
-927.49999999999989
 20
1474.9999999999998
 30
0.0
 11
-927.49999999999989
 21
1524.9999999999998
 31
0.0
  0
POLYLINE
  5
598
100
AcDbEntity
  8
____
  6
CONTINUOUS
 62
               3
100
AcDb2dPolyline
 66
               1
 10
0.0
 20
0.0
 30
0.0
 70
             129
  0
VERTEX
  5
599
100
AcDbEntity
  8
____
  6
CONTINUOUS
 62
               3
100
AcDbVertex
100
AcDb2dVertex
 10
-1697.3499999999999
 20
1501.3499999999999
 30
0.0
  0
VERTEX
  5
59A
100
AcDbEntity
  8
____
  6
CONTINUOUS
 62
               3
100
AcDbVertex
100
AcDb2dVertex
 10
-1697.3499999999999
 20
1501.3499999999999
 30
0.0
 42
-0.414213562373095
 70
               2
  0
VERTEX
  5
59B
100
AcDbEntity
  8
____
  6
CONTINUOUS
 62
               3
100
AcDbVertex
100
AcDb2dVertex
 10
-1677.3499999999999
 20
1521.3499999999999
 30
0.0
  0
VERTEX
  5
59C
100
AcDbEntity
  8
____
  6
CONTINUOUS
 62
               3
100
AcDbVertex
100
AcDb2dVertex
 10
-925.99999999999989
 20
1521.3499999999999
 30
0.0
  0
VERTEX
  5
59D
100
AcDbEntity
  8
____
  6
CONTINUOUS
 62
               3
100
AcDbVertex
100
AcDb2dVertex
 10
-925.99999999999989
 20
1521.3499999999999
 30
0.0
 42
-0.4142135623730935
 70
               2
 50
1.0167439442254516E+16
  0
VERTEX
  5
59E
100
AcDbEntity
  8
____
  6
CONTINUOUS
 62
               3
100
AcDbVertex
100
AcDb2dVertex
 10
-904.64999999999998
 20
1499.9999999999998
 30
0.0
  0
VERTEX
  5
59F
100
AcDbEntity
  8
____
  6
CONTINUOUS
 62
               3
100
AcDbVertex
100
AcDb2dVertex
 10
-904.64999999999998
 20
1498.6499999999999
 30
0.0
  0
VERTEX
  5
5A0
100
AcDbEntity
  8
____
  6
CONTINUOUS
 62
               3
100
AcDbVertex
100
AcDb2dVertex
 10
-904.64999999999998
 20
1498.6499999999999
 30
0.0
 42
-0.4142135623730984
 70
               2
  0
VERTEX
  5
5A1
100
AcDbEntity
  8
____
  6
CONTINUOUS
 62
               3
100
AcDbVertex
100
AcDb2dVertex
 10
-924.64999999999986
 20
1478.6499999999999
 30
0.0
  0
VERTEX
  5
5A2
100
AcDbEntity
  8
____
  6
CONTINUOUS
 62
               3
100
AcDbVertex
100
AcDb2dVertex
 10
-1675.9999999999998
 20
1478.6499999999999
 30
0.0
  0
VERTEX
  5
5A3
100
AcDbEntity
  8
____
  6
CONTINUOUS
 62
               3
100
AcDbVertex
100
AcDb2dVertex
 10
-1675.9999999999998
 20
1478.6499999999999
 30
0.0
 42
-0.4142135623730981
 70
               2
 50
-5470051320811412.0
  0
VERTEX
  5
5A4
100
AcDbEntity
  8
____
  6
CONTINUOUS
 62
               3
100
AcDbVertex
100
AcDb2dVertex
 10
-1697.3499999999999
 20
1499.9999999999998
 30
0.0
  0
SEQEND
  5
5A5
100
AcDbEntity
  8
____
  6
CONTINUOUS
 62
               3
  0
POLYLINE
  5
5A6
100
AcDbEntity
  8
____
  6
CONTINUOUS
 62
              30
100
AcDb2dPolyline
 66
               1
 10
0.0
 20
0.0
 30
0.0
 70
               1
 75
               5
  0
VERTEX
  5
5A7
100
AcDbEntity
  8
____
  6
CONTINUOUS
 62
              30
100
AcDbVertex
100
AcDb2dVertex
 10
-2672.4999999999995
 20
1544.9999999999998
 30
0.0
  0
VERTEX
  5
5A8
100
AcDbEntity
  8
____
  6
CONTINUOUS
 62
              30
100
AcDbVertex
100
AcDb2dVertex
 10
-2667.4999999999995
 20
1549.9999999999998
 30
0.0
  0
VERTEX
  5
5A9
100
AcDbEntity
  8
____
  6
CONTINUOUS
 62
              30
100
AcDbVertex
100
AcDb2dVertex
 10
-787.49999999999989
 20
1549.9999999999998
 30
0.0
  0
VERTEX
  5
5AA
100
AcDbEntity
  8
____
  6
CONTINUOUS
 62
              30
100
AcDbVertex
100
AcDb2dVertex
 10
-782.49999999999989
 20
1544.9999999999998
 30
0.0
  0
VERTEX
  5
5AB
100
AcDbEntity
  8
____
  6
CONTINUOUS
 62
              30
100
AcDbVertex
100
AcDb2dVertex
 10
-782.49999999999989
 20
1454.9999999999998
 30
0.0
  0
VERTEX
  5
5AC
100
AcDbEntity
  8
____
  6
CONTINUOUS
 62
              30
100
AcDbVertex
100
AcDb2dVertex
 10
-787.49999999999989
 20
1449.9999999999998
 30
0.0
  0
VERTEX
  5
5AD
100
AcDbEntity
  8
____
  6
CONTINUOUS
 62
              30
100
AcDbVertex
100
AcDb2dVertex
 10
-2667.4999999999995
 20
1449.9999999999998
 30
0.0
  0
VERTEX
  5
5AE
100
AcDbEntity
  8
____
  6
CONTINUOUS
 62
              30
100
AcDbVertex
100
AcDb2dVertex
 10
-2672.4999999999995
 20
1454.9999999999998
 30
0.0
  0
SEQEND
  5
5AF
100
AcDbEntity
  8
____
  6
CONTINUOUS
 62
              30
  0
LINE
  5
5B1
100
AcDbEntity
  8
____
  6
CONTINUOUS
 62
              30
100
AcDbLine
 10
-2667.4999999999995
 20
1549.9999999999998
 30
0.0
 11
-2667.4999999999995
 21
1449.9999999999998
 31
0.0
  0
LINE
  5
5B2
100
AcDbEntity
  8
____
  6
CONTINUOUS
 62
              30
100
AcDbLine
 10
-787.49999999999989
 20
1549.9999999999998
 30
0.0
 11
-787.49999999999989
 21
1449.9999999999998
 31
0.0
  0
LINE
  5
5B3
100
AcDbEntity
  8
____
  6
CONTINUOUS
 62
              30
100
AcDbLine
 10
-2672.4999999999995
 20
1544.9999999999998
 30
0.0
 11
-782.49999999999955
 21
1544.9999999999998
 31
0.0
  0
LINE
  5
5B4
100
AcDbEntity
  8
____
  6
CONTINUOUS
 62
              30
100
AcDbLine
 10
-2672.4999999999995
 20
1454.9999999999998
 30
0.0
 11
-782.49999999999955
 21
1454.9999999999998
 31
0.0
  0
POLYLINE
  5
5B5
100
AcDbEntity
  8
____
  6
CONTINUOUS
 62
              30
100
AcDb2dPolyline
 66
               1
 10
0.0
 20
0.0
 30
0.0
 70
             129
  0
VERTEX
  5
5B6
100
AcDbEntity
  8
____
  6
CONTINUOUS
 62
              30
100
AcDbVertex
100
AcDb2dVertex
 10
1503.4999999999998
 20
1524.9999999999998
 30
0.0
  0
VERTEX
  5
5B7
100
AcDbEntity
  8
____
  6
CONTINUOUS
 62
              30
100
AcDbVertex
100
AcDb2dVertex
 10
1508.4999999999998
 20
1524.9999999999998
 30
0.0
  0
VERTEX
  5
5B8
100
AcDbEntity
  8
____
  6
CONTINUOUS
 62
              30
100
AcDbVertex
100
AcDb2dVertex
 10
1508.4999999999998
 20
1474.9999999999998
 30
0.0
  0
VERTEX
  5
5B9
100
AcDbEntity
  8
____
  6
CONTINUOUS
 62
              30
100
AcDbVertex
100
AcDb2dVertex
 10
1503.4999999999998
 20
1474.9999999999998
 30
0.0
  0
VERTEX
  5
5BA
100
AcDbEntity
  8
____
  6
CONTINUOUS
 62
              30
100
AcDbVertex
100
AcDb2dVertex
 10
1503.4999999999998
 20
1524.9999999999998
 30
0.0
  0
SEQEND
  5
5BB
100
AcDbEntity
  8
____
  6
CONTINUOUS
 62
              30
  0
POLYLINE
  5
5BC
100
AcDbEntity
  8
____
  6
CONTINUOUS
 62
              30
100
AcDb2dPolyline
 66
               1
 10
0.0
 20
0.0
 30
0.0
 70
             129
  0
VERTEX
  5
5BD
100
AcDbEntity
  8
____
  6
CONTINUOUS
 62
              30
100
AcDbVertex
100
AcDb2dVertex
 10
1652.6420999999998
 20
1484.9032999999999
 30
0.0
  0
VERTEX
  5
5BE
100
AcDbEntity
  8
____
  6
CONTINUOUS
 62
              30
100
AcDbVertex
100
AcDb2dVertex
 10
1653.0319024323135
 20
1485.3194103063772
 30
0.0
 42
0.172279244845504
 70
               2
 50
-53.673350246825215
  0
VERTEX
  5
5BF
100
AcDbEntity
  8
____
  6
CONTINUOUS
 62
              30
100
AcDbVertex
100
AcDb2dVertex
 10
1658.3865039473267
 20
1497.586997140334
 30
0.0
  0
VERTEX
  5
5C0
100
AcDbEntity
  8
____
  6
CONTINUOUS
 62
              30
100
AcDbVertex
100
AcDb2dVertex
 10
1658.4436999999998
 20
1498.3987
 30
0.0
  0
VERTEX
  5
5C1
100
AcDbEntity
  8
____
  6
CONTINUOUS
 62
              30
100
AcDbVertex
100
AcDb2dVertex
 10
1658.4436999999998
 20
1498.3987
 30
0.0
  0
VERTEX
  5
5C2
100
AcDbEntity
  8
____
  6
CONTINUOUS
 62
              30
100
AcDbVertex
100
AcDb2dVertex
 10
1658.4436999999998
 20
1500.0
 30
0.0
  0
VERTEX
  5
5C3
100
AcDbEntity
  8
____
  6
CONTINUOUS
 62
              30
100
AcDbVertex
100
AcDb2dVertex
 10
1658.4436999999998
 20
1501.5983999999999
 30
0.0
  0
VERTEX
  5
5C4
100
AcDbEntity
  8
____
  6
CONTINUOUS
 62
              30
100
AcDbVertex
100
AcDb2dVertex
 10
1658.4436999999998
 20
1501.5983999999999
 30
0.0
  0
VERTEX
  5
5C5
100
AcDbEntity
  8
____
  6
CONTINUOUS
 62
              30
100
AcDbVertex
100
AcDb2dVertex
 10
1658.386606904922
 20
1502.4104215300106
 30
0.0
 42
0.1723205088829637
 70
               2
 50
4.0284564711653763
  0
VERTEX
  5
5C6
100
AcDbEntity
  8
____
  6
CONTINUOUS
 62
              30
100
AcDbVertex
100
AcDb2dVertex
 10
1653.0320739758963
 20
1514.6803120909567
 30
0.0
  0
VERTEX
  5
5C7
100
AcDbEntity
  8
____
  6
CONTINUOUS
 62
              30
100
AcDbVertex
100
AcDb2dVertex
 10
1652.6420999999998
 20
1515.0965999999999
 30
0.0
  0
VERTEX
  5
5C8
100
AcDbEntity
  8
____
  6
CONTINUOUS
 62
              30
100
AcDbVertex
100
AcDb2dVertex
 10
1652.6420999999998
 20
1515.0965999999999
 30
0.0
  0
VERTEX
  5
5C9
100
AcDbEntity
  8
____
  6
CONTINUOUS
 62
              30
100
AcDbVertex
100
AcDb2dVertex
 10
1652.6420999999998
 20
1515.0965999999999
 30
0.0
  0
VERTEX
  5
5CA
100
AcDbEntity
  8
____
  6
CONTINUOUS
 62
              30
100
AcDbVertex
100
AcDb2dVertex
 10
1652.4478223744168
 20
1515.3039979486871
 30
0.0
 42
0.207412432843096
 70
               2
 50
53.671157647315091
  0
VERTEX
  5
5CB
100
AcDbEntity
  8
____
  6
CONTINUOUS
 62
              30
100
AcDbVertex
100
AcDb2dVertex
 10
1638.4999999999998
 20
1521.3499999999999
 30
0.0
  0
VERTEX
  5
5CC
100
AcDbEntity
  8
____
  6
CONTINUOUS
 62
              30
100
AcDbVertex
100
AcDb2dVertex
 10
1638.4999999999998
 20
1521.3499999999999
 30
0.0
  0
VERTEX
  5
5CD
100
AcDbEntity
  8
____
  6
CONTINUOUS
 62
              30
100
AcDbVertex
100
AcDb2dVertex
 10
1614.1439999999998
 20
1521.3499999999999
 30
0.0
  0
VERTEX
  5
5CE
100
AcDbEntity
  8
____
  6
CONTINUOUS
 62
              30
100
AcDbVertex
100
AcDb2dVertex
 10
1508.4999999999998
 20
1521.3499999999999
 30
0.0
  0
VERTEX
  5
5CF
100
AcDbEntity
  8
____
  6
CONTINUOUS
 62
              30
100
AcDbVertex
100
AcDb2dVertex
 10
1508.4999999999998
 20
1478.6499999999999
 30
0.0
  0
VERTEX
  5
5D0
100
AcDbEntity
  8
____
  6
CONTINUOUS
 62
              30
100
AcDbVertex
100
AcDb2dVertex
 10
1614.1433
 20
1478.6499999999999
 30
0.0
  0
VERTEX
  5
5D1
100
AcDbEntity
  8
____
  6
CONTINUOUS
 62
              30
100
AcDbVertex
100
AcDb2dVertex
 10
1638.4999999999998
 20
1478.6499999999999
 30
0.0
  0
VERTEX
  5
5D2
100
AcDbEntity
  8
____
  6
CONTINUOUS
 62
              30
100
AcDbVertex
100
AcDb2dVertex
 10
1638.4999999999998
 20
1478.6499999999999
 30
0.0
  0
VERTEX
  5
5D3
100
AcDbEntity
  8
____
  6
CONTINUOUS
 62
              30
100
AcDbVertex
100
AcDb2dVertex
 10
1638.4999999999998
 20
1478.6499999999999
 30
0.0
 42
0.2074103523647745
 70
               2
 50
3.1191399769264294E+17
  0
VERTEX
  5
5D4
100
AcDbEntity
  8
____
  6
CONTINUOUS
 62
              30
100
AcDbVertex
100
AcDb2dVertex
 10
1652.4478706133209
 20
1484.6959568637169
 30
0.0
  0
VERTEX
  5
5D5
100
AcDbEntity
  8
____
  6
CONTINUOUS
 62
              30
100
AcDbVertex
100
AcDb2dVertex
 10
1652.6420999999998
 20
1484.9032999999999
 30
0.0
  0
VERTEX
  5
5D6
100
AcDbEntity
  8
____
  6
CONTINUOUS
 62
              30
100
AcDbVertex
100
AcDb2dVertex
 10
1652.6420999999998
 20
1484.9032999999999
 30
0.0
  0
VERTEX
  5
5D7
100
AcDbEntity
  8
____
  6
CONTINUOUS
 62
              30
100
AcDbVertex
100
AcDb2dVertex
 10
1652.6420999999998
 20
1484.9032999999999
 30
0.0
  0
SEQEND
  5
5D8
100
AcDbEntity
  8
____
  6
CONTINUOUS
 62
              30
  0
MTEXT
  5
5D9
100
AcDbEntity
  8
____
 62
              30
100
AcDbMText
 10
330.00000000000023
 20
-1495.7447656249997
 30
0.0
 40
48.865234375000007
 41
0.0
 71
               1
 72
               1
  1
※特記事項\P・ESWは、木粉50％以上、ポリプロピレン40％以上の配合で、\P  表面をサンディング加工した再生木材「EINスーパーウッド」の略称。\P・ESW塗装は、ESWの表面をアクリルシリコン系水性塗料で仕上げた製品。\P
  7
_______
  0
POLYLINE
  5
5DA
100
AcDbEntity
  8
____
  6
CONTINUOUS
 62
              30
100
AcDb2dPolyline
 66
               1
 10
0.0
 20
0.0
 30
0.0
 70
             129
  0
VERTEX
  5
5DB
100
AcDbEntity
  8
____
  6
CONTINUOUS
 62
              30
100
AcDbVertex
100
AcDb2dVertex
 10
-3908.4387999999994
 20
2759.9999999999995
 30
0.0
  0
VERTEX
  5
5DC
100
AcDbEntity
  8
____
  6
CONTINUOUS
 62
              30
100
AcDbVertex
100
AcDb2dVertex
 10
3891.5611999999996
 20
2759.9999999999995
 30
0.0
  0
VERTEX
  5
5DD
100
AcDbEntity
  8
____
  6
CONTINUOUS
 62
              30
100
AcDbVertex
100
AcDb2dVertex
 10
3891.5611999999996
 20
-2739.9999999999995
 30
0.0
  0
VERTEX
  5
5DE
100
AcDbEntity
  8
____
  6
CONTINUOUS
 62
              30
100
AcDbVertex
100
AcDb2dVertex
 10
-3908.4387999999994
 20
-2739.9999999999995
 30
0.0
  0
VERTEX
  5
5DF
100
AcDbEntity
  8
____
  6
CONTINUOUS
 62
              30
100
AcDbVertex
100
AcDb2dVertex
 10
-3908.4387999999994
 20
2759.9999999999995
 30
0.0
  0
SEQEND
  5
5E0
100
AcDbEntity
  8
____
  6
CONTINUOUS
 62
              30
  0
LINE
  5
5E1
100
AcDbEntity
  8
____
  6
CONTINUOUS
 62
              30
100
AcDbLine
 10
2391.5610999999999
 20
2759.9999999999995
 30
0.0
 11
2391.5610999999999
 21
1859.9999999999998
 31
0.0
  0
LINE
  5
5E2
100
AcDbEntity
  8
____
  6
CONTINUOUS
 62
              30
100
AcDbLine
 10
2791.5610999999999
 20
2759.9999999999995
 30
0.0
 11
2791.5610999999999
 21
1859.9999999999998
 31
0.0
  0
LINE
  5
5E3
100
AcDbEntity
  8
____
  6
CONTINUOUS
 62
              30
100
AcDbLine
 10
3891.5610999999994
 20
1859.9999999999998
 30
0.0
 11
2391.5610999999999
 21
1859.9999999999998
 31
0.0
  0
LINE
  5
5E4
100
AcDbEntity
  8
____
  6
CONTINUOUS
 62
              30
100
AcDbLine
 10
3891.5610999999994
 20
2039.9999999999998
 30
0.0
 11
2391.5610999999999
 21
2039.9999999999998
 31
0.0
  0
LINE
  5
5E5
100
AcDbEntity
  8
____
  6
CONTINUOUS
 62
              30
100
AcDbLine
 10
3891.5610999999994
 20
2220.0
 30
0.0
 11
2391.5610999999999
 21
2220.0
 31
0.0
  0
MTEXT
  5
5E6
100
AcDbEntity
  8
____
 62
              30
100
AcDbMText
 10
2449.2972
 20
1981.6780230625
 30
0.0
 40
54.2947390625
 41
0.0
 71
               1
 72
               1
  1
縮　　尺
  7
_______
  0
MTEXT
  5
5E7
100
AcDbEntity
  8
____
 62
              30
100
AcDbMText
 10
2449.2972
 20
2159.7390230624997
 30
0.0
 40
54.2947390625
 41
0.0
 71
               1
 72
               1
  1
規格寸法
  7
_______
  0
MTEXT
  5
5E8
100
AcDbEntity
  8
____
 62
              30
100
AcDbMText
 10
3055.7646999999997
 20
2163.6170230624998
 30
0.0
 40
54.2947390625
 41
0.0
 71
               1
 72
               1
  1
W2100×L815×H750
  7
_______
  0
MTEXT
  5
5E9
100
AcDbEntity
  8
____
 62
              30
100
AcDbMText
 10
3185.1721999999995
 20
1979.7390230624999
 30
0.0
 40
54.2947390625
 41
0.0
 71
               1
 72
               1
  1
1：20(A3)
  7
_______
  0
LINE
  5
5EA
100
AcDbEntity
  8
____
  6
CONTINUOUS
 62
              30
100
AcDbLine
 10
3891.5610999999994
 20
2400.0
 30
0.0
 11
2391.5610999999999
 21
2400.0
 31
0.0
  0
LINE
  5
5EB
100
AcDbEntity
  8
____
  6
CONTINUOUS
 62
              30
100
AcDbLine
 10
3891.5610999999994
 20
2580.0
 30
0.0
 11
2391.5610999999999
 21
2580.0
 31
0.0
  0
MTEXT
  5
5EC
100
AcDbEntity
  8
____
 62
              30
100
AcDbMText
 10
2449.2972
 20
2701.6780230625
 30
0.0
 40
54.2947390625
 41
0.0
 71
               1
 72
               1
  1
品　　名
  7
_______
  0
MTEXT
  5
5ED
100
AcDbEntity
  8
____
 62
              30
100
AcDbMText
 10
2449.2972
 20
2519.7390230624997
 30
0.0
 40
54.2947390625
 41
0.0
 71
               1
 72
               1
  1
仕　　様
  7
_______
  0
MTEXT
  5
5EE
100
AcDbEntity
  8
____
 62
              30
100
AcDbMText
 10
2449.2972
 20
2339.7390230624997
 30
0.0
 40
54.2947390625
 41
0.0
 71
               1
 72
               1
  1
記　　号
  7
_______
  0
MTEXT
  5
5EF
100
AcDbEntity
  8
____
 62
              30
100
AcDbMText
 10
3107.7331999999997
 20
2699.7390230624997
 30
0.0
 40
54.2947390625
 41
0.0
 71
               1
 72
               1
  1
ＥＳＷテーブル
  7
_______
  0
MTEXT
  5
5F0
100
AcDbEntity
  8
____
 62
              30
100
AcDbMText
 10
3011.9239916587317
 20
2518.7900230625
 30
0.0
 40
54.2947390625
 41
0.0
 71
               1
 72
               1
  1
ＥＩＮスーパーウッド
  7
_______
  0
MTEXT
  5
5F1
100
AcDbEntity
  8
____
 62
              30
100
AcDbMText
 10
3259.9101999999998
 20
2344.9420230625001
 30
0.0
 40
54.2947390625
 41
0.0
 71
               1
 72
               1
  1
T-040
  7
_______
  0
MTEXT
  5
5F2
100
AcDbEntity
  8
____
 62
              30
100
AcDbMText
 10
2289.3388
 20
-2528.6505312499994
 30
0.0
 40
97.73046875
 41
0.0
 71
               1
 72
               1
  1
イー・トップ株式会社
  7
_______
  0
LINE
  5
5F3
100
AcDbEntity
  8
____
  6
CONTINUOUS
 62
              30
100
AcDbLine
 10
-3908.4387999999994
 20
-2439.9998999999998
 30
0.0
 11
3891.5611999999996
 21
-2439.9998999999998
 31
0.0
  0
ENDSEC
  0
SECTION
  2
OBJECTS
  0
DICTIONARY
  5
19
100
AcDbDictionary
  3
ACAD_GROUP
350
1A
  3
ACAD_MLINESTYLE
350
1B
  0
DICTIONARY
  5
1A
102
{ACAD_REACTORS
330
19
102
}
100
AcDbDictionary
  0
DICTIONARY
  5
1B
102
{ACAD_REACTORS
330
19
102
}
100
AcDbDictionary
  3
STANDARD
350
1C
  0
MLINESTYLE
  5
1C
102
{ACAD_REACTORS
330
1B
102
}
100
AcDbMlineStyle
  2
STANDARD
 70
               0
  3

 62
               0
 51
90.0
 52
90.0
 71
               2
 49
0.5
 62
             256
  6
BYLAYER
 49
-0.5
 62
             256
  6
BYLAYER
  0
ENDSEC
  0
EOF
